Oops, an error
Loading. Please wait.

Fade To Black Live Tab

ver1
ver1

Intro

Whole song

Interactive

More versions @911Tabs.com
7,511 views 9 this week
2 commentsread comments
1 2 3 4 5
accurate
x 5
Autoscroll
+/-
esc
set tempo
stop
Contributor
Difficulty
intermediate
Hey! There's an official Ultimate Guitar app which is ideal
for learning songs when you're away from computer. Get the app
WARNING: You are trying to view
                                    content from Ultimate-Guitar.com
                                    in an unauthorized application,
                                    which is prohibited.

                                    Please use an official Ultimate
                                    Guitar Tabs application for iPhone,
                                    iPad or Android to access legitimate
                                    chords, guitar, bass, and drum tabs
                                    from Ultimate-Guitar.com database.

                                    Type "ultimate guitar tabs" in Apple
                                    App Store's or Android Market's
                                    search to find the application.
                                Fade To Black                                   

This Was Kinda Tough I Have Tabbed Both On Live Version Of James And Kirk 
This Is 100 % Correct But Tooo Long !!
Pls Rate
                                                                       Metallica
James



    

E||--------------------------|--------------------------|
B||--------------------------|--------------------------|
G||--------0-----------------|--------0-----------------|
D||-----4-----4-----4-----4--|-----4-----4-----4-----4--|
A||--2-----------2-----5-----|--0-----------0-----5-----|
E||--------------------------|--------------------------|


 
--------------------------|--------------------------|
--------------------------|--------------------------|
--------0-----------------|--------2-----------------|
-----4-----4-----4-----4--|-----2-----2-----2-----2--|
--2-----------2-----5-----|--4-----------4-----0-----|
--------------------------|--------------------------|


 
--------------------------|--------------------------|
--------------------------|--------------------------|
--------0-----------------|--------0-----------------|
-----4-----4-----4-----4--|-----4-----4-----4-----4--|
--2-----------2-----5-----|--0-----------0-----5-----|
--------------------------|--------------------------|

--------------------------|-------------------|--------------------------|
--------------------------|-------------------|--------------------------|
--------0-----------------|--2----------------|--------0-----------------|
-----4-----4-----4-----4--|--2----------------|-----4-----4-----4-----4--|
--2-----------2-----5-----|--4----------------|--2-----------2-----5-----|
--------------------------|-------------------|--------------------------|


 
--------------------------|--------------------------|
--------------------------|--------------------------|
--------0-----------------|--------0-----------------|
-----4-----4-----4-----4--|-----4-----4-----4-----4--|
--0-----------0-----5-----|--2-----------2-----5-----|
--------------------------|--------------------------|


 
--------------------------|--------------------------|
--------------------------|--------------------------|
--------2-----------------|--------0-----------------|
-----2-----2-----2-----2--|-----4-----4-----4-----4--|
--4-----------4-----0-----|--2-----------2-----5-----|
--------------------------|--------------------------|


--------------------------|--------------------------|
--------------------------|--------------------------|
--------0-----------------|--------0-----------------|
-----4-----4-----4-----4--|-----4-----4-----4-----4--|
--0-----------0-----5-----|--2-----------2-----5-----|
--------------------------|--------------------------|


 
--------------------------|--------------------------|
--------------------------|--------------------------|
--------2-----------------|--------0-----------------|
-----2-----2-----2-----2--|-----4-----4-----4-----4--|
--4-----------4-----0-----|--2-----------2-----5-----|
--------------------------|--------------------------|


  
--------------------------|--------------------------|
--------------------------|--------------------------|
--------0-----------------|--------0-----------------|
-----4-----4-----4-----4--|-----4-----4-----4-----4--|
--0-----------0-----5-----|--2-----------2-----5-----|
--------------------------|--------------------------|


 
--------------------------|--------------------------|
--------------------------|--------------------------|
--------2-----------------|--------0-----------------|
-----2-----2-----2-----2--|-----4-----4-----4-----4--|
--4-----------4-----0-----|--2-----------2-----5-----|
--------------------------|--------------------------|


 
--------------------------|--------------------------|
--------------------------|--------------------------|
--------0-----------------|--------0-----------------|
-----4-----4-----4-----4--|-----4-----4-----4-----4--|
--0-----------0-----5-----|--2-----------2-----5-----|
--------------------------|--------------------------|


 
--------------------------|--------------------------|
--------------------------|--------------------------|
--------2-----------------|--------------------------|
-----2-----2-----2-----2--|--------0-----------2-----|
--4-----------4-----0-----|-----3-----------2-----2--|
--------------------------|--1--------1--4-----------|


  
--------------------------|---------------0------------|
--------------------0--3--|--0h--1------------------1--|
--------1--------1--------|--2------2-----------0-2----|
-----2--------2-----------|--2---------2-----2---------|
--2--------2--------------|----------------------------|
--------------------------|----------------------------|


    
-------------0------------|-------------3-----------|-------------------------|
-------1---------------0--|-------3-----------------|-------------0----1g3----|
--0----------------0-2----|--0----------------2--0--|--0----------0----2g4----|
--2-------2-----2---------|--0-------0-----0--------|-------2-----------------|
--3-----------------------|--2----------------------|----------2--------------|
--------------------------|-------------------------|-------------------------|


  
---------------0------------|-------------0------------|
--0h--1------------------1--|-------1---------------0--|
--2------2-----------0-2----|--0----------------0-2----|
--2---------2-----2---------|--2-------2-----2---------|
----------------------------|--3-----------------------|
----------------------------|--------------------------|


 
-------------3-----------|-------------------------|
-------3-----------------|-------------0----1g3----|
--0----------------2--0--|--0----------0----2g4----|
--0-------0-----0--------|-------2-----------------|
--2----------------------|----------2--------------|
-------------------------|-------------------------|


---------------0------------|-------------0------------|
--0h--1------------------1--|-------1---------------0--|
--2------2-----------0-2----|--0----------------0-2----|
--2---------2-----2---------|--2-------2-----2---------|
----------------------------|--3-----------------------|
----------------------------|--------------------------|


 
-------------3-----------|-------------------------|
-------3-----------------|-------------0----1g3----|
--0----------------2--0--|--0----------0----2g4----|
--0-------0-----0--------|-------2-----------------|
--2----------------------|----------2--------------|
-------------------------|-------------------------|


  
---------------0------------|-------------0------------|
--0h--1------------------1--|-------1---------------0--|
--2------2-----------0-2----|--0----------------0-2----|
--2---------2-----2---------|--2-------2-----2---------|
----------------------------|--3-----------------------|
----------------------------|--------------------------|


 
-------------3-----------|-------------------------|
-------3-----------------|-------------0----1g3----|
--0----------------2--0--|--0----------0----2g4----|
--0-------0-----0--------|-------2-----------------|
--2----------------------|----------2--------------|
-------------------------|-------------------------|


   
---------------0------------|-------------0------------|
--0h--1------------------1--|-------1---------------0--|
--2------2-----------0-2----|--0----------------0-2----|
--2---------2-----2---------|--2-------2-----2---------|
----------------------------|--3-----------------------|
----------------------------|--------------------------|


    
-------------3-----------|-------------------------|
-------3-----------------|-------------0----1g3----|
--0----------------2--0--|--0----------0----2g4----|
--0-------0-----0--------|-------2-----------------|
--2----------------------|----------2--------------|
-------------------------|-------------------------|


   
---------------0------------|-------------0------------|
--0h--1------------------1--|-------1---------------0--|
--2------2-----------0-2----|--0----------------0-2----|
--2---------2-----2---------|--2-------2-----2---------|
----------------------------|--3-----------------------|
----------------------------|--------------------------|


 
-------------3----------------|-----------------------<>12----|
-------3----------------------|---------------<>12------------|
--0----------------2p-0h-2p-0-|--0----<>12--------------------|
--0-------0-----0-------------|--2----------------------------|
--2---------------------------|-------------------------------|
------------------------------|-------------------------------|


               PM PM                       PM PM                               
     
---------------------------|---------------------------|----------------------|
---------------------------|---------------------------|----------------------|
--2------2--2--------------|--5------5--5--------------|--2------2--2----7----|
--2------2--2--------------|--5------5--5--------------|--2------2--2----7----|
--0------0--0-----------5--|--3------3--3-----------5--|--0------0--0----5----|
---------------0--0--3-----|---------------0--0--3-----|----------------------|


               PM PM                       PM PM        
  
---------------------------|---------------------------|
---------------------------|---------------------------|
--9------9--9--------------|--2------2--2--------------|
--9------9--9--------------|--2------2--2--------------|
--7------7--7--------3--2--|--0------0--0-----------5--|
---------------0--0--------|---------------0--0--3-----|


               PM PM                         PM PM                      
                
---------------------------|-----------------------|-------------------|
---------------------------|-----------------------|-------------------|
--5------5--5--------------|--2------2--2----------|-------------------|
--5------5--5--------------|--2------2--2----------|--2----------------|
--3------3--3-----------5--|--0------0--0----5--4--|--2----------------|
---------------0--0--3-----|-----------------3--2--|--0----------------|


               PM PM                       PM PM                               
    
---------------------------|---------------------------|----------------------|
---------------------------|---------------------------|----------------------|
--2------2--2--------------|--5------5--5--------------|--2------2--2----7----|
--2------2--2--------------|--5------5--5--------------|--2------2--2----7----|
--0------0--0-----------5--|--3------3--3-----------5--|--0------0--0----5----|
---------------0--0--3-----|---------------0--0--3-----|----------------------|


               PM PM                       PM PM        
 
---------------------------|---------------------------|
---------------------------|---------------------------|
--9------9--9--------------|--2------2--2--------------|
--9------9--9--------------|--2------2--2--------------|
--7------7--7--------3--2--|--0------0--0-----------5--|
---------------0--0--------|---------------0--0--3-----|


               PM PM                         PM PM                      
     
---------------------------|-----------------------|-------------------|
---------------------------|-----------------------|-------------------|
--5------5--5--------------|--2------2--2----------|-------------------|
--5------5--5--------------|--2------2--2----------|--2----------------|
--3------3--3-----------5--|--0------0--0----5--4--|--2----------------|
---------------0--0--3-----|-----------------3--2--|--0----------------|


 
---------------------------|-------------0------------|
--0--1------------------1--|-------1---------------0--|
--2-----2-----------0-2----|-------------------0-2----|
--2--------2-----2---------|----------2-----2---------|
---------------------------|--3-----------------------|
---------------------------|--------------------------|


 
-------------3-----------|-------------------------|--------------0------------|
-------3-----------------|-------------0----1g3----|--0--1------------------1--|
--0----------------2--0--|--0----------0----2g4----|--2-----2-----------0-2----|
----------0-----0--------|-------2-----------------|--2--------2-----2---------|
-------------------------|----------2--------------|---------------------------|
-------------------------|-------------------------|---------------------------|


 
-------------0------------|-------------3------------|-------------------------|
-------1---------------0--|-------3------------------|-------------0----1g3----|
-------------------0-2----|--0----------------2br----|--0----------0----2g4----|
----------2-----2---------|----------0-----0---------|-------2-----------------|
--3-----------------------|--------------------------|----------2--------------|
--------------------------|--------------------------|-------------------------|


 
--------------0------------|-------------0------------|
--0--1------------------1--|-------1---------------0--|
--2-----2-----------0-2----|-------------------0-2----|
--2--------2-----2---------|----------2-----2---------|
---------------------------|--3-----------------------|
---------------------------|--------------------------|


 
-------------3-----------|-------------------------|--------------0------------|
-------3-----------------|-------------0----1g3----|--0--1------------------1--|
--0----------------2--0--|--0----------0----2g4----|--2-----2-----------0-2----|
----------0-----0--------|-------2-----------------|--2--------2-----2---------|
-------------------------|----------2--------------|---------------------------|
-------------------------|-------------------------|---------------------------|


 
-------------0------------|-------------3----------------|
-------1---------------0--|-------3----------------------|
-------------------0-2----|--0----------------2p-0h-2p-0-|
----------2-----2---------|----------0-----0-------------|
--3-----------------------|------------------------------|
--------------------------|------------------------------|


 
-------------------------|--------------0------------|
-------------0----1g3----|--0--1------------------1--|
--0----------0----2g4----|--2-----2-----------0-2----|
-------2-----------------|--2--------2-----2---------|
----------2--------------|---------------------------|
-------------------------|---------------------------|


 
-------------0------------|-------------3-----------|-------------------------|
-------1---------------0--|-------3-----------------|-------------0----1g3----|
-------------------0-2----|--0----------------2--0--|--0----------0----2g4----|
----------2-----2---------|----------0-----0--------|-------2-----------------|
--3-----------------------|-------------------------|----------2--------------|
--------------------------|-------------------------|-------------------------|


 
--------------0------------|-------------0------------|
--0--1------------------1--|-------1---------------0--|
--2-----2-----------0-2----|-------------------0-2----|
--2--------2-----2---------|----------2-----2---------|
---------------------------|--3-----------------------|
---------------------------|--------------------------|


                                         NH      NH      NH    
 
-------------3----------------|-----------------------<>12----|
-------3----------------------|---------------<>12------------|
--0----------------2p-0h-2p-0-|--0----<>12--------------------|
----------0-----0-------------|--2----------------------------|
------------------------------|-------------------------------|
------------------------------|-------------------------------|


               PM PM                       PM PM                               
   
---------------------------|---------------------------|----------------------|
---------------------------|---------------------------|----------------------|
--2------2--2--------------|--5------5--5--------------|--2------2--2----7----|
--2------2--2--------------|--5------5--5--------------|--2------2--2----7----|
--0------0--0-----------5--|--3------3--3-----------5--|--0------0--0----5----|
---------------0--0--3-----|---------------0--0--3-----|----------------------|


               PM PM                       PM PM        
 
---------------------------|---------------------------|
---------------------------|---------------------------|
--9------9--9--------------|--2------2--2--------------|
--9------9--9--------------|--2------2--2--------------|
--7------7--7--------3--2--|--0------0--0-----------5--|
---------------0--0--------|---------------0--0--3-----|


               PM PM                         PM PM                      
              
---------------------------|-----------------------|-------------------|
---------------------------|-----------------------|-------------------|
--5------5--5--------------|--2------2--2----------|-------------------|
--5------5--5--------------|--2------2--2----------|--2----------------|
--3------3--3-----------5--|--0------0--0----5--4--|--2----------------|
---------------0--0--3-----|-----------------3--2--|--0----------------|


               PM PM                       PM PM                               
   
---------------------------|---------------------------|----------------------|
---------------------------|---------------------------|----------------------|
--2------2--2--------------|--5------5--5--------------|--2------2--2----7----|
--2------2--2--------------|--5------5--5--------------|--2------2--2----7----|
--0------0--0-----------5--|--3------3--3-----------5--|--0------0--0----5----|
---------------0--0--3-----|---------------0--0--3-----|----------------------|


               PM PM                       PM PM        
  
---------------------------|---------------------------|
---------------------------|---------------------------|
--9------9--9--------------|--2------2--2--------------|
--9------9--9--------------|--2------2--2--------------|
--7------7--7--------3--2--|--0------0--0-----------5--|
---------------0--0--------|---------------0--0--3-----|


               PM PM                         PM PM                      
   
---------------------------|-----------------------|-------------------|
---------------------------|-----------------------|-------------------|
--5------5--5--------------|--2------2--2----------|-------------------|
--5------5--5--------------|--2------2--2----------|--2----------------|
--3------3--3-----------5--|--0------0--0----5--4--|--2----------------|
---------------0--0--3-----|-----------------3--2--|--0----------------|


  W                   W                   W                   W                 
-------------------|-------------------|-------------------|-------------------|
-------------------|-------------------|-------------------|-------------------|
-------------------|-------------------|-------------------|-------------------|
--L----------------|--L----------------|--L----------------|--2----------------|
--L----------------|--L----------------|--L----------------|--2----------------|
--L----------------|--L----------------|--L----------------|--0----------------|


              
-------------------|-------------------|-------------------|-------------------|
-------------------|-------------------|-------------------|-------------------|
-------------------|-------------------|-------------------|-------------------|
--L----------------|--L----------------|--L----------------|--2----------------|
--L----------------|--L----------------|--L----------------|--2----------------|
--L----------------|--L----------------|--L----------------|--0----------------|


-------------------|-------------------|-------------------|
-------------------|-------------------|-------------------|
-------------------|-------------------|-------------------|
--L----------------|--L----------------|--L----------------|
--L----------------|--L----------------|--L----------------|
--L----------------|--L----------------|--L----------------|


 
----------------------|-------------------------|------------------------|
----------------------|-------------------------|------------------------|
--7--9----9--9--------|--7--9----9--12--11------|--L--7----7--7----------|
--7--9----9--9--------|--7--9----9--12--11------|--L--7----7--7------9-9-|
--5--7----7--7--------|--5--7----7--10---9------|--L--5----5--5----------|
----------------------|-------------------------|------------------------|


 
-----------------------------|----------------------|-------------------------|
-----------------------------|----------------------|-------------------------|
--------------------------4--|--7--9----9--9--------|--7--9----9--12--11------|
--9--7-7-7--5-5-5--4-4-4-----|--7--9----9--9--------|--7--9----9--12--11------|
-----------------------------|--5--7----7--7--------|--5--7----7--10---9------|
-----------------------------|----------------------|-------------------------|


   
------------------------|-----------------------------|----------------------|
------------------------|-----------------------------|----------------------|
--L--7----7--7----------|--------------------------4--|--7--9----9--9--------|
--L--7----7--7------9-9-|--9--7-7-7--5-5-5--4-4-4-----|--7--9----9--9--------|
--L--5----5--5----------|-----------------------------|--5--7----7--7--------|
------------------------|-----------------------------|----------------------|


 
-------------------------|------------------------|
-------------------------|------------------------|
--7--9----9--12--11------|--L--7----7--7----------|
--7--9----9--12--11------|--L--7----7--7------9-9-|
--5--7----7--10---9------|--L--5----5--5----------|
-------------------------|------------------------|


 
-----------------------------|----------------------|-------------------------|
-----------------------------|----------------------|-------------------------|
--------------------------4--|--7--9----9--9--------|--7--9----9--12--11------|
--9--7-7-7--5-5-5--4-4-4-----|--7--9----9--9--------|--7--9----9--12--11------|
-----------------------------|--5--7----7--7--------|--5--7----7--10---9------|
-----------------------------|----------------------|-------------------------|


 
------------------------|-----------------------------|----------------------|
------------------------|-----------------------------|----------------------|
--L--7----7--7----------|--------------------------4--|--7--9----9--9--------|
--L--7----7--7------9-9-|--9--7-7-7--5-5-5--4-4-4-----|--7--9----9--9--------|
--L--5----5--5----------|-----------------------------|--5--7----7--7--------|
------------------------|-----------------------------|----------------------|


  
-------------------------|------------------------|
-------------------------|------------------------|
--7--9----9--12--11------|--L--7----7--7----------|
--7--9----9--12--11------|--L--7----7--7------9-9-|
--5--7----7--10---9------|--L--5----5--5----------|
-------------------------|------------------------|


  
-----------------------------|----------------------|-------------------------|
-----------------------------|----------------------|-------------------------|
--------------------------4--|--7--9----9--9--------|--7--9----9--12--11------|
--9--7-7-7--5-5-5--4-4-4-----|--7--9----9--9--------|--7--9----9--12--11------|
-----------------------------|--5--7----7--7--------|--5--7----7--10---9------|
-----------------------------|----------------------|-------------------------|


   
------------------------|-----------------------------|-----------------------|
------------------------|-----------------------------|-----------------------|
--L--7----7--7----------|--------------------------4--|--------------9--------|
--L--7----7--7------9-9-|--9--7-7-7--5-5-5--4-4-4-----|--------------9--------|
--L--5----5--5----------|-----------------------------|--------------7--------|
------------------------|-----------------------------|--0--0--0--0-----------|


  
--------------------------|-------------------------|
--------------------------|-------------------------|
--------------12--11------|--------------7----------|
--------------12--11------|--------------7------9-9-|
--------------10---9------|--------------5----------|
--0--0--0--0--------------|--0--0--0--0-------------|


 
-----------------------------|-----------------------|
-----------------------------|-----------------------|
--------------------------4--|--------------9--------|
--9--7-7-7--5-5-5--4-4-4-----|--------------9--------|
-----------------------------|--------------7--------|
-----------------------------|--0--0--0--0-----------|


 
--------------------------|-------------------------|
--------------------------|-------------------------|
--------------12--11------|--------------7----------|
--------------12--11------|--------------7------9-9-|
--------------10---9------|--------------5----------|
--0--0--0--0--------------|--0--0--0--0-------------|


                                                                  PM PM PM PM  
 
-----------------------------|-----------------------|------------------------|
-----------------------------|-----------------------|------------------------|
--------------------------4--|-----------------------|------------------------|
--9--7-7-7--5-5-5--4-4-4-----|---------4------4g5----|--L--4------2-----------|
-----------------------------|--2--------------------|---------------5--4--0--|
-----------------------------|-----------------------|------------------------|


                                    PM PM PM PM                          
 
-----------------------|------------------------|-----------------------|
-----------------------|------------------------|-----------------------|
-----------------------|------------------------|-----------------------|
---------4------4g5----|--L--7------5--4--2--4--|---------4------4g5----|
--4--------------------|------------------------|--2--------------------|
-----------------------|------------------------|-----------------------|


            PM PM PM PM                                      PM PM PM PM  
  
------------------------|-----------------------|------------------------|
------------------------|-----------------------|------------------------|
------------------------|-----------------------|------------------------|
--L--4------2-----------|---------4------4g5----|--L--7------5--4--2--4--|
---------------5--4--0--|--4--------------------|------------------------|
------------------------|-----------------------|------------------------|


                                    PM PM PM PM                          
  
-----------------------|------------------------|-----------------------|
-----------------------|------------------------|-----------------------|
-----------------------|------------------------|-----------------------|
---------4------4g5----|--L--4------2-----------|---------4------4g5----|
--2--------------------|---------------5--4--0--|--4--------------------|
-----------------------|------------------------|-----------------------|


            PM PM PM PM                                      PM PM PM PM  
  
------------------------|-----------------------|------------------------|
------------------------|-----------------------|------------------------|
------------------------|-----------------------|------------------------|
--L--7------5--4--2--4--|---------4------4g5----|--L--4------2-----------|
------------------------|--2--------------------|---------------5--4--0--|
------------------------|-----------------------|------------------------|


                                    PM PM PM PM                          
 
-----------------------|------------------------|-----------------------|
-----------------------|------------------------|-----------------------|
-----------------------|------------------------|-----------------------|
---------4------4g5----|--L--7------5--4--2--4--|---------4------4g5----|
--4--------------------|------------------------|--2--------------------|
-----------------------|------------------------|-----------------------|


            PM PM PM PM                                      PM PM PM PM  
    
------------------------|-----------------------|------------------------|
------------------------|-----------------------|------------------------|
------------------------|-----------------------|------------------------|
--L--4------2-----------|---------4------4g5----|--L--7------5--4--2--4--|
---------------5--4--0--|--4--------------------|------------------------|
------------------------|-----------------------|------------------------|


                                    PM PM PM PM                          
      
-----------------------|------------------------|-----------------------|
-----------------------|------------------------|-----------------------|
-----------------------|------------------------|-----------------------|
---------4------4g5----|--L--4------2-----------|---------4------4g5----|
--2--------------------|---------------5--4--0--|--4--------------------|
-----------------------|------------------------|-----------------------|


            PM PM PM                                         PM PM PM PM  
    
------------------------|-----------------------|------------------------|
------------------------|-----------------------|------------------------|
------------------------|-----------------------|------------------------|
--L--7------5--4--2--4--|---------4------4g5----|--L--4------2-----------|
------------------------|--2--------------------|---------------5--4--0--|
------------------------|-----------------------|------------------------|


                                    PM PM PM PM                          
     
-----------------------|------------------------|-----------------------|
-----------------------|------------------------|-----------------------|
-----------------------|------------------------|-----------------------|
---------4------4g5----|--L--7------5--4--2--4--|---------4------4g5----|
--4--------------------|------------------------|--2--------------------|
-----------------------|------------------------|-----------------------|


            PM PM PM PM                                      PM PM PM PM  
    
------------------------|-----------------------|------------------------|
------------------------|-----------------------|------------------------|
------------------------|-----------------------|------------------------|
--L--4------2-----------|---------4------4g5----|--L--7------5--4--2--4--|
---------------5--4--0--|--4--------------------|------------------------|
------------------------|-----------------------|------------------------|


                                    PM PM PM PM                          
  
-----------------------|------------------------|-----------------------|
-----------------------|------------------------|-----------------------|
-----------------------|------------------------|-----------------------|
---------4------4g5----|--L--4------2-----------|---------4------4g5----|
--2--------------------|---------------5--4--0--|--4--------------------|
-----------------------|------------------------|-----------------------|


            PM PM PM PM                                      PM PM PM PM  
    
------------------------|-----------------------|------------------------|
------------------------|-----------------------|------------------------|
------------------------|-----------------------|------------------------|
--L--7------5--4--2--4--|---------4------4g5----|--L--4------2-----------|
------------------------|--2--------------------|---------------5--4--0--|
------------------------|-----------------------|------------------------|


                                    PM PM PM PM                          
       
-----------------------|------------------------|-----------------------|
-----------------------|------------------------|-----------------------|
-----------------------|------------------------|-----------------------|
---------4------4g5----|--L--7------5--4--2--4--|---------4------4g5----|
--4--------------------|------------------------|--2--------------------|
-----------------------|------------------------|-----------------------|


            PM PM PM PM                                      PM PM PM PM  
  
------------------------|-----------------------|------------------------|
------------------------|-----------------------|------------------------|
------------------------|-----------------------|------------------------|
--L--4------2-----------|---------4------4g5----|--L--7------5--4--2--4--|
---------------5--4--0--|--4--------------------|------------------------|
------------------------|-----------------------|------------------------|


                                    PM PM PM PM                          
   
-----------------------|------------------------|-----------------------|
-----------------------|------------------------|-----------------------|
-----------------------|------------------------|-----------------------|
---------4------4g5----|--L--4------2-----------|---------4------4g5----|
--2--------------------|---------------5--4--0--|--4--------------------|
-----------------------|------------------------|-----------------------|


            PM PM PM PM                                      PM PM PM PM  
  
------------------------|-----------------------|------------------------|
------------------------|-----------------------|------------------------|
------------------------|-----------------------|------------------------|
--L--7------5--4--2--4--|---------4------4g5----|--L--4------2-----------|
------------------------|--2--------------------|---------------5--4--0--|
------------------------|-----------------------|------------------------|


                                    PM PM PM PM                          
     
-----------------------|------------------------|-----------------------|
-----------------------|------------------------|-----------------------|
-----------------------|------------------------|-----------------------|
---------4------4g5----|--L--7------5--4--2--4--|---------4------4g5----|
--4--------------------|------------------------|--2--------------------|
-----------------------|------------------------|-----------------------|


            PM PM PM PM                                      PM PM PM PM  
   
------------------------|-----------------------|------------------------|
------------------------|-----------------------|------------------------|
------------------------|-----------------------|------------------------|
--L--4------2-----------|---------4------4g5----|--L--7------5--4--2--4--|
---------------5--4--0--|--4--------------------|------------------------|
------------------------|-----------------------|------------------------|


                                    PM PM PM PM                          
  
-----------------------|------------------------|-----------------------|
-----------------------|------------------------|-----------------------|
-----------------------|------------------------|-----------------------|
---------4------4g5----|--L--4------2-----------|---------4------4g5----|
--2--------------------|---------------5--4--0--|--4--------------------|
-----------------------|------------------------|-----------------------|


            PM PM PM PM                                      PM PM PM PM  
   
------------------------|-----------------------|------------------------|
------------------------|-----------------------|------------------------|
------------------------|-----------------------|------------------------|
--L--7------5--4--2--4--|---------4------4g5----|--L--4------2-----------|
------------------------|--2--------------------|---------------5--4--0--|
------------------------|-----------------------|------------------------|


                                    PM PM PM PM                      
            
-----------------------|------------------------|-------------------|
-----------------------|------------------------|-------------------|
-----------------------|------------------------|--4----------------|
---------4------4g5----|--L--7------5--4--2--4--|--4----------------|
--4--------------------|------------------------|--2----------------|
-----------------------|------------------------|-------------------|


                
-------------------||
-------------------||
--L----------------||
--L----------------||
--L----------------||
-------------------||




                                                          


                                                                       Metallica
Kirk's part



E||-------|-------|-------|-------|-------|-------|-------|
B||-------|-------|-------|-------|-------|-------|-------|
G||-------|-------|-------|-------|-------|-------|-------|
D||-------|-------|-------|-------|-------|-------|-------|
A||-------|-------|-------|-------|-------|-------|-------|
E||-------|-------|-------|-------|-------|-------|-------|


 
--------------------------|----------------------------|
-----------------------7--|----------7-8-10~------8-10-|
--------------------7-----|----------------------------|
-----x--x-------/9--------|--9~------------------------|
-----x--x-----------------|----------------------------|
-----x--x-----------------|----------------------------|


    
----------------------------|-------------------------------|
--12---10---8--8g10~--------|--L--12-10-8--7--7g8--7-----7--|
----------------------------|-------------------------9-----|
----------------------------|-------------------------------|
----------------------------|-------------------------------|
----------------------------|-------------------------------|


   
------------------------------|----------------------|------------------------|
--7g8---7------7--------------|----------------------|---------------------8--|
------------9-------9----7----|-------------------7--|--6~--------L--7--6-----|
------------------------------|--7----9--------L-----|------------------------|
------------------------------|----------------------|------------------------|
------------------------------|----------------------|------------------------|


  
----------------------|--------------------------14-|
--7~------------L--8--|--8g10~---------------/15----|
----------------------|-----------------------------|
----------------------|-----------------------------|
----------------------|-----------------------------|
----------------------|-----------------------------|


 
--19p-14-------15-14---------------------------|------------------------------|
---------15----------15----17-15-14------------|------------------------------|
------------16----------14----------16-14br----|---L------14-16---------------|
-----------------------------------------------|----------------14------14-16-|
-----------------------------------------------|------------------------------|
-----------------------------------------------|------------------------------|


  
-----------------------------------------|------19--17--15(17)------15--15g17--|
----------14--15--14h-15p-14-----14--15--|--14---------------------------------|
--14--16---------------------16----------|-------------------------------------|
-----------------------------------------|-------------------------------------|
-----------------------------------------|-------------------------------------|
-----------------------------------------|-------------------------------------|


  
--14-----------------14--14g15--|--14------------------14--14g15--|
--------15----------------------|--------15-----------------------|
------------16~-----------------|------------14br-----------------|
--------------------------------|---------------------------------|
--------------------------------|---------------------------------|
--------------------------------|---------------------------------|


     
--14--------17~------15----|--14h-15p-14h----14h-15p-14~--------|
--------15-----------------|------------------------------------|
---------------------------|------------------------------------|
---------------------------|------------------------------------|
---------------------------|------------------------------------|
---------------------------|------------------------------------|


                                                                  
----------------------------------|--------------12--13--15--13h-15p-13-----|
----------------------------------|--12--13--15-------------------------15--|
--------------------------12--14--|-----------------------------------------|
--------------12--14--15----------|-----------------------------------------|
--12--14--15----------------------|-----------------------------------------|
----------------------------------|-----------------------------------------|


                                                  
--17----------------|--L----------------|-------------------|-------|-------|
--------------------|-------------------|-------------------|-------|-------|
--------------------|-------------------|-------------------|-------|-------|
--------------------|-------------------|-------------------|-------|-------|
--------------------|-------------------|-------------------|-------|-------|
--------------------|-------------------|-------------------|-------|-------|


                                        
-------|-------|-------|--------------------|-------------------|
-------|-------|-------|--10----------------|--8----------------|
-------|-------|-------|--------------------|-------------------|
-------|-------|-------|--------------------|-------------------|
-------|-------|-------|--------------------|-------------------|
-------|-------|-------|--------------------|-------------------|


               
--10----------------|--7----------------|--------------------|
--------------------|-------------------|--10----------------|
--------------------|-------------------|--------------------|
--------------------|-------------------|--------------------|
--------------------|-------------------|--------------------|
--------------------|-------------------|--------------------|


              
-------------------|--10----------------|--7----------------|
--8----------------|--------------------|-------------------|
-------------------|--------------------|-------------------|
-------------------|--------------------|-------------------|
-------------------|--------------------|-------------------|
-------------------|--------------------|-------------------|


             
--------------------|-------------------|--10----------------|
--10----------------|--8----------------|--------------------|
--------------------|-------------------|--------------------|
--------------------|-------------------|--------------------|
--------------------|-------------------|--------------------|
--------------------|-------------------|--------------------|


         
--7----------------|--------------------|-------------------|
-------------------|--10----------------|--8----------------|
-------------------|--------------------|-------------------|
-------------------|--------------------|-------------------|
-------------------|--------------------|-------------------|
-------------------|--------------------|-------------------|


                       PM PM PM PM PM PM PM                    PM PM        
    
--10----------------|--------------------------|---------------------------|
--------------------|--------------------------|---------------------------|
--------------------|--------------------------|--2------2--2--------------|
--------------------|--------------------------|--2------2--2--------------|
--------------------|--2--2--2--2--2--2--2--2--|--0------0--0-----------5--|
--------------------|--0--0--0--0--0--0--0--0--|---------------0--0--3-----|


               PM PM                                              PM PM        
 
---------------------------|----------------------|---------------------------|
---------------------------|----------------------|---------------------------|
--5------5--5--------------|--2------2--2----7----|--9------9--9--------------|
--5------5--5--------------|--2------2--2----7----|--9------9--9--------------|
--3------3--3-----------5--|--0------0--0----5----|--7------7--7--------3--2--|
---------------0--0--3-----|----------------------|---------------0--0--------|


               PM PM                       PM PM                         PM PM  
 
---------------------------|---------------------------|-----------------------|
---------------------------|---------------------------|-----------------------|
--2------2--2--------------|--5------5--5--------------|--2------2--2----------|
--2------2--2--------------|--5------5--5--------------|--2------2--2----------|
--0------0--0-----------5--|--3------3--3-----------5--|--0------0--0----5--4--|
---------------0--0--3-----|---------------0--0--3-----|-----------------3--2--|


                                   PM PM                       PM PM        
  
-------------------|---------------------------|---------------------------|
-------------------|---------------------------|---------------------------|
-------------------|--2------2--2--------------|--5------5--5--------------|
--2----------------|--2------2--2--------------|--5------5--5--------------|
--2----------------|--0------0--0-----------5--|--3------3--3-----------5--|
--0----------------|---------------0--0--3-----|---------------0--0--3-----|


                                      PM PM                       PM PM        
   
----------------------|---------------------------|---------------------------|
----------------------|---------------------------|---------------------------|
--2------2--2----7----|--9------9--9--------------|--2------2--2--------------|
--2------2--2----7----|--9------9--9--------------|--2------2--2--------------|
--0------0--0----5----|--7------7--7--------3--2--|--0------0--0-----------5--|
----------------------|---------------0--0--------|---------------0--0--3-----|


               PM PM                         PM PM                      
                
---------------------------|-----------------------|-------------------|
---------------------------|-----------------------|-------------------|
--5------5--5--------------|--2------2--2----------|-------------------|
--5------5--5--------------|--2------2--2----------|--2----------------|
--3------3--3-----------5--|--0------0--0----5--4--|--2----------------|
---------------0--0--3-----|-----------------3--2--|--0----------------|


    
--------------------------|------------------------------|
--/10~------------10--12--|--13~------13s--15---13---12--|
--------------------------|------------------------------|
--------------------------|------------------------------|
--------------------------|------------------------------|
--------------------------|------------------------------|


    
--------------------------|----------------------------|
--------------------------|----------------------------|
--12~------------12h--14--|--9--------9h--11--11h--12--|
--------------------------|----------------------------|
--------------------------|----------------------------|
--------------------------|----------------------------|


   
-------------------------|-----------------------------|
---------------------12--|--13~------13--15br------13--|
--14~------------14------|-----------------------------|
-------------------------|-----------------------------|
-------------------------|-----------------------------|
-------------------------|-----------------------------|


                 
-------15-------15-------15-------15--|---------------------|
--15b------15b------15b------15b------|--15~----------------|
--------------------------------------|---------------------|
--------------------------------------|---------------------|
--------------------------------------|---------------------|
--------------------------------------|---------------------|


      
--------------------|-------------------|--10----------------|
--10----------------|--8----------------|--------------------|
--------------------|-------------------|--------------------|
--------------------|-------------------|--------------------|
--------------------|-------------------|--------------------|
--------------------|-------------------|--------------------|


           
--7----------------|--------------------|-------------------|
-------------------|--10----------------|--8----------------|
-------------------|--------------------|-------------------|
-------------------|--------------------|-------------------|
-------------------|--------------------|-------------------|
-------------------|--------------------|-------------------|


           
--10----------------|--7----------------|--------------------|
--------------------|-------------------|--10----------------|
--------------------|-------------------|--------------------|
--------------------|-------------------|--------------------|
--------------------|-------------------|--------------------|
--------------------|-------------------|--------------------|


         
-------------------|--10----------------|--7----------------|
--8----------------|--------------------|-------------------|
-------------------|--------------------|-------------------|
-------------------|--------------------|-------------------|
-------------------|--------------------|-------------------|
-------------------|--------------------|-------------------|


             
--------------------|-------------------|--10----------------|
--10----------------|--8----------------|--------------------|
--------------------|-------------------|--------------------|
--------------------|-------------------|--------------------|
--------------------|-------------------|--------------------|
--------------------|-------------------|--------------------|


  PM PM PM PM PM PM PM                    PM PM        
 
--------------------------|---------------------------|
--------------------------|---------------------------|
--------------------------|--2------2--2--------------|
--------------------------|--2------2--2--------------|
--2--2--2--2--2--2--2--2--|--0------0--0-----------5--|
--0--0--0--0--0--0--0--0--|---------------0--0--3-----|


               PM PM                                              PM PM        
   
---------------------------|----------------------|---------------------------|
---------------------------|----------------------|---------------------------|
--5------5--5--------------|--2------2--2----7----|--9------9--9--------------|
--5------5--5--------------|--2------2--2----7----|--9------9--9--------------|
--3------3--3-----------5--|--0------0--0----5----|--7------7--7--------3--2--|
---------------0--0--3-----|----------------------|---------------0--0--------|


               PM PM                       PM PM                         PM PM  
 
---------------------------|---------------------------|-----------------------|
---------------------------|---------------------------|-----------------------|
--2------2--2--------------|--5------5--5--------------|--2------2--2----------|
--2------2--2--------------|--5------5--5--------------|--2------2--2----------|
--0------0--0-----------5--|--3------3--3-----------5--|--0------0--0----5--4--|
---------------0--0--3-----|---------------0--0--3-----|-----------------3--2--|


                                   PM PM                       PM PM        
 
-------------------|---------------------------|---------------------------|
-------------------|---------------------------|---------------------------|
-------------------|--2------2--2--------------|--5------5--5--------------|
--2----------------|--2------2--2--------------|--5------5--5--------------|
--2----------------|--0------0--0-----------5--|--3------3--3-----------5--|
--0----------------|---------------0--0--3-----|---------------0--0--3-----|


                                      PM PM                       PM PM        
 
----------------------|---------------------------|---------------------------|
----------------------|---------------------------|---------------------------|
--2------2--2----7----|--9------9--9--------------|--2------2--2--------------|
--2------2--2----7----|--9------9--9--------------|--2------2--2--------------|
--0------0--0----5----|--7------7--7--------3--2--|--0------0--0-----------5--|
----------------------|---------------0--0--------|---------------0--0--3-----|


               PM PM                         PM PM                      
        
---------------------------|-----------------------|-------------------|
---------------------------|-----------------------|-------------------|
--5------5--5--------------|--2------2--2----------|-------------------|
--5------5--5--------------|--2------2--2----------|--2----------------|
--3------3--3-----------5--|--0------0--0----5--4--|--2----------------|
---------------0--0--3-----|-----------------3--2--|--0----------------|


       
-------------------|-------------------|-------------------|
-------------------|-------------------|-------------------|
-------------------|-------------------|-------------------|
--L----------------|--L----------------|--L----------------|
--L----------------|--L----------------|--L----------------|
--L----------------|--L----------------|--L----------------|


 
----------------------|-------------------------|------------------------|
----------------------|-------------------------|------------------------|
--7--9----9--9--------|--7--9----9--12--11------|--L--7----7--7----------|
--7--9----9--9--------|--7--9----9--12--11------|--L--7----7--7------9-9-|
--5--7----7--7--------|--5--7----7--10---9------|--L--5----5--5----------|
----------------------|-------------------------|------------------------|


   
-----------------------------|----------------------|-------------------------|
-----------------------------|----------------------|-------------------------|
--------------------------4--|--7--9----9--9--------|--7--9----9--12--11------|
--9--7-7-7--5-5-5--4-4-4-----|--7--9----9--9--------|--7--9----9--12--11------|
-----------------------------|--5--7----7--7--------|--5--7----7--10---9------|
-----------------------------|----------------------|-------------------------|


 
------------------------|-----------------------------|----------------------|
------------------------|-----------------------------|----------------------|
--L--7----7--7----------|--------------------------4--|--7--9----9--9--------|
--L--7----7--7------9-9-|--9--7-7-7--5-5-5--4-4-4-----|--7--9----9--9--------|
--L--5----5--5----------|-----------------------------|--5--7----7--7--------|
------------------------|-----------------------------|----------------------|


 
-------------------------|------------------------|
-------------------------|------------------------|
--7--9----9--12--11------|--L--7----7--7----------|
--7--9----9--12--11------|--L--7----7--7------9-9-|
--5--7----7--10---9------|--L--5----5--5----------|
-------------------------|------------------------|


 
-----------------------------|----------------------|-------------------------|
-----------------------------|----------------------|-------------------------|
--------------------------4--|--7--9----9--9--------|--7--9----9--12--11------|
--9--7-7-7--5-5-5--4-4-4-----|--7--9----9--9--------|--7--9----9--12--11------|
-----------------------------|--5--7----7--7--------|--5--7----7--10---9------|
-----------------------------|----------------------|-------------------------|


          
------------------------|-----------------------------|----------------------|
------------------------|-----------------------------|----------------------|
--L--7----7--7----------|--------------------------4--|----------------------|
--L--7----7--7------9-9-|--9--7-7-7--5-5-5--4-4-4-----|--4--5----5--5--------|
--L--5----5--5----------|-----------------------------|----------------------|
------------------------|-----------------------------|----------------------|


  
-----------------------|------------------------|-----------------------------|
-----------------------|------------------------|-----------------------------|
-------------4--2------|--L-----------------4-4-|--4--2-2-2----------------4--|
--4--5----5------------|-----4----4--4----------|------------5-5-5--4-4-4-----|
-----------------------|------------------------|-----------------------------|
-----------------------|------------------------|-----------------------------|


 
----------------------|-----------------------|------------------------|
----------------------|-----------------------|------------------------|
----------------------|-------------4--2------|--L-----------------4-4-|
--4--5----5--5--------|--4--5----5------------|-----4----4--4----------|
----------------------|-----------------------|------------------------|
----------------------|-----------------------|------------------------|


       
-----------------------------|----------------------|-------------------------|
-----------------------------|----------------------|-------------------------|
--4--2-2-2----------------4--|--7--9----9--9--------|--7--9----9--12--11------|
------------5-5-5--4-4-4-----|--7--9----9--9--------|--7--9----9--12--11------|
-----------------------------|--5--7----7--7--------|--5--7----7--10---9------|
-----------------------------|----------------------|-------------------------|


       
------------------------|-----------------------------|----------------------|
------------------------|-----------------------------|----------------------|
--L--7----7--7----------|--------------------------4--|--7--9----9--9--------|
--L--7----7--7------9-9-|--9--7-7-7--5-5-5--4-4-4-----|--7--9----9--9--------|
--L--5----5--5----------|-----------------------------|--5--7----7--7--------|
------------------------|-----------------------------|----------------------|


  
-------------------------|------------------------|
-------------------------|------------------------|
--7--9----9--12--11------|--L--7----7--7----------|
--7--9----9--12--11------|--L--7----7--7------9-9-|
--5--7----7--10---9------|--L--5----5--5----------|
-------------------------|------------------------|


    
-----------------------------|-----------------------|
-----------------------------|-----------------------|
--------------------------4--|--------------9--------|
--9--7-7-7--5-5-5--4-4-4-----|--------------9--------|
-----------------------------|--------------7--------|
-----------------------------|--0--0--0--0-----------|


   
--------------------------|-------------------------|
--------------------------|-------------------------|
--------------12--11------|--------------7----------|
--------------12--11------|--------------7------9-9-|
--------------10---9------|--------------5----------|
--0--0--0--0--------------|--0--0--0--0-------------|


    
-----------------------------|-----------------------|
-----------------------------|-----------------------|
--------------------------4--|--------------9--------|
--9--7-7-7--5-5-5--4-4-4-----|--------------9--------|
-----------------------------|--------------7--------|
-----------------------------|--0--0--0--0-----------|


  
--------------------------|-------------------------|
--------------------------|-------------------------|
--------------12--11------|--------------7----------|
--------------12--11------|--------------7------9-9-|
--------------10---9------|--------------5----------|
--0--0--0--0--------------|--0--0--0--0-------------|


   
-----------------------------|---------------------|------------------------|
-----------------------------|---------------------|------------------------|
--------------------------4--|---------------------|------------------------|
--9--7-7-7--5-5-5--4-4-4-----|----------------2----|--L---------------------|
-----------------------------|--2------5-----------|-----5------4--2--------|
-----------------------------|---------------------|------------------5--2--|


    
---------------------|------------------------|---------------------|
---------------------|------------------------|---------------------|
---------------------|------------------------|---------------------|
---------------------|------------------------|----------------2----|
---------4------7----|--L--5------4--2--------|--2------5-----------|
--5------------------|------------------5--2--|---------------------|


     
------------------------|---------------------|------------------------|
------------------------|---------------------|------------------------|
------------------------|---------------------|------------------------|
--L---------------------|---------------------|------------------------|
-----5------4--2--------|---------4------7----|--L--5------4--2--------|
------------------5--2--|--5------------------|------------------5--2--|


     
---------------------|-------------------------|------------------------|
---------------------|-------------------------|------------------------|
---------------------|----------------------7--|--9b------9b------9b----|
----------------2----|--L---------/9--9--9-----|------------------------|
--2------5-----------|-----5-------------------|------------------------|
---------------------|-------------------------|------------------------|


                                   
--------------------------|------------------------------------|
-----------------------6--|--7g8----7---------7g8----7---------|
--L--9br----7--9----9-----|--------------7----------------7----|
--------------------------|------------------------------------|
--------------------------|------------------------------------|
--------------------------|------------------------------------|


   
------------------------------------|----------------------------------------|
--7g8----7---------8g10--10--8--10--|--10g12----10----8----8g10----8----7----|
--------------7---------------------|----------------------------------------|
------------------------------------|----------------------------------------|
------------------------------------|----------------------------------------|
------------------------------------|----------------------------------------|


----------------------------------|--------------------------|
--7g8----7---------7--------------|--------------------------|
--------------9---------9----7----|--------------------7--9--|
----------------------------------|--7----7g9--9----9--------|
----------------------------------|--------------------------|
----------------------------------|--------------------------|


 
----------------------------|----7---------7---------7--------7------|
----------------------------|--7---10-7------10-7------10-7-----10-7-|
--9br---7-9--7--L-----7--9--|-----------9b--------9b--------9--------|
-------------------9--------|----------------------------------------|
----------------------------|----------------------------------------|
----------------------------|----------------------------------------|


 
-----7---------7---------7--------7------|
-------10-7------10-7------10-7-----10-7-|
--9b--------9b--------9b--------9--------|
-----------------------------------------|
-----------------------------------------|
-----------------------------------------|


  
--10-7----7-10-7-10-7----7-10-7-10-7----7-|
-------10-------------10-------------10---|
------------------------------------------|
------------------------------------------|
------------------------------------------|
------------------------------------------|


  
--10-7----7-10-7-10-7----7-10-7-10-7----7-|--10b----10b----10--8--7--8--7------|
-------10-------------10-------------10---|--------------------------------10--|
------------------------------------------|------------------------------------|
------------------------------------------|------------------------------------|
------------------------------------------|------------------------------------|
------------------------------------------|------------------------------------|

  
--7-------------------------------------|--------------------------|
-----10--8--10--8--7--8--7-----7--------|----------------8-7----7--|
----------------------------9-----9--7--|--------------------9-----|
----------------------------------------|--7----9--9--L------------|
----------------------------------------|--------------------------|
----------------------------------------|--------------------------|


 
---------7------------------|--------------------------|
--8--10-----10--8--7--------|----------------8-7----7--|
----------------------9--7--|--------------------9-----|
----------------------------|--7----9--9--L------------|
----------------------------|--------------------------|
----------------------------|--------------------------|


   
---------7--8--7----7--8--|--10--8--7--8--7------7-------------------|
--8--10-------------------|------------------10-----10--8--10--8--7--|
--------------------------|------------------------------------------|
--------------------------|------------------------------------------|
--------------------------|------------------------------------------|
--------------------------|------------------------------------------|


 
--------------------------------------|---------------------------7------------|
--8--7-----7--------------------------|-----------------7--8--10-----10--8--7--|
--------9-----9--7--9--7--6--7--6-----|--------6--7--9-------------------------|
-----------------------------------9--|--7--9----------------------------------|
--------------------------------------|----------------------------------------|
--------------------------------------|----------------------------------------|


 
---------------------7---------------|--------------------------|
--8--7-----7--8--10-----10--8--7-----|--------------------------|
--------9-------------------------9--|--9b----9b----9b----9b----|
-------------------------------------|--------------------------|
-------------------------------------|--------------------------|
-------------------------------------|--------------------------|


 
---------------------------------------------|
---------------------------------------------|
--9b-9b-9b-9b-9b-9b-9b-9b-9b-9b-9b-9b-9-7----|
------------------------------------------9--|
---------------------------------------------|
---------------------------------------------|


 
------x--x-10-10-10--x--x--x-10-10-10---x--x-|
------x--x--7--7--7--x--x--x--7--7--7---x--x-|
--7---x--x--7--7--7--x--x--x--7--7--7---x--x-|
---------------------------------------------|
---------------------------------------------|
---------------------------------------------|


  
--10-10-10--x--x--x--x--x---------------|---------------------------|
---7--7--7--x--x--x--x--x-10b----10b----|--10b--------10-7----7--8--|
---7--7--7--x--x--x--x--x---------------|------------------9--------|
----------------------------------------|---------------------------|
----------------------------------------|---------------------------|
----------------------------------------|---------------------------|


 
-----------------------------|--------------------------------------|
--7h-8p-7--------------------|--------------------------------------|
----------9-7-----7-------7--|--9--7-----7--------------------------|
---------------9-------9-----|--------9-----9--7--9--7-----7--------|
-----------------------------|--------------------------9-----9--7--|
-----------------------------|--------------------------------------|


 
---------------------------7--8--10--12--|
-----------------7--8--10----------------|
-----------7--9--------------------------|
-----7--9--------------------------------|
--9--------------------------------------|
-----------------------------------------|


  
--15-12----12-15-12-14-12----12-15-12-14-12----12-|
--------12----------------12----------------12----|
--------------------------------------------------|
--------------------------------------------------|
--------------------------------------------------|
--------------------------------------------------|


--15-12----12-15-12-14-12----12-15-12-14-12----12-|
--------12----------------12----------------12----|
--------------------------------------------------|
--------------------------------------------------|
--------------------------------------------------|
--------------------------------------------------|


  
--17-14----14-17-14----14-17-14----14-17-14----14-|
--------15----------15----------15----------15----|
--------------------------------------------------|
--------------------------------------------------|
--------------------------------------------------|
--------------------------------------------------|


   
--17-14----14-17-14----14-17-14----14-17-14----14-|
--------15----------15----------15----------15----|
--------------------------------------------------|
--------------------------------------------------|
--------------------------------------------------|
--------------------------------------------------|


  
--19-15----15-19-15-17-15----15-19-15-17-15----15-|
--------17----------------17----------------17----|
--------------------------------------------------|
--------------------------------------------------|
--------------------------------------------------|
--------------------------------------------------|


  
--19-15----15-19-15-17-15----15-19-15-17-15----15-|
--------17----------------17----------------17----|
--------------------------------------------------|
--------------------------------------------------|
--------------------------------------------------|
--------------------------------------------------|


  
--21-17----17-21-17----17-21-17----17-21-17----17-|
--------19----------19----------19----------19----|
--------------------------------------------------|
--------------------------------------------------|
--------------------------------------------------|
--------------------------------------------------|


  
--21-17----17-21-17----17-21-17----17-21-17----17-|
--------19----------19----------19----------19----|
--------------------------------------------------|
--------------------------------------------------|
--------------------------------------------------|
--------------------------------------------------|


--22b----22b----22b----22b----|--22b----22b----22b----22b----22--19--|
------------------------------|--------------------------------------|
------------------------------|--------------------------------------|
------------------------------|--------------------------------------|
------------------------------|--------------------------------------|
------------------------------|--------------------------------------|


     
--22--20--19--20--19--17--19--17--15--17--15--14--|
--------------------------------------------------|
--------------------------------------------------|
--------------------------------------------------|
--------------------------------------------------|
--------------------------------------------------|


   
--15--14--12--14--12--10--12--10--9--10--9--7--|
-----------------------------------------------|
-----------------------------------------------|
-----------------------------------------------|
-----------------------------------------------|
-----------------------------------------------|


--9--7------7----------------------------|------------------------------------|
--------10-----10--8--10--8--7--8--7-----|--7---------------------------------|
--------------------------------------9--|-----9--7--9--7--6--7b--7b--7b--7b--|
-----------------------------------------|------------------------------------|
-----------------------------------------|------------------------------------|
-----------------------------------------|------------------------------------|


  
----------------------------------------|--------------------------------------|
----------------------------------------|--------------------------------7--7--|
--9b----9b--9b--9b-9b-9b-9b-9b-9b-9b-9b-|--9b-9b-9b-9b-9b-9b-9b-9b-9b----------|
----------------------------------------|--------------------------------------|
----------------------------------------|--------------------------------------|
----------------------------------------|--------------------------------------|


-------7-----------7-----------7-----------7------|
--10b----10-7-10b----10-7-10b----10-7-10b----10-7-|
--------------------------------------------------|
--------------------------------------------------|
--------------------------------------------------|
--------------------------------------------------|


-------7-----------7-----------7-----------7------|
--10b----10-7-10b----10-7-10b----10-7-10b----10-7-|
--------------------------------------------------|
--------------------------------------------------|
--------------------------------------------------|
--------------------------------------------------|


  
--10-7--------------------------------|-------------------------------------|
-------10-7----7-10-7-----------------|-------------------------------------|
------------10--------9-7---7-9-7-----|-------------------------------------|
--------------------------9-------9-7-|--9-7-9-7------------------------7-9-|
--------------------------------------|----------9-8-7----7---------7-9-----|
--------------------------------------|----------------10---10-7-10---------|


 
--------------------------------------12-15-|
--------------11-12-13-12----12-13-15-------|
--7--9--11-14-------------14----------------|
--------------------------------------------|
--------------------------------------------|
--------------------------------------------|



--15-12----12-15-12-15-12----12-15-12----12-15-12-|
--------15----------------15----------15----------|
--------------------------------------------------|
--------------------------------------------------|
--------------------------------------------------|
--------------------------------------------------|


 
------------------------------|------------------------------|
--15-----15-----15-----15-----|--15-----15-----15-----15-----|
--14b----14b----14b----14b----|--14b----14b----14b----14b----|
------------------------------|------------------------------|
------------------------------|------------------------------|
------------------------------|------------------------------|


              
----------------------|-------------------||
--15------------------|--L----------------||
--14pb----------------|--L----------------||
----------------------|-------------------||
----------------------|-------------------||
----------------------|-------------------||





Tablature Legend
----------------
L - tied note
x - dead note
g - grace note
(n) - ghost note
> - accentuded note
NH - natural harmonic
AH - artificial harmonic
TH - tapped harmonic
SH - semi harmonic
PH - pitch harmonic
h - hammer on
p - pull off
b - bend
br - bendRelease
pb - preBend
pbr - preBendRelease
brb - bendReleaseBend
\n/ - tremolo bar dip
\n - tremolo bar dive
-/n - tremolo bar Release up
/n\ - tremolo bar inverted dip
/n - tremolo bar return
-\n - tremolo bar Release down
S - shift slide
s - legato slide
/ -  slide into from below or out of upwards
\ -  slide into from above or out of downwards
~ - vibrato
W - wide vibrato
tr - trill
TP - tremolo picking
T - tapping
S - slap
P - pop
< - fade in
^ - brush up
v - brush down
comments
print report bad tab
2 comments total.
0 reply
Whiskey007 wrote on January 3 2011, 12:18 pm

Why you think to be James?

0 reply
Whiskey007 wrote on January 3 2011, 12:20 pm

oh,oh >_< sorry, I commented the bad tabs... sorry.

I want to post or [tab]
guest
You may want to rate the tab now too:
select rating
Please do not post tabs as comments. Select "correction" instead!