Oops, an error
Loading. Please wait.

Fixxxer Bass Tab

ver2
ver2

Whole song

More versions @911Tabs.com
729 views 3 this week
no commentswrite comment
1 2 3 4 5
accurate
x 1
Autoscroll
+/-
esc
set tempo
stop
Contributor
Difficulty
Tuning
novice
D# G# C# F# A# D#
WARNING: You are trying to view
                                    content from Ultimate-Guitar.com
                                    in an unauthorized application,
                                    which is prohibited.

                                    Please use an official Ultimate
                                    Guitar Tabs application for iPhone,
                                    iPad or Android to access legitimate
                                    chords, guitar, bass, and drum tabs
                                    from Ultimate-Guitar.com database.

                                    Type "ultimate guitar tabs" in Apple
                                    App Store's or Android Market's
                                    search to find the application.
Band: Metallica
Song: Fixxxer
Album: ReLoad (1997)
Duration: 8:16min
Track No: 13
Instrument: Bass Guitar
Tuning: Half Step Down (F#,C#,G#,D#)
Comment: It's my first bass tab. But i think that it's 100% right. 
For a good sound: Jason use always a pick. Turn Off the Mid Frequency. You can use 
a compressor if you want!

This is off course the studio version (Unfortunately it doesn't exist a live version of this song)


Intro (0:32) 
F#|-----------------|
C#|-0-2-2-2-2-2-2-2-|
G#|-----------------| 7x
D#|-----------------|

(0:47)
F#|-----------------|		
C#|-0-2-2-2---0-0---|		
G#|---------2-----2-| 		
D#|-----------------|	

(0:48)
F#|-----------------|
C#|-0-2-2-2-2-2-2-2-|
G#|-----------------| 7x
D#|-----------------|

(1:02)
F#|-------------0-2-|
C#|-0-2-2-2-0-2-----|
G#|-----------------|
D#|-----------------|

(1:03)
F#|-----------------|
C#|-0-2-2-2-2-2-2-2-|
G#|-----------------| 3x
D#|-----------------|

Riff (1:09)
F#|-----------------|
C#|-0-2---0---------|
G#|-----3---2-3-0-2-| 
D#|-----------------|

(1:10)
F#|-----------------|-----------------|-----------------|----------------|
C#|---------2-0-2---|------------3----|---------2-0-2---|--------0-------|
G#|-----------------|----0---1--------|-----------------|----------------| 4x
D#|-0---0-----------|-----------------|-0---0-----------|----2-3---------|

Verse 1 (1:40)
F#|-----------------|-0---------------|-----------------|-0--------------|
C#|-4h5---------0-2-|---4---------0-2-|-4h5---------0-2-|---4----------0-|
G#|-----------------|-----------------|-----------------|------------2---| 2x
D#|-----0-0---------|------0--0-------|-----0-0---------|-----0--0-------|

(1:55)
F#|-----------------|-----------------|-----------------|----------------|
C#|-2h3-0-0-------0-|-3-2--0--0-----0-|-2h3-0-0-------0-|-3-2------------|
G#|-------------3---|-------------3---|-------------3---|-----3--3---0-3-| 2x
D#|-----------------|-----------------|-----------------|----------------|

(2:09)
F#|-----------------|-----------------|
C#|-----------------|-----------------|
G#|-----------------|-----------------|
D#|-0---------------|-----------------| 
   let ring --------------------------

Chorus (2:12)
F#|-----------------|-----------------|-----------------|----------------|
C#|-----------------|-----------------|-----------------|----------------|
G#|-----------------|-----------------|-----------------|----------------| 
D#|-0---0-0-----0---|-0-----0-0-0-3-1-|-3---3-3-----3---|-3----3-3-3-3-1-|
 
F#|-----------------|-----------------|-----------------|----------------|   
C#|-----------------|-----------------|-----------------|----------------|  
G#|-5---5-5-----5---|-5-----5-5-5-----|-3---3-3-----3---|-2----2-2-2-----|  
D#|-----------------|-------------3-1-|-----------------|------------3-1-|

F#|-----------------|-----------------|-----------------|----------------|
C#|-----------------|-----------------|-----------------|----------------|
G#|-----------------|-----------------|-----------------|----------------| 
D#|-0---0-0-----0---|-0-----0-0-0-3-1-|-3---3-3-----3---|-3----3-3-3-3-1-|
 
F#|-----------------|-----------------|-----------------|-----------------|   
C#|-----------------|-----------------|-----------------|-0-2---0---------|  
G#|-5---5-5-----5---|-5-----5-5-5-----|-3---3-3-----3---|-----3---2-3-0-2-|  
D#|-----------------|-------------3-1-|-----------------|-----------------|


Pre-Verse (2:41)
F#|-----------------|-----------------|-----------------|----------------|
C#|---------2-0-2---|------------3----|---------2-0-2---|--------0-------|
G#|-----------------|----0---1--------|-----------------|----------------| 2x
D#|-0---0-----------|-----------------|-0---0-----------|----2-3---------|

Verse 2 (2:56)
F#|-----------------|-0---------------|-----------------|-0--------------|
C#|-4h5---------0-2-|---4---------0-2-|-4h5---------0-2-|---4----------0-|
G#|-----------------|-----------------|-----------------|------------2---| 2x
D#|-----0-0---------|------0--0-------|-----0-0---------|-----0--0-------|

(3:10)
F#|-----------------|-----------------|-----------------|----------------|
C#|-2h3-0-0-------0-|-3-2--0--0-----0-|-2h3-0-0-------0-|-3-2------------|
G#|-------------3---|-------------3---|-------------3---|-----3--3---0-3-| 2x
D#|-----------------|-----------------|-----------------|----------------|

(3:24)
F#|-----------------|-----------------|
C#|-----------------|-----------------|
G#|-----------------|-----------------|
D#|-0---------------|-----------------|
    let ring -------------------------

Chorus(3:28)
F#|-----------------|-----------------|-----------------|----------------|
C#|-----------------|-----------------|-----------------|----------------|
G#|-----------------|-----------------|-----------------|----------------| 
D#|-0---0-0-----0---|-0-----0-0-0-3-1-|-3---3-3-----3---|-3----3-3-3-3-1-|
 
F#|-----------------|-----------------|-----------------|----------------|   
C#|-----------------|-----------------|-----------------|----------------|  
G#|-5---5-5-----5---|-5-----5-5-5-----|-3---3-3-----3---|-2----2-2-2-----|  
D#|-----------------|-------------3-1-|-----------------|------------3-1-|

F#|-----------------|-----------------|-----------------|----------------|
C#|-----------------|-----------------|-----------------|----------------|
G#|-----------------|-----------------|-----------------|----------------| 
D#|-0---0-0-----0---|-0-----0-0-0-3-1-|-3---3-3-----3---|-3----3-3-3-3-1-|
 
F#|-----------------|-----------------|-----------------|-----------------|   
C#|-----------------|-----------------|-----------------|-0-2---0---------|  
G#|-5---5-5-----5---|-5-----5-5-5-----|-3---3-3-----3---|-----3---2-3-0-2-|  
D#|-----------------|-------------3-1-|-----------------|-----------------|

(3:57)
F#|-----------|----------|---------|--------|
C#|-----------|----------|---------|--------|
G#|-----------|----------|---------|--------|
D#|-0---------|----------|---------|--------|
   let ring -------------------------------

Bridge(4:04)
F#|-------------------|-------------------|
C#|-------------------|-------------------|
G#|-5-----------------|-------------------| 2x
D#|---0-0-0-0-3-0-0-0-|-0-0-0-0-0-0-0-0-0-|

F#|-------------------|---------0-------|
C#|-------------------|-0-2-2-2---2-2-2-|
G#|-5-----------------|-----------------|
D#|---0-0-0-0-3-0-0-0-|-----------------|

(4:15)
F#|---------0------|-----------------|
C#|-0-2-------2----|-0-2---0---------|
G#|----------------|-----3---2-3-0-2-|
D#|----------------|-----------------|

Guitar Solo(4:19)
F#|-----------------|-----------------|-----------------|----------------|
C#|---------4-2-4---|------------5----|---------4-2-4---|--------2-------|
G#|-----------------|----2---3--------|-----------------|------0---------| 2x
D#|-2---2-----------|-----------------|-2---2-----------|----4-----------|

F#|-----------------|-----------------|-----------------|----------------|
C#|---------2-0-2---|------------3----|---------2-0-2---|--------0-------|
G#|-----------------|----0---1--------|-----------------|----------------| 
D#|-0---0-----------|-----------------|-0---0-----------|----2-3---------|

F#|-----------------|-----------------|-----------------|-----------------|
C#|---------2-0-2---|------------3----|---------2-0-2---|-(2)-2-4-5-0---0-|
G#|-----------------|----0---1--------|-----------------|-----------------|
D#|-0---0-----------|-----------------|-0---0-----------|-----------------|

F#|-----------------|-----------------|-----------------|----------------|
C#|---------2-0-2---|------------3----|---------2-0-2---|--------0-------|
G#|-----------------|----0---1--------|-----------------|----------------|
D#|-0---0-----------|-----------------|-0---0-----------|----2-3---------|

F#|-----------------|-----------------|-----------------|----------|----------|--------|
C#|---------2-0-2---|------------3----|---------2-0-2---|----------|----------|--------|
G#|-----------------|----0---1--------|-----------------|----------|----------|--------|
D#|-0---0-----------|-----------------|-0---0-----------|-0-0------|-0-0------|--------|

Breakdown(5:04)
F#|-------------------|		
C#|-------------------|		
G#|-----------0-------| 3x		
D#|-0-2-2-2-2---2-2-2-| 

F#|-------------------|		
C#|-------------------|		
G#|-----------2---0-0-| 		
D#|-0-2-2-2-2---------| 

F#|-------------------|		
C#|-------------------|		
G#|-----------0-------| 3x		
D#|-0-2-2-2-2---2-2-2-| 

F#|-------------------|		
C#|-------------------|		
G#|-----------2---0-0-| 		
D#|-0-2-2-2-2---------| 

F#|-------------------|		
C#|-------------------|		
G#|-----------0-------| 3x		
D#|-0-2-2-2-2---2-2-2-| 

(5:19)
F#|--------------|-----------|	
C#|--------------|-----------|
G#|--------0-----|-----------|  2x 		
D#|-0-2------2---|-----------|
        let ring ------------

F#|-------------------|		
C#|-------------------|		
G#|-----------0-------| 3x		
D#|-0-2-2-2-2---2-2-2-| 

F#|------|-----|-----|-----|-----|	
C#|------|-----|-----|-----|-----|		
G#|------|-----|-----|-----|-----|	
D#|-0----|-----|-----|-----|-----|
    let ring---------------

Outro (5:33)
F#|---------0-------|
C#|-0-2-2-2---2-2-2-|
G#|-----------------| 7x
D#|-----------------|

F#|-----0-0-----2-4-|
C#|-0-2-----2-2-----|
G#|-----------------| 
D#|-----------------|

F#|---------0-------|
C#|-0-2-2-2---2-2-2-|
G#|-----------------| 3x
D#|-----------------|

F#|-----0-2-4-2-0-2-|---------0-------|
C#|-0-2-------------|-0-2-2-2---2-2-2-|
G#|-----------------|-----------------|
D#|-----------------|-----------------|

F#|-----------------|---------0-------|
C#|-0-2-2-2-2-2-2-2-|-0-2-2-2---2-2-2-|
G#|-----------------|-----------------|  7x
D#|-----------------|-----------------|

F#|-----------------|
C#|-0-2---0---------|
G#|-----3---2-3-0-2-| 
D#|-----------------|

F#|-----------|---------|
C#|-2---------|---------|
G#|-----------|---------|
D#|-----------|---------|
   let ring-------------

F#|-----------------|--------------|
C#|---2---0---------|--------------|
G#|-----2---0---0---|--------------| 7x
D#|-0---------3-----|---3-0--------|

F#|-----------------|--------------|
C#|---2---0---------|--------------|
G#|-----2---0---0---|--------------| 
D#|-0---------3-----|-0------------|

F#|-----------------|-----------------|-----------------|----------------|
C#|-----------------|-----------------|-----------------|----------------|
G#|-----------------|-----------------|-----------------|----------------| 
D#|-0---0-0-----0---|-0-----0-0-0-3-1-|-3---3-3-----3---|-3----3-3-3-3-1-|
 
F#|-----------------|-----------------|-----------------|----------------|   
C#|-----------------|-----------------|-----------------|----------------|  
G#|-5---5-5-----5---|-5-----5-5-5-----|-3---3-3-----3---|-2----2-2-2-----|  
D#|-----------------|-------------3-1-|-----------------|------------3-1-|

F#|-----------------|-----------------|-----------------|----------------|
C#|-----------------|-----------------|-----------------|----------------|
G#|-----------------|-----------------|-----------------|----------------| 
D#|-0---0-0-----0---|-0-----0-0-0-3-1-|-3---3-3-----3---|-3----3-3-3-3-1-|
 
F#|-----------------|-----------------|-----------------|-----------------|   
C#|-----------------|-----------------|-----------------|-0-2---0---------|  
G#|-5---5-5-----5---|-5-----5-5-5-----|-3---3-3-----3---|-----3---2-3-0-2-|  
D#|-----------------|-------------3-1-|-----------------|-----------------|

F#|-----------------|----------------|-----------------|-----------------|
C#|---2---0---------|----------------|---2---0---------|-0-2---2---------|
G#|-----2---0---0---|-0--------------|-----2---0---0---|-----3---2-3-0-2-| 4x
D#|-0---------3-----|----3-0-3-0-0-0-|-0---------3-----|-----------------|

F#|-----------------|
C#|-0-2---0---------|
G#|-----3---2-3-0-2-| 
D#|-----------------|

Final(8:11)
F#|-----------------|------------|------|
C#|---------2-0-2---|---------3--|------|
G#|-----------------|---0--1-----|------|
D#|-0---0-----------|------------|-0-0--|







h = hammer on
let ring----- = let ring from "let ring" to the end of the "----"s
comments
We did not receive enough feedback on this tab! Please rate:
1 2 3 4 5
I want to post or [tab]
guest
You may want to rate the tab now too:
select rating
Please do not post tabs as comments. Select "correction" instead!