Oops, an error
Loading. Please wait.

Fixxxer Tab

ver3
ver3

Whole song

Interactive

More versions @911Tabs.com
10,700 views 24 this week
2 commentsread comments
1 2 3 4 5
excellent!
x 4
Autoscroll
+/-
esc
set tempo
stop
Contributor
Hey! There's an official Ultimate Guitar app which is ideal
for learning songs when you're away from computer. Get the app
WARNING: You are trying to view
                                    content from Ultimate-Guitar.com
                                    in an unauthorized application,
                                    which is prohibited.

                                    Please use an official Ultimate
                                    Guitar Tabs application for iPhone,
                                    iPad or Android to access legitimate
                                    chords, guitar, bass, and drum tabs
                                    from Ultimate-Guitar.com database.

                                    Type "ultimate guitar tabs" in Apple
                                    App Store's or Android Market's
                                    search to find the application.
FIXXXER
As recorded by Metallica
(From the 1997 Album RE-LOAD)



Transcribed by www.mikesguitarsite.co.uk

Words 7amp; Music by James Hetfield, Lars Ulrich & Kirk Hammett

E5       0 2 x x x x
G5       3 5 5 x x x
D5       x 5 7 7 x x
C5       x 3 5 5 x x
B5       x 2 4 4 x x

Gtr I (Eb Ab Db Gb Bb Eb) - 'James Hetfield Rhythm'
Gtr II (Eb Ab Db Gb Bb Eb) - 'Kirk Hammett Rhythm'
Gtr III (Eb Ab Db Gb Bb Eb) - 'Kirk Hammett Lead'
Gtr IV (Eb Ab Db Gb Bb Eb) - 'fills'

Intro Fade In
    Q=108
   4/4
    Gtr I
w/Fill 1 1st & 3rd time (see below for fills)
w/Fill 2 2nd & 4th time (fills have panning delay effect)
     ~~               ~~            ~~               ~~
     Q      S  S E E  E  E  E       Q      S  S E E  E  E  E
||--12-----10-12-0-0-13----------|-12-----10-12-0-0-13----------|
||o---------------------11-10----|---------------------11-10----|
||---------------9-9-------------|--------------9-9-------------|
||-------------------------------|------------------------------|
||o------------------------------|------------------------------|
||-------------------------------|------------------------------|
|
|   Gtr II
|                        ~~                             ~~
|    S S E  E    E E  E  E  S  S    S S E  E    E E  E  E  S  S
||-------------------------------|------------------------------|
||o------------------------------|------------------------------|
||-------------------------------|------------------------------|
||----------6--------------------|---------6--------------------|
||o--------------4-3s10-10--8h10-|--------------4-3s10-10--8h10-|
||---3-3-3-----------------------|--3-3-3-----------------------|
|
|   Gtr IV
|                        ~~                             ~~
|    S S E  E    E E  E  E  S  S    S S E  E    E E  E  E  S  S
||-------------------------------|------------------------------|
||o------------------------------|------------------------------|
||-------------------------------|------------------------------|
||-------------------------------|------------------------------|
||o---------8--------------------|---------8--------------------|
||---0-0-0-------6-5s12-12-10h12-|--0-0-0-------6-5s12-12-10h12-|
|-Riff 1 (all 3 Gtrs)

                                  3/8
   ~~               ~~              ~~
   Q      S  S E E  E  E  E     4x  Q      S  S
|-12-----10-12-0-0-13-----------||-12-----10-12-|
|---------------------11-10----o||--------------|
|--------------9-9--------------||--------------|
|-------------------------------||--------------|
|------------------------------o||--------------|
|-------------------------------||--------------|
|
|                      ~~
|  S S E  E    E E  E  E  S  S  4x  S S E  E
|-------------------------------||--------------|
|------------------------------o||--------------|
|-------------------------------||--------------|
|---------6---------------------||---------6----|
|--------------4-3s10-10--8h10-o||--------------|
|--3-3-3------------------------||--3-3-3-------|
|
|                      ~~
|  S S E  E    E E  E  E  S  S  4x  S S E  E
|-------------------------------||--------------|
|------------------------------o||--------------|
|-------------------------------||--------------|
|-------------------------------||--------------|
|---------8--------------------o||---------8----|
|--0-0-0-------6-5s12-12-10h12--||--0-0-0-------|
                     end Riff 1-|

    Q=132
   4/4
   Riff 1 x2


              ~~~~~~                    ~        ~~~~~~
           E  E +Q    +H       E E S E. H      E E +Q   +H
|----------------------------|---------------|-----------------|
|----------------------------|---------------|-----------------|
|----------------------------|---------------|-----------------|
|----------------------------|---x-5h7--5----|-----------------|
|----------5h=7-(7)---(7)----|---------------|-5h7-(7)--(7)----|
|----------------------------|---------------|-----------------|
|
| Gtr IV
|   a     +Q.       E  H       W               W
|--11b12-(12)----------------|---------------|-----------------|
|--11b12-(12)----------------|---------------|-----------------|
|----------------------------|---------------|-----------------|
|----------------------------|---------------|-----------------|
|----------------------------|---------------|-----------------|
|----------------------------|---------------|-----------------|
|-Fill 1          end Fill 1-|

           ~                 ~~~~~~                    ~        ~~~~~~
  E E S E. H              E  E +Q    +H       E E S E. H      E E +Q   +H
|---------------|---------------------------|---------------|-----------------|
|---------------|---------------------------|---------------|-----------------|
|---------------|---------------------------|---------------|-----------------|
|---x-5h7--5----|---------------------------|---x-5h7--5----|-----------------|
|---------------|---------5h=7-(7)---(7)----|---------------|-5h7-(7)--(7)----|
|---------------|---------------------------|---------------|-----------------|
|
| W                a     +Q.       E  H       W               W
|---------------|-14b15-(15)----------------|---------------|-----------------|
|---------------|-16b17-(17)----------------|---------------|-----------------|
|---------------|---------------------------|---------------|-----------------|
|---------------|---------------------------|---------------|-----------------|
|---------------|---------------------------|---------------|-----------------|
|---------------|---------------------------|---------------|-----------------|
                |-Fill 2         end Fill 2-|

                     |-w/Fill 1
           ~~~~~~~~~                      ~~~~~~
  E E S E. Q    +Q             E  E E E E E +Q
|--------------------|---------------------------|
|--------------------|---------------------------|
|--------------------|---------------------------|
|---x-5h7--5b7r=(5)--|------------------5--------|
|--------------------|---------5h=7-x-x---7-(7)--|
|--------------------|---------------------------|



                            ~~~~~~
  Q  Q  E E E E   E E E E E E +Q
|---------------|------------------|
|---------------|------------------|
|---------------|------------------|
|-x--x--x-x---x-|---------5--------|
|-x--x--x-x---x-|-5h7-x-x---7-(7)--|
|-x--x--x-x---x-|------------------|


                |-w/Fill 2
                                     ~~~~~~
  Q  Q  E E E E           E  E E E E E +Q
|-------x-x-x-x-|----------------------------|
|-------x-x-x-x-|----------------------------|
|-------x-x-x-x-|----------------------------|
|-x--x----------|------------------5---------|
|-x--x----------|---------5h=7-x-x---7-(7)---|
|-x--x----------|----------------------------|



            ~~~~~~
  E E E E E E +E  E   E E E E E     E E E
|-------------------|---------------------|
|-------------------|---------------------|
|---------5---------|---------------------|
|---------5---------|---------5b5.5-------|
|-5h7-x-x---7-(7)-5-|-5h7-7-7-------7-7-7-|
|-------------------|---------------------|



 Gtrs I, II       |-w/Fill 1
                                        ~
  E E E E E E E E           Q   Q   E E Q
|-----------------|-------------------------|
|-----------------|-------------------------|
|-----------------|-------------------------|
|-----------------|-------------------------|
|-5-7---5---------|-----------------7p5-7---|
|-----8---7-8-5-7-|---------0---0-----------|



  Gtrs I, II                                  |-w/Fill 2
            ~              ~~~~~~~~~                                ~
  Q  E E Q  Q    Q  Q  E E Q    +Q   E E H              Q   Q   E E Q
|--------------|--------------|---------------|-------------------------|
|--------------|--------------|---------------|-------------------------|
|--------------|--------------|---------------|-------------------------|
|--------------|--------------|------4h5-7----|-------------------------|
|-7---------8--|-------7p5-7--|-(7)------5----|-----------------7p5-7---|
|----6-5-6-----|-0--0---------|---------------|---------0---0-----------|



   ~~~        ~              ~~~~~~~~~                                  ~~
  +Q   E E Q  Q    Q  Q  E E Q    +Q   E E H              Q   Q    E E  Q
|----------------|--------------|---------------|---------------------------|
|----------------|--------------|---------------|---------------------------|
|----------------|--------------|---------------|---------------------------|
|----------------|--------------|------4h5-7----|---------------------------|
|-(7)---------8--|-------7p5-7--|-(7)------5----|------------------7p5--7---|
|------6p5-6-----|-0--0---------|---------------|---------0---0-------------|
|
| Gtr II
|  ~~~        ~              ~                                          ~~
| +Q   E E Q  Q    Q  Q  E E Q    +Q   E E H              Q   Q    E E  Q
|----------------|--------------|---------------|---------------------------|
|----------------|--------------|---------------|---------------------------|
|----------------|--------------|---------------|---------------------------|
|----------------|--------------|------4h5------|---------------------------|
|-(7)---------8--|-------7p5-7--|-(7)------5----|-----------------10p9-10---|
|------6p5-6-----|-0--0---------|---------------|---------0---0-------------|
                                                |-w/Fill 1


    ~~~~          ~~               ~~~~
   +Q    E E  Q   Q    Q  Q   E E  Q
|--------------------|----------------|
|--------------------|----------------|
|--------------------|----------------|
|--------------------|----------------|
|--(7)------------8--|--------7p5--7--|
|--------6p5--6------|-0--0-----------|
|
|   ~~~~                           ~~~~
|  +Q    E E  Q   Q    Q  Q   E E  Q
|--------------------|----------------|
|--------------------|----------------|
|--------------------|----------------|
|--------------------|----------------|
|-(10)-----------12--|-------10p9-10--|
|-------10p9-10------|-0--0-----------|



 ~~~~~~                                   ~~
   +Q    E E H              Q   Q    E E  Q
|-----------------|---------------------------|
|-----------------|---------------------------|
|-----------------|---------------------------|
|--------4h5-7----|---------------------------|
|--(7)-------5----|------------------7p5--7---|
|-----------------|---------0---0-------------|
|
|~~~~~~                                   ~~
|  +Q    E E H              Q   Q    E E  Q
|-----------------|---------------------------|
|-----------------|---------------------------|
|-----------------|---------------------------|
|----------9------|---------------------------|
|-(10)--12---9----|-----------------10p9-10---|
|-----------------|---------0---0-------------|
                  |-w/Fill 2


                                                         Verse
    ~~~~          ~~               ~~~~~~~~~~
   +Q    E E  Q   Q    Q  Q   E E  Q     +Q   E E H       E  E E E +Q    E E
|--------------------|----------------|----------------||--------------------|
|--------------------|----------------|----------------||--------------------|
|--------------------|----------------|----------------||--------9-(9)-------|
|--------------------|----------------|-------4h5-7----||--------9-(9)-------|
|--(7)------------8--|--------7p5--7--|--(7)------5----||-9h10-7-7-(7)-----7-|
|--------6p5--6------|-0--0-----------|----------------||---------------10---|
|
|                 ~~               ~~~~~~~~~~
|  +Q    E E  Q   Q    Q  Q   E E  Q     +Q   E E H       E  E E E +Q    E E
|--------------------|----------------|----------------||--------------------|
|--------------------|----------------|----------------||--------------------|
|--------------------|----------------|----------------||--------9-(9)-------|
|--------------------|----------------|-------7h9------||--------9-(9)-------|
|-(10)-----------12--|-------10p9-10--|-(10)------9----||-9h10-7-7-(7)-----7-|
|-------10p9-10------|-0--0-----------|----------------||---------------10---|


Gtrs I, II
   E E Q  Q  E E   E  E E E +Q    E E
|----------------|--------------------|
|----------------|--------------------|
|---------9------|--------9-(9)-------|
|---------9------|--------9-(9)-------|
|-10p9-7--7--7-7-|-9-10-7-7-(7)-----7-|
|----------------|---------------10---|


Gtr I
   E E Q        H      E  E E E +Q    E E
|--------------------|--------------------|
|--------------------|--------------------|
|---------------7----|--------9-(9)-------|
|---------------7----|--------9-(9)-------|
|-10p9-5--------5----|-9h10-7-7-(7)-----7-|
|--------------------|---------------10---|
|
|Gtr II
|               ~
|  E E E    +E  H      E  E E E +Q    E E
|--------------------|--------------------|
|--------------------|--------------------|
|------9b10r(9)-7----|--------9-(9)-------|
|------9b10r(9)-7----|--------9-(9)-------|
|-10p9---------------|-9h10-7-7-(7)-----7-|
|--------------------|---------------10---|


                                                      ~~
   E E Q  Q  E E   E  E E E +Q    E E    E E E     E  Q.   E
|----------------|--------------------|----------------------|
|----------------|--------------------|----------------------|
|---------9------|--------9-(9)-------|----------------------|
|---------9------|--------9-(9)-------|----------------------|
|-10p9-7--7--7-7-|-9-10-7-7-(7)-----7-|-10p9-5-----7--5----5-|
|----------------|---------------10---|----------------------|
|
|                                                     ~~
|  E E Q  Q  E E   E  E E E +Q    E E    E E E    +E  H
|----------------|--------------------|----------------------|
|----------------|--------------------|----------------------|
|---------9------|--------9-(9)-------|------9b10r(9)-7------|
|---------9------|--------9-(9)-------|------9b10r(9)-7------|
|-10-9-7--7--7-7-|-9-10-7-7-(7)-----7-|-10p9-----------------|
|----------------|---------------10---|----------------------|


  E E E E +Q    E E   E E Q   Q   E E   E E E E +Q    E E   E E E E Q.   E
|-------------------|-----------------|-------------------|----------------|
|-------------------|-----------------|-------------------|----------------|
|-------7-(7)-------|---------7-------|-------7-(7)-------|----------------|
|-------7-(7)-------|---------7-------|-------7-(7)-------|----------------|
|-7h8-5-5-(5)-----5-|-8p7-5---5---5-5-|-7h8-5-5-(5)-----5-|-8p7-3s5s3----3-|
|---------------8---|-----------------|---------------8---|----------------|
|
| E E E E  E  E E E   E E E E E E E E   E E E E  E  E E E   E E Q   H
|-------------------|-----------------|-------------------|----------------|
|-------------------|-----------------|-------------------|----------------|
|-5-7-x-x--x--x-5-7-|-x-x-x-x-8-7-x-x-|-5-7-x-x--x--x-5-7-|-7s5-5---5------|
|-5-7-x-x--x--x-5-7-|-x-x-x-x-8-7-x-x-|-5-7-x-x--x--x-5-7-|-7s5-5---5------|
|-3-5-x-x--x--x-3-5-|-x-x-x-x-6-5-x-x-|-3-5-x-x--x--x-3-5-|-5s3-3---3------|
|-------------------|-----------------|-------------------|----------------|


  E E E E +Q    E E   E E Q   Q   E E
|-------------------|-----------------|
|-------------------|-----------------|
|-------7-(7)-------|---------7-------|
|-------7-(7)-------|---------7-------|
|-7h8-5-5-(5)-----5-|-8p7-5---5---5-5-|
|---------------8---|-----------------|
|
| E E E E  E  E E E   E E E E E E E E
|-------------------|-----------------|
|-------------------|-----------------|
|-5-7-x-x--x--x-5-7-|-x-x-x-x-8-7-x-x-|
|-5-7-x-x--x--x-5-7-|-x-x-x-x-8-7-x-x-|
|-3-5-x-x--x--x-3-5-|-x-x-x-x-6-5-x-x-|
|-------------------|-----------------|


                      Chorus
                    Gtrs I, II
                       ~~
  E E E E +Q    E E    H.      Q     W
|-------------------||-------------|-------------|
|-------------------||-------------|-------------|
|-------7-(7)-------||-------------|-------------|
|-------7-(7)-------||-5-----------|-------------|
|-7h8-5-5-(5)---7h8-||-------------|-------------|
|-------------------||---------x\--|-0-----------|
|
|                   Gtr IV
| E E E E  E  E E E    W             Q  Q  Q  Q
|-------------------||-------------|-------------|
|-------------------||-------------|-------------|
|-5-7-x-x--x--x-----||-------------|----------7--|
|-5-7-x-x--x--x-----||-------------|-------5-----|
|-3-5-x-x--x--x-7h8-||-------------|----7--------|
|-------------------||-------------|-0-----------|


                 E5                                   G5
  Gtr III
   W             W             +W                     W
                 |              |                     |
                 /              /                     /

  Gtrs I, II
  +H.      Q     W              E  E E E E   +E  Q    W
|--------------|-------------|----------------------|----------------|
|--------------|-------------|----------------------|----------------|
|--------------|-------------|----------------------|----------------|
|--------------|-------------|-------5h7-7b9r(7)-5--|-5--------------|
|--------------|-2-----------|--5h=7----------------|-5--------------|
|-(0)------x\--|-0-----------|----------------------|-3--------------|
|
| Gtr IV
| +W             Q  Q  Q  Q    +W                     Q  a Q  Q  Q
|--------------|-------------|----------------------|----------------|
|--------------|-------------|----------------------|----------------|
|-(7)----------|----------7--|-(7)------------------|------------7---|
|--------------|-------5-----|----------------------|---------5------|
|--------------|----7--------|----------------------|----5h7---------|
|--------------|-0-----------|----------------------|-3--------------|


  G5                     D5                                   C5
  +W                     W             +W                     W
   |                     |              |                     |
   /                     /              /                     /

   E  E E E E   +E  Q    W              E  E E E E   +E  Q    W
|----------------------|-------------|----------------------|-------------|
|----------------------|-------------|----------------------|-------------|
|----------------------|-7-----------|----------------------|-5-----------|
|-------5h7-7b9r(7)-5--|-7-----------|-------5h7-7b9r(7)-5--|-5-----------|
|--5h=7----------------|-5-----------|--5h=7----------------|-3-----------|
|----------------------|-------------|----------------------|-------------|
|
| +W                     Q  Q  Q  Q    +W                     Q  Q  Q  Q
|----------------------|-------------|----------------------|-------------|
|----------------------|-------------|----------------------|-------------|
|-(7)------------------|-------7-----|----------------------|-------5-----|
|----------------------|----7-----7--|-(7)------------------|----5-----5--|
|----------------------|-5-----------|----------------------|-3-----------|
|----------------------|-------------|----------------------|-------------|


  B5                   E5                                   G5
  W                    W             +W                     W
  |                    |              |                     |
  /                    /              /                     /

  H          Q   Q     W              E  E E E E   +E  Q    W
|--------------------|-------------|----------------------|----------------|
|--------------------|-------------|----------------------|----------------|
|-4------------------|-------------|----------------------|----------------|
|-4------------------|-------------|-------5h7-7b9r(7)-5--|-5--------------|
|-2----------0-------|-2-----------|--5h=7----------------|-5--------------|
|----------------3---|-0-----------|----------------------|-3--------------|
|
| W                    Q  Q  Q  Q    +W                     Q  a Q  Q  Q
|--------------------|-------------|----------------------|----------------|
|--------------------|-------------|----------------------|----------------|
|-4------------------|----------7--|-(7)------------------|------------7---|
|--------------------|-------5-----|----------------------|---------5------|
|--------------------|----7--------|----------------------|----5h7---------|
|--------------------|-0-----------|----------------------|-3--------------|
|
| Gtr III
| E E E E   +Q   E E   W             +W                     W
|--------------------|-------------|----------------------|----------------|
|--------------------|-------------|----------------------|----------------|
|--------------------|-------------|----------------------|----------------|
|-----5-7b9r(7)--5h7-|-5-----------|-(5)------------------|----------------|
|-5-7----------------|-------------|----------------------|----------------|
|--------------------|-------------|----------------------|----------------|


  G5                     D5                                   C5
  +W                     W             +W                     W
   |                     |              |                     |
   /                     /              /                     /

   E  E E E E   +E  Q    W              E  E E E E   +E  Q    W
|----------------------|-------------|----------------------|-------------||
|----------------------|-------------|----------------------|-------------||
|----------------------|-7-----------|----------------------|-5-----------||
|-------5h7-7b9r(7)-5--|-7-----------|-------5h7-7b9r(7)-5--|-5-----------||
|--5h=7----------------|-5-----------|--5h=7----------------|-3-----------||
|----------------------|-------------|----------------------|-------------||
|
| +W                     Q  Q  Q  Q    +W                     Q  Q  Q  Q
|----------------------|-------------|----------------------|-------------||
|----------------------|-------------|----------------------|-------------||
|-(7)------------------|-------7-----|----------------------|-------5-----||
|----------------------|----7-----7--|-(7)------------------|----5-----5--||
|----------------------|-5-----------|----------------------|-3-----------||
|----------------------|-------------|----------------------|-------------||


  B5
  W                         W                 W               W
  |
  /

                                        ~~~~~~~~~        ~              ~
  E E E E E E E E           Q   Q   E E Q    +Q   E E Q  Q    Q  Q  E E Q
|-----------------|------------------------|----------------|---------------|
|-----------------|------------------------|----------------|---------------|
|-----------------|------------------------|----------------|---------------|
|-----------------|------------------------|----------------|---------------|
|-5-7---5---------|-----------------7p5-7--|-(7)---------8--|-------7p5-7---|
|-----8---7-8-5-7-|---------0---0----------|------6p5-6-----|-0--0----------|
                  |-w/Fill 1



   ~~~                                ~~~~~~~~~        ~              ~
  +Q   E E H              Q   Q   E E Q    +Q   E E Q  Q    Q  Q  E E Q
|---------------|------------------------|----------------|---------------|
|---------------|------------------------|----------------|---------------|
|---------------|------------------------|----------------|---------------|
|------4h5------|------------------------|----------------|---------------|
|-(7)------5----|-----------------7p5-7--|-(7)---------8--|-------7p5-7---|
|---------------|---------0---0----------|------6p5-6-----|-0--0----------|
                |-w/Fill 2


                  Verse
  Gtr I
  +Q   E E H       E  E E E +Q     E E
|---------------||---------------------|
|---------------||---------------------|
|---------------||--------9-(9)--------|
|------4h5-7----||--------9-(9)--------|
|-(7)------5----||-9h10-7-7-(7)------7-|
|---------------||----------------10---|
|
| Gtr II
| +Q   E E H       E  E E E  E  E  E E
|---------------||---------------------|
|---------------||---------------------|
|---------------||-7--9-x-x--x--x--7-9-|
|------4h5------||-7--9-x-x--x--x--7-9-|
|-(7)------5----||-5--7-x-x--x--x--5-7-|
|---------------||---------------------|


   E E Q      Q  E E   E  E E E +Q     E E
|--------------------|----------------------|
|--------------------|----------------------|
|-------------9------|--------9-(9)---------|
|-------------9------|--------9-(9)---------|
|-10p9-7------7--7-7-|-9h10-7-7-(7)------7--|
|--------------------|----------------10----|
|
|  E E E E  a Q  E E   E  E E E  E  E  E E
|--------------------|----------------------|
|--------------------|----------------------|
|--x-x-x-x-10s9--x-x-|-7--9-x-x--x--x--7-9--|
|--x-x-x-x-10s9--x-x-|-7--9-x-x--x--x--7-9--|
|--x-x-x-x--8s7--x-x-|-5--7-x-x--x--x--5-7--|
|--------------------|----------------------|


   E E  Q  H      E  E E E +Q     E E    E E Q   Q  E E   E  E E E +Q     E E
|---------------|---------------------|-----------------|---------------------|
|---------------|---------------------|-----------------|---------------------|
|----------7----|--------9-(9)--------|----------9------|--------9-(9)--------|
|----------7----|--------9-(9)--------|----------9------|--------9-(9)--------|
|-10p9-----5----|-9h10-7-7-(7)------7-|-10p9-7---7--7-7-|-9h10-7-7-(7)------7-|
|------10-------|----------------10---|-----------------|----------------10---|
|
|  E E  Q  H      E  E E E  E  E  E E    E E E E Q  E E   E  E E E  E  E  E E
|---------------|---------------------|-----------------|---------------------|
|---------------|---------------------|-----------------|---------------------|
|--9-7--7--7----|-7--9-x-x--x--x--7-9-|--x-x-x-x-9--x-x-|-7--9-x-x--x--x--7-9-|
|--9-7--7--7----|-7--9-x-x--x--x--7-9-|--x-x-x-x-9--x-x-|-7--9-x-x--x--x--7-9-|
|--7-5--5--5----|-5--7-x-x--x--x--5-7-|--x-x-x-x-7--x-x-|-5--7-x-x--x--x--5-7-|
|---------------|---------------------|-----------------|---------------------|


   E E Q  H        E E E E +Q    E E   E E Q     Q  E E   E E E E +Q    E E
|----------------|-------------------|------------------|--------------------|
|----------------|-------------------|------------------|--------------------|
|---------7------|-------7-(7)-------|-----------7------|-------7-(7)--------|
|---------7------|-------7-(7)-------|-----------7------|-------7-(7)--------|
|-10p9-5--5------|-7h8-5-5-(5)-----5-|-8p7-5-----5--5-5-|-7h8-5-5-(5)-----5--|
|----------------|---------------8---|------------------|---------------8----|
|
|  E E Q  Q  E E   E E E E  E  E E E   E E E E a Q  E E   E E E E  E  E E E
|----------------|-------------------|------------------|--------------------|
|----------------|-------------------|------------------|--------------------|
|--9-7-7--7--x-x-|-5-7-x-x--x--x-5-7-|-x-x-x-x-8s7--x-x-|-5-7-x-x--x--x-5-7--|
|--9-7-7--7--x-x-|-5-7-x-x--x--x-5-7-|-x-x-x-x-8s7--x-x-|-5-7-x-x--x--x-5-7--|
|--7-5-5--5--x-x-|-3-5-x-x--x--x-3-5-|-x-x-x-x-6s5--x-x-|-3-5-x-x--x--x-3-5--|
|----------------|-------------------|------------------|--------------------|


  E E E E Q.   E   E E E E +Q    E E   E E Q     Q  E E   E E E E +Q    E E
|----------------|-------------------|------------------|--------------------||
|----------------|-------------------|------------------|--------------------||
|----------------|-------7-(7)-------|-----------7------|-------7-(7)--------||
|----------------|-------7-(7)-------|-----------7------|-------7-(7)--------||
|-8-7-3s5s3----3-|-7h8-5-5-(5)-----5-|-8p7-5-----5--5-5-|-7h8-5-5-(5)---7h8--||
|----------------|---------------8---|------------------|--------------------||
|
| E E Q   H        E E E E  E  E E E   E E E E a Q  E E   E E E E  E  E E E
|----------------|-------------------|------------------|--------------------||
|----------------|-------------------|------------------|--------------------||
|-7-5-5---5------|-5-7-x-x--x--x-5-7-|-x-x-x-x-8s7--x-x-|-5-7-x-x--x--x------||
|-7-5-5---5------|-5-7-x-x--x--x-5-7-|-x-x-x-x-8s7--x-x-|-5-7-x-x--x--x------||
|-5-3-3---3------|-3-5-x-x--x--x-3-5-|-x-x-x-x-6s5--x-x-|-3-5-x-x--x--x-7h8--||
|----------------|-------------------|------------------|--------------------||


 Chorus
  Gtrs I, II
  H.      Q     H.        +E  E    E  E Q  E E Q
|-------------|-----------------|-----------------|
|-------------|-----------------|-----------------|
|-------------|-----------------|-----------------|
|-5-----------|---------------x-|--x--x-x--x-x----|
|-------------|---------------x-|--x--x-x--x-x-x--|
|---------x\--|-0---------(0)-x-|--x--x-x--x-x-x--|
|
| Gtr IV
| W             Q   Q  Q   Q      +W
|-------------|-----------------|-----------------|
|-------------|-----------------|-----------------|
|-------------|------------7----|-(7)-------------|
|-------------|--------5--------|-----------------|
|-------------|-----7-----------|-----------------|
|-------------|-0---------------|-----------------|


  W              E  E E E E   +E  Q
|-------------|----------------------|
|-------------|----------------------|
|-------------|----------------------|
|-------------|-------5h7-7b9r(7)-5--|
|-2-----------|--5h=7----------------|
|-0-----------|----------------------|
|
| Q  Q  Q  Q    +W
|-------------|----------------------|
|-------------|----------------------|
|----------7--|-(7)------------------|
|-------5-----|----------------------|
|----7--------|----------------------|
|-0-----------|----------------------|


  G5                                     D5
  Gtr III
  W               +W                     W             +W
  |                |                     |              |
  /                /                     /              /

  Gtrs I, II
  W                E  E E E E   +E  Q    W              E  E E E E   +E  Q
|---------------|----------------------|-------------|-----------------------|
|---------------|----------------------|-------------|-----------------------|
|---------------|----------------------|-7-----------|-----------------------|
|-5-------------|-------5h7-7b9r(7)-5--|-7-----------|-------5h7-7b9r(7)-5---|
|-5-------------|--5h=7----------------|-5-----------|--5h=7-----------------|
|-3-------------|----------------------|-------------|-----------------------|
|
| Gtr IV
| Q  a Q  Q  Q    +W                     Q  Q  Q  Q    +W
|---------------|----------------------|-------------|-----------------------|
|---------------|----------------------|-------------|-----------------------|
|------------7--|-(7)------------------|-------7-----|-----------------------|
|---------5-----|----------------------|----7-----7--|-(7)-------------------|
|----5h7--------|----------------------|-5-----------|-----------------------|
|-3-------------|----------------------|-------------|-----------------------|


  C5            B5                   E5
  W             W                    W             +W
  |             |                    |              |
  /             /                    /              /

  W             H          Q   Q     W              E  E E E E   +E  Q
|-------------|--------------------|-------------|----------------------|
|-------------|--------------------|-------------|----------------------|
|-5-----------|-4------------------|-------------|----------------------|
|-5-----------|-4------------------|-------------|-------5h7-7b9r(7)-5--|
|-3-----------|-2------------------|-2-----------|--5h=7----------------|
|-------------|------------5---3---|-0-----------|----------------------|
|
| Q  Q  Q  Q    W                    Q  Q  Q  Q    +W
|-------------|--------------------|-------------|----------------------|
|-------------|--------------------|-------------|----------------------|
|-------5-----|-4------------------|----------7--|-(7)------------------|
|----5-----5--|--------------------|-------5-----|----------------------|
|-3-----------|--------------------|----7--------|----------------------|
|-------------|--------------------|-0-----------|----------------------|
|
| Gtr III
| W             E E E E   +Q   E E   W             +W
|-------------|--------------------|-------------|----------------------|
|-------------|--------------------|-------------|----------------------|
|-------------|--------------------|-------------|----------------------|
|-------------|-----5-7b9r(7)--5h7-|-5-----------|-(5)------------------|
|-------------|-5-7----------------|-------------|----------------------|
|-------------|--------------------|-------------|----------------------|


  G5                                     D5
  W               +W                     W             +W
  |                |                     |              |
  /                /                     /              /

  W                E  E E E E   +E  Q    W              E  E E E E   +E  Q
|---------------|----------------------|-------------|-----------------------|
|---------------|----------------------|-------------|-----------------------|
|---------------|----------------------|-7-----------|-----------------------|
|-5-------------|-------5h7-7b9r(7)-5--|-7-----------|-------5h7-7b9r(7)-5---|
|-5-------------|--5h=7----------------|-5-----------|--5h=7-----------------|
|-3-------------|----------------------|-------------|-----------------------|
|
| Q  a Q  Q  Q    +W                     Q  Q  Q  Q    +W
|---------------|----------------------|-------------|-----------------------|
|---------------|----------------------|-------------|-----------------------|
|------------7--|-(7)------------------|-------7-----|-----------------------|
|---------5-----|----------------------|----7-----7--|-(7)-------------------|
|----5h7--------|----------------------|-5-----------|-----------------------|
|-3-------------|----------------------|-------------|-----------------------|


  C5               B5
  W                W                 W           W
  |                |
  /                /

                                                 \0.5/
  W                E E E E E E E E   W          +W
|----------------|-----------------|----------|-----------|
|----------------|-----------------|----------|-----------|
|-5--------------|-----------------|----------|-----------|
|-5--------------|-----------------|----------|-----------|
|-3--------------|-5-7---5---------|----------|-----------|
|----------------|-----8---7-8-5-7-|-0--------|-(0)-------|
|
| Q   Q   Q   Q    W                 W           W
|----------------|-----------------|----------|-----------|
|----------------|-----------------|----------|-----------|
|----------------|-----------------|----------|-----------|
|--------10------|-9---------------|----------|-----------|
|----10------10--|-----------------|----------|-----------|
|-8--------------|-----------------|----------|-----------|


                               Breakdown
   \0.5/
                                    ~~~~~~~     ~~~~~~~
  +W              +W             E  E  +Q    E  E  +Q
|---------------|------------||-------------------------|
|---------------|------------||-------------------------|
|---------------|------------||-------------12----------|
|---------------|------------||-12-14-(14)--12-14-(14)--|
|---------------|------------||-12-14-(14)-----14-(14)--|
|-(0)-----------|-(0)--------||-------------------------|


  Gtr I
   +W                E  E  +Q    E  E  +Q     +H        +Q.       E
|-----------------|-------------------------|-----------------------|
|-----------------|--------------8----------|-----------------------|
|-----------------|--7--9--(9)---7--9--(9)--|-(9)-------(9)---------|
|-(14)------------|--7--9--(9)------9--(9)--|-(9)-------(9)---------|
|-(14)------------|-------------------------|---------------------5-|
|-----------------|-------------------------|---------------------5-|
|
| Gtr II
|                       ~~~~~~~     ~~~~~~~
|  +H     E E E E    E  E  +Q    E  E  +Q      Q    E E  E  E  E  E
|-----------------|-------------------------|-----------------------|
|---------------9-|-------------------------|-----------------------|
|-----------------|-------------12----------|-----------------13-13-|
|-(14)----x-x-x---|-12-14-(14)--12-14-(14)--|---------x--x--x-------|
|-(14)----x-x-x---|-12-14-(14)-----14-(14)--|---------x--x--x-------|
|-----------------|-------------------------|-12---12---------------|


  Gtrs I, II
      ~~~~~~~     ~~~~~~~       ~~~~~~~
   E  E  +Q    E  E  +Q      E  E  +Q    E  E  Q
|-------------------------|------------------------|
|-------------------------|------------------------|
|-------------12----------|-------------12---------|
|-12-14-(14)--12-14-(14)--|-12-14-(14)--12-14------|
|-12-14-(14)-----14-(14)--|-12-14-(14)-----14-12\--|
|-------------------------|-------------------12\--|



  E E +Q   E E +Q     E E E E E E E  E
|-------------------|-------------------|
|-------------------|-------------------|
|-------------------|-------------------|
|----------5--------|-------------------|
|-5-7-(7)--5-7-(7)--|-5-7---5-----------|
|-5-7-(7)----7-(7)--|-----8---7-8-5--7\-|
|
|Gtr III
| W                   H       Q   E  E
|-------------------|---------------12--|
|-------------------|-------------------|
|-------------------|-------------------|
|-------------------|-------------------|
|-------------------|-------------------|
|-------------------|-------------------|


 Guitar Solo - w/slide
  Gtr I
   Q   Q   E E Q     +Q   E E Q   Q     Q   Q   E E Q     +E  E E E H
|-----------------|------------------|-----------------|--------------------|
|-----------------|------------------|-----------------|--------------------|
|-----------------|------------------|-----------------|--------------------|
|-----------------|------------------|-----------------|--------6h7-9-------|
|----------9p7-9--|--(9)---------10\-|----------9p7-9--|--(9)-9-----7-------|
|--2---2----------|-------8p7-8------|--2---2----------|--------------------|
|
|          ~~~~~~~~~~~~~~                       ~~~~~~~~~~~~~~
|  Q   Q   H         +H.          Q     Q   Q   H         +H.           Q
|-12--12s=14------|-(14)---------14s=|=12--12s=14------|-(14)----------14s==|
|-12--12s=14------|-(14)---------14s=|=12--12s=14------|-(14)----------14s==|
|-----------------|------------------|-----------------|--------------------|
|-----------------|------------------|-----------------|--------------------|
|-----------------|------------------|-----------------|--------------------|
|-----------------|------------------|-----------------|--------------------|


   Q   Q   E E Q     +Q   E E Q   Q     Q   Q   E E Q     +E  E  E E  Q   E E
|-----------------|------------------|-----------------|----------------------|
|-----------------|------------------|-----------------|----------------------|
|-----------------|------------------|-----------------|----------------------|
|-----------------|------------------|-----------------|---------6-7--9-------|
|----------9p7-9--|--(9)---------10\-|----------9p7-9--|--(9)-9-------7---7s5-|
|--2---2----------|-------8p7-8------|--2---2----------|----------------------|
|
|          ~~~~~~~~~~~~~~                       ~~~~~~~~~~~~~~
|  Q   Q   H         +H.          Q     Q   Q   H         +Q     Q    H
|-12--12s=14------|-(14)---------14s=|=12--12s=14------|-(14)---14s==21\------|
|-12--12s=14------|-(14)---------14s=|=12--12s=14------|-(14)---14------------|
|-----------------|------------------|-----------------|----------------------|
|-----------------|------------------|-----------------|----------------------|
|-----------------|------------------|-----------------|----------------------|
|-----------------|------------------|-----------------|----------------------|


               ~~~~~~~~~~         ~~
   Q   Q   E E Q     +Q   E E Q   Q     Q   Q   E E Q     +Q    E E  H
|-----------------|------------------|-----------------|---------------------|
|-----------------|------------------|-----------------|---------------------|
|-----------------|------------------|-----------------|---------------------|
|-----------------|------------------|-----------------|--------4h5--7-------|
|----------7p5-7--|--(7)----------8--|----------7p5-7--|--(7)--------5-------|
|--0---0----------|-------6p5-6------|--0---0----------|---------------------|
|
|          ~~~~~~~~~~~~~~                       ~~~~~~~~~~~~~~       ~~
|  Q   Q   H         +H.          Q     Q   Q   H         +Q    Q    Q   Q
|-10--10s=12------|-(12)-------------|-10--10s=12------|-(12)--15s==14--14\--|
|-10--10s=12------|-(12)---------10--|-10--10s=12------|-(12)----------------|
|-----------------|------------------|-----------------|---------------------|
|-----------------|------------------|-----------------|---------------------|
|-----------------|------------------|-----------------|---------------------|
|-----------------|------------------|-----------------|---------------------|


               ~~~~~~~~~~            ~~~
   Q   Q   E E Q     +Q    E  E  Q   Q
|-----------------|----------------------|
|-----------------|----------------------|
|-----------------|----------------------|
|-----------------|----------------------|
|----------7p5-7--|--(7)-------------8---|
|--0---0----------|--------6p=5--6-------|
|
|          ~~~~~~~~~~~~~~        ~~
|  Q   Q   H         +Q    E  E  Q   Q
|-10--10s=12------|-(12)-----------------|
|-10--10s=12------|-(12)-----------------|
|-----------------|-------12s11s12--12\--|
|-----------------|----------------------|
|-----------------|----------------------|
|-----------------|----------------------|


               ~~~~~~~~~~
   Q   Q   E E Q     +E      E E E  Q   E E
|-----------------|--------------------------|
|-----------------|--------------------------|
|-----------------|--------------------------|
|-----------------|------------4h5--7--------|
|----------7p5-7--|--(7)-----7------5---5h7--|
|--0---0----------|--------------------------|
|
|          ~~~~~~~~~~~~~~
|  Q   Q   H         +S   E.   E E  H
|-10--10s=12------|-(12)---------------------|
|-10--10s=12------|-(12)---------------------|
|-----------------|------------7-7s14\-------|
|-----------------|------14\-----------------|
|-----------------|--------------------------|
|-----------------|--------------------------|


            ~~~~~~~~~         ~~             ~~~~~~~~~
  Q  Q  E E Q    +Q   E E Q   Q    Q  Q  E E Q    +Q   E E H
|--------------|-----------------|--------------|-----------------|
|--------------|-----------------|--------------|-----------------|
|--------------|-----------------|--------------|-----------------|
|--------------|-----------------|--------------|------4h5-7------|
|-------7p5-7--|-(7)----------8--|-------7p5-7--|-(7)------5------|
|-0--0---------|------6p5-6------|-0--0---------|-----------------|
|
| Q  Q  E E Q     Q   E E Q   Q    Q  Q  E E Q     E E E E Q  Q
|--------------|-----------------|--------------|------5s7--------|
|-------8s7s8--|--8\---------10--|-------8s7s8--|--8s5-----7--7\--|
|--------------|------7s6s7------|-0--0---------|-----------------|
|--------------|-----------------|--------------|-----------------|
|--------------|-----------------|--------------|-----------------|
|-0--0---------|-----------------|--------------|-----------------|


               ~~~~~~~~~~~~              ~~                ~~                ~~
  Q  Q   E  E  Q       +Q     E  E  Q    Q    Q  Q   E  E  Q    Q  Q   E  E  Q
|-----------------|-------------------------|-----------------|----------------|
|-----------------|-------------------------|-----------------|----------------|
|-----------------|-------------------------|-----------------|----------------|
|-----------------|-------------------------|-----------------|----------------|
|--------7p=5--7--|----(7)---------------8--|--------7p=5--7--|--------7p=5--7-|
|-0--0------------|-----------6p=5--6-------|-0--0------------|-0--0-----------|
|
| Q  Q   E  E  Q     a  E  E  E  E  Q    Q    Q  Q   E  E  Q    Q  Q   E  E  Q
|-------15s14s15--|-15p12s15------------17--|-----------------|----------------|
|-----------------|----------15s14-15\------|-----------------|----------------|
|-----------------|-------------------------|-------12s11-12--|-------12s11s12-|
|-----------------|-------------------------|-----------------|----------------|
|-----------------|-------------------------|-----------------|----------------|
|-0--0------------|-------------------------|-0--0------------|-0--0-----------|


                         Guitar Solo
                       Gtrs I, II
         ~~        ~~~               ~~~~~~~~~~~~~            ~~~~~~~~~~~~~
   E  E  Q   E  E  Q              e  E        +Q           E  E        +Q
|----------------------||---------------------------------------------------|
|----------------------||---------------------------------------------------|
|----------------------||----------------------------------2----------------|
|----------------------||---------2--4--------(4)----------2--4--------(4)--|
|-10p=9-10--14p12-14\--||---------2--4--------(4)-------------4--------(4)--|
|----------------------||---------------------------------------------------|
|
|  E  E  Q   E  E  Q       a     +Q     a      Q    a      Q     a      Q
|-----------12s11s12---||---------------------14----------14-----------14---|
|-12s11s12-------------||-17b19-(19)---17b19-(19)--17b19-(19)---17b19-(19)--|
|----------------------||---------------------------------------------------|
|----------------------||---------------------------------------------------|
|----------------------||---------------------------------------------------|
|----------------------||---------------------------------------------------|


          E  E         E  E         E   +E             E            E
|---------------------------------------------------------------------|
|---------------------------------------------------------------------|
|----------------------2--4---------4b5r(4)------------2--------------|
|---------2--4---------2--4---------4b5r(4)------------2------------4-|
|---------2--4------------------------------------------------------4-|
|---------------------------------------------------------------------|
|
|                                   |-------------3--------------|
|  a      Q     a      Q     a      Q        a      Q     a      Q
|--------14-----------14-----------14--------------14-----------14----|
|-17b19-(19)---17b19-(19)---17b19-(19)------17b19-(19)---17b19-(19)---|
|---------------------------------------------------------------------|
|---------------------------------------------------------------------|
|---------------------------------------------------------------------|
|---------------------------------------------------------------------|


             ~~~~~~              ~~~~~~
          E  E +Q             E  E +Q
|---------------------------------------------|
|---------------------------------------------|
|-----------------------------2---------------|
|---------2--4-(4)------------2--4-(4)--------|
|---------2--4-(4)---------------4-(4)--------|
|---------------------------------------------|
|
|                                   |--3---|
|  a      Q     S  E.  a     +Q     E   E  E
|--------14------------------------14---------|
|-17b19-(19)---17p14--17b19-(19)-------17p14--|
|---------------------------------------------|
|---------------------------------------------|
|---------------------------------------------|
|---------------------------------------------|





                                                  ~~~~~~           ~~~~~~~
          E  E            E  E  E   +E  E E    E  E +Q      E      E  +Q
|-------------------------------------------|--------------------------------|
|-------------------------------------------|--------------------------------|
|-------------------------2--4--4b5r(4)-2---|---------------2----------------|
|---------2--4------------2--4--4b5r(4)-2-4-|--2--4-(4)-----2------4--(4)----|
|---------2--4----------------------------4-|--2--4-(4)------------4--(4)----|
|-------------------------------------------|--------------------------------|
|
|                               ~~~~~
|  a     +E.    S  a     +Q     Q       Q      E  E  E   E  E     +E   E   E
|-17b19-(21)---17-19b21-(21)---17-----------|--------------------------------|
|-------------------------------------------|--------------16b17r(16)-14-----|
|-------------------------------------------|-----------14-16b18r(16)-14-----|
|-------------------------------------------|----14-16--------------------16-|
|---------------------------------------0---|-16-----------------------------|
|-------------------------------------------|--------------------------------|


                                     ~~~~~~           ~~~~~~~
   E  E  E  E  E     +E   E  E    E  E +Q      E      E  +Q
|------------------------------|-------------------------------------|
|------------------------------|-------------------------------------|
|--------2--4--4b5r==(4)--2----|---------------2---------------------|
|--2--4--2--4--4b5r==(4)--2--4-|--2--4-(4)-----2------4--(4)---------|
|--2--4----------------------4-|--2--4-(4)------------4--(4)---------|
|------------------------------|-------------------------------------|
|
|  E  E  E  E  E     +E   E  E    E  E  E   E  E     +E   E   E
|------------------------------|-------------------------------------|
|-------------16b17r(16)-14----|--------------16b17r(16)-14--16b17r==|
|----------14-16b18r(16)-14----|-----------14-16b18r(16)-14--16b18r==|
|----14-16------------------16-|----14-16----------------------------|
|-16---------------------------|-16----------------------------------|
|------------------------------|-------------------------------------|


                                              ~~~~~~~     ~~~~~~~~~~
    E   E  E      E   E   +E      E   E    E  E  +Q    E  E  +Q
|---------------------------------------|--------------------------|
|---------------------------------------|--------------------------|
|----------2------4---4b5r(4)-----2-----|--------------2-----------|
|---2---4--2------4---4b5r(4)-----2---4-|--2--4--(4)---2--4--(4)---|
|---2---4-----------------------------4-|--2--4--(4)------4--(4)---|
|---------------------------------------|--------------------------|
|
|                                                      ~~
|  +E   E  E     +E   E    E     +E   E    E  E  +Q    E  E  +E  E
|---------------------------------------|--------------------------|
|-(16)-14-16b17r(16)-14---16b17r(16)-14-|--------------------------|
|-(16)-14-16b18r(16)-14---16b18r(16)-14-|-------------14-----------|
|---------------------------------------|-14-16-(16)-----16-(16)---|
|---------------------------------------|--------------------------|
|---------------------------------------|--------------------------|


 ~~~~~~~~~~~~
         +W            E  E  +Q    E  E  +Q
|-------------------|---------------------------|
|-------------------|---------------------------|
|-------------------|--------------2------------|
|--------(4)--------|--2--4--(4)---2--4--(4)----|
|--------(4)--------|--2--4--(4)------4--(4)----|
|-------------------|---------------------------|
|
|                                  ~~
|  a      W            E  E  +Q    E  E  +E  E
|-------------------|---------------------------|
|--------17---------|---------------------------|
|-16b18-(18)--------|-------------14------------|
|-------------------|-14-16-(16)-----16-(16)----|
|-------------------|---------------------------|
|-------------------|---------------------------|


                               |-----3-----|  |---3----|
         +H                    E    E      E +E  E    +E
|------------------------------------------------------------|
|------------------------------------------------------------|
|------------------------------------------------------------|
|--------(4)-------------------------------------------------|
|--------(4)-------------------------------------------------|
|------------------------------4----0------0-(0)-0----(0)----|
|
|  a     +E   E  a     +E   E  E       +Q           S      S
|------------------------------------------------------------|
|------------17------------17-17------(17)-------------------|
|-16b17-(17)----16b17-(17)----16b18r==(16)---------16p====14-|
|------------------------------------------------------------|
|------------------------------------------------------------|
|------------------------------------------------------------|


                \0.5/                  \0.5/
   H.      +E  +E        +H.      +E  +E        +W
|---------------------|----------------------|---------------------||
|---------------------|----------------------|---------------------||
|---------------------|----------------------|---------------------||
|---------------------|----------------------|---------------------||
|---------------------|----------------------|---------------------||
|--0-------(0)-(0)----|--(0)------(0)-(0)----|--(0)----------------||
|
|  ~~~
|  W                     +W                     +Q.    E E E  Q
|---------------------|----------------------|---------------------||
|---------------------|----------------------|---------------------||
|---------------------|----------------------|---------------------||
|-14------------------|-(14)-----------------|-(14)---14s9-9\------||
|---------------------|----------------------|---------------------||
|---------------------|----------------------|---------------------||


  Gtr I
       |-3-| |-3-| |-3-|
  +Q   E E E E E E E E E   +Q   +S  E  S   E   E   +Q      W          W
|------------------------|-------------------------------|----------|------||
|------------------------|-------------------------------|----------|------||
|------------------------|-------------------------------|----------|------||
|------------------------|-------------------------------|----------|------||
|------------------------|------------<7>-<7>------------|----------|------||
|-(0)--0---0---0---0---0-|-(0)--(0)-2---------<7>-(<7>)--|----------|------||


 Pre-Outro
                  ~~~~~~~~       ~        ~        ~~~~~~~~~~~
  W          E E +Q   +H       E E   S E. H      E E +Q   +Q.   E
|----------|-----------------|-----------------|-------------------|
|----------|-----------------|-----------------|-------------------|
|----------|-----------------|-----------------|-------------------|
|----------|-----------------|---x---5h7--5----|-------------------|
|----------|-5h7-(7)--(7)----|-----------------|-5-7-(7)--(7)---7\-|
|----------|-----------------|-----------------|-------------------|


                        ~~~~~~~~~~~       ~      ~        ~~~~~~~~~~~
  E E E E Q    +Q     E E +Q   +H       E E S E. H      E E +Q   +Q.   E
|-------------------|-----------------|---------------|---------------------|
|-------------------|-----------------|---------------|---------------------|
|-------------------|-----------------|---------------|---------------------|
|-----5h7-5b7r=(5)--|-----------------|---x-5h7--5----|---------------------|
|-0-x---------------|-5-7-(7)--(7)----|---------------|-5-7-(7)--(7)---7\---|
|-------------------|-----------------|---------------|---------------------|


                  ~      ~~~~~~            ~~~~~~
  E E E E E   +E  Q    E E +E  E a     +E  E +Q     E E E E E E E S S
|--------------------|----------------------------|-------------------|
|--------------------|----------------------------|-------------------|
|--------------------|----------------------------|-------------x-x-x-|
|-----5h7-7b8r(7)-5--|-----------5b5.5-(5)--------|-------------x-x-x-|
|-0-x----------------|-5h7-(7)-------------7-(7)--|-x-x-x-x-x-x-x-x-x-|
|--------------------|---------0------------------|-------------------|
|
| Gtr II
| W                    E E  E  E        E  E  E E   E E E E E E E E
|--------------------|----------------------------|-------------------|
|--------------------|----------------------------|-------------------|
|--------------------|----------------------------|-------------------|
|--------------------|----------------------------|-------------------|
|--------------------|-5h7--x--x--------x--x--5h7-|-x-x-x-x-x-x-x-x---|
|--------------------|----------------------------|-------------------|


    ~~~~~~            ~~~~~~
  E E +E  E a     +E  E +Q
|----------------------------|
|----------------------------|
|----------------------------|
|-----------5b5.5-(5)--------|
|-5h7-(7)-------------7-(7)--|
|---------0------------------|
|
| E E  E  E        E  E  E E
|----------------------------|
|----------------------------|
|----------------------------|
|----------------------------|
|-5h7--x--x--------x--x--5h7-|
|----------------------------|


  E E E E a   +Q    E   +E    E E E E a     +E  E +Q
|---------------------------|--------------------------|
|---------------------------|--------------------------|
|---------------------------|--------------------------|
|-------5-7b9-(7)---7b8r(7)-|---------5b5.5-(5)--------|
|---5-7---------------------|-5-7-x-x-----------7-(7)--|
|-5-------------------------|--------------------------|
|
| E E E E      E  E E    E    E E E E        E  E  E E
|---------------------------|--------------------------|
|---------------------------|--------------------------|
|---------------------------|--------------------------|
|---------------------------|--------------------------|
|-x-x-x-x------x--x-x----x--|-5h7-x-x--------x--x--5h7-|
|---------------------------|--------------------------|


              ~                                                ~
  E E E E E E Q     E E E E a     +E  E +Q     E E E E E   +E  Q
|-----------------|--------------------------|----------------------|
|-----------------|--------------------------|----------------------|
|-----------------|--------------------------|----------------------|
|-----5---5h7-5---|---------5b5.5-(5)--------|----------------------|
|---7---7---------|-5-7-x-x-----------7-(7)--|---7-5----------------|
|-----------------|--------------------------|-------7-5b6r(5)-5----|
|
| E E E E E E E E   E E E E        E  E  E E   E E E E E    E  E E
|-----------------|--------------------------|----------------------|
|-----------------|--------------------------|----------------------|
|-----------------|--------------------------|----------------------|
|-----------------|--------------------------|----------------------|
|-x-x-x-x-x-x-x-x-|-5h7-x-x--------x--x--5h7-|-x-x-x-x-x----x--x-x--|
|-----------------|--------------------------|----------------------|


                                       ~
  E E E E a     +E  E +Q     E E E  E  Q   E E   E E E E a     +E  E +E E
|--------------------------|-------------------|--------------------------|
|--------------------------|-------------------|--------------------------|
|--------------------------|-----7-<7>-7---7h9-|--------------------------|
|---------5b5.5-(5)--------|---9---------------|---------5b5.5-(5)--------|
|-5-7-x-x-----------7-(7)--|-------------------|-5-7-x-x-----------7-(7)--|
|--------------------------|-------------------|--------------------------|
|
| E E E E        E  E  E E   E E E  E  E E E E   E E E E        E  E  E E
|--------------------------|-------------------|--------------------------|
|--------------------------|-------------------|--------------------------|
|--------------------------|-------------------|--------------------------|
|--------------------------|-------------------|--------------------------|
|-5h7-x-x--------x--x--5h7-|-x-x-x--x--x-x-x-x-|-5h7-x-x--------x--x--5h7-|
|--------------------------|-------------------|--------------------------|


  E E S S E E S S Q      E E E E a     +E  E +E E   E E E E a     +E  E +E  E
|----------------------|--------------------------|---------------------------|
|----------------------|--------------------------|---------------------------|
|---7-9p7---7-9p7------|--------------------------|---------------------------|
|-9-------9-------9\---|---------5b5.5-(5)--------|---------5b5.5-(5)---------|
|----------------------|-5-7-x-x-----------7-(x)x-|-5-7-x-x-----------7-(x)-x-|
|----------------------|--------------------------|---------------------------|
|
| E E E   E E E   E  E   E E E E        E  E  E E   E E E E        E  E  E  E
|----------------------|--------------------------|---------------------------|
|----------------------|--------------------------|---------------------------|
|----------------------|--------------------------|---------------------------|
|----------------------|--------------------------|---------------------------|
|-x-x-x---x-x-x---x--x-|-5h7-x-x--------x--x--5h7-|-x-x-x-x--------x--x--x--x-|
|----------------------|--------------------------|---------------------------|


                                              Out-Chorus
  E E E E a     +E  E E E   E E E E E E E E    Q  Q  Q  Q
|---------------------0---|-----------------||--------------|
|-----------------------0-|-----------------||--------------|
|-------------------------|-----------------||----------7---|
|---------5b5.5-(5)-------|-----------------||-------5------|
|-5-7-7-7-----------7-----|-5-7---5---------||----7---------|
|-------------------------|-----8---7-8-5-7-||-0------------|
|
| E E E E        E  E E E   E E E E E E E E    Q  Q  Q  Q
|-------------------------|-----------------||--------------|
|-------------------------|-----------------||--------------|
|-------------------------|-----------------||----------7---|
|-------------------------|-----------------||-------5------|
|-5h7-x-x--------x--x-5h7-|-x-x-x-x-x-x-x-x-||----7---------|
|-------------------------|-----------------||-0------------|


    Gtrs I, II
                    ~                                    ~
    E E E E E   +E  Q    Q  Q  Q  Q    E E E E E   +E  E E   Q  Q  Q  Q  5x
||---------------------|-------------|---------------------|-------------||
||o--------------------|-------------|---------------------|------------o||
||---------------------|----------7--|---------------------|----------7--||
||------5-7-7b8r(7)-5--|-------5-----|-----5-7-7b8r(7)-5h7-|-------5-----||
||o-5-7----------------|----7--------|-5-7-----------------|----7-------o||
||---------------------|-0-----------|---------------------|-0-----------||


  Gtrs I, II                                    Gtrs I, II, III
                  ~
  E E E E E   +E  Q    Q  Q  Q  Q    Q  Q  H      W
|--------------------|-------------|------------|-------------|
|--------------------|-------------|------------|-------------|
|--------------------|----------7--|------------|-------------|
|-----5-7-7b8r(7)-5--|-------5-----|------------|-------------|
|-5-7----------------|----7--------|-2----------|-2-----------|
|--------------------|-0-----------|-0----------|-0-----------|
|
| Gtr IV
| W                    W             W            Q  Q  Q  Q
|--------------------|-------------|------------|-------------|
|--------------------|-------------|------------|----------3--|
|--------------------|-------------|------------|-------------|
|--------------------|-------------|------------|-------5-----|
|--------------------|-------------|------------|----7--------|
|--------------------|-------------|------------|-0-----------|


  Gtrs I, II
                    ~                                      ~
   E  E E E E   +E  Q    W                E  E E E E   +E  Q    W
|----------------------|---------------|----------------------|--------------|
|----------------------|---------------|----------------------|--------------|
|----------------------|---------------|----------------------|-7------------|
|-------5-7-7b8r(7)-5--|-5-------------|-------5-7-7b8r(7)-5--|-7------------|
|--5--7----------------|-5-------------|--5--7----------------|-5------------|
|----------------------|-3-------------|----------------------|--------------|
|
| Gtr IV
| +W                     Q  a Q  Q  Q    +W                     Q  Q  Q  Q
|----------------------|---------------|----------------------|--------------|
|-(3)------------------|---------------|----------------------|--------------|
|----------------------|------------7--|-(7)------------------|-------7------|
|----------------------|---------5-----|----------------------|----7-----7---|
|----------------------|----5h7--------|----------------------|-5------------|
|----------------------|-3-------------|----------------------|--------------|
|
| Gtr III
| +W                     W               +W                     W
|----------------------|---------------|----------------------|--------------|
|----------------------|---------------|----------------------|--------------|
|----------------------|---------------|----------------------|-7------------|
|----------------------|-5-------------|-(5)------------------|-7------------|
|-(2)------------------|-5-------------|-(5)------------------|-5------------|
|-(0)------------------|-3-------------|-(3)------------------|--------------|


                    ~
   E  E E E E   +E  Q    W             W                    W
|----------------------|-------------|--------------------|-------------|
|----------------------|-------------|--------------------|-------------|
|----------------------|-5-----------|-4------------------|-------------|
|-------5-7-7b8r(7)-5--|-5-----------|-4------------------|-------------|
|--5--7----------------|-3-----------|-2----------0-------|-2-----------|
|----------------------|-------------|----------------3---|-0-----------|
|                                      H          Q   Q
|
| +W                     Q  Q  Q  Q    W                    Q  Q  Q  Q
|----------------------|-------------|--------------------|-------------|
|----------------------|-------------|--------------------|-------------|
|----------------------|-------5-----|-4------------------|----------7--|
|-(7)------------------|----5-----5--|--------------------|-------5-----|
|----------------------|-3-----------|--------------------|----7--------|
|----------------------|-------------|--------------------|-0-----------|
|
| +W                     W             E E E E   +Q   E E   W
|----------------------|-------------|--------------------|-------------|
|----------------------|-------------|--------------------|-------------|
|-(7)------------------|-5-----------|--------------------|-------------|
|-(7)------------------|-5-----------|-----5-7b9r(7)--5h7-|-5-----------|
|-(5)------------------|-3-----------|-5-7----------------|-------------|
|----------------------|-------------|--------------------|-------------|


                    ~                                      ~
   E  E E E E   +E  Q    W                E  E E E E   +E  Q    W
|----------------------|---------------|----------------------|--------------|
|----------------------|---------------|----------------------|--------------|
|----------------------|---------------|----------------------|-7------------|
|-------5-7-7b8r(7)-5--|-5-------------|-------5-7-7b8r(7)-5--|-7------------|
|--5--7----------------|-5-------------|--5--7----------------|-5------------|
|----------------------|-3-------------|----------------------|--------------|
|
| +W                     Q  a Q  Q  Q    +W                     Q  Q  Q  Q
|----------------------|---------------|----------------------|--------------|
|----------------------|---------------|----------------------|--------------|
|-(7)------------------|------------7--|-(7)------------------|-------7------|
|----------------------|---------5-----|----------------------|----7-----7---|
|----------------------|----5h7--------|----------------------|-5------------|
|----------------------|-3-------------|----------------------|--------------|
|
|  W                     W               +W                     W
|----------------------|---------------|----------------------|--------------|
|----------------------|---------------|----------------------|--------------|
|----------------------|---------------|----------------------|-7------------|
|-(5)------------------|-5-------------|-(5)------------------|-7------------|
|--2-------------------|-5-------------|-(5)------------------|-5------------|
|--0-------------------|-3-------------|-(3)------------------|--------------|


                    ~
   E  E E E E   +E  Q    W             E E E E E E E E   Q  Q  Q  Q
|----------------------|-------------|-----------------|-------------|
|----------------------|-------------|-----------------|-------------|
|----------------------|-5-----------|-----------------|----------7--|
|-------5-7-7b8r(7)-5--|-5-----------|-----------------|-------5-----|
|--5--7----------------|-3-----------|-5-7---5---------|----7--------|
|----------------------|-------------|-----8---7-8-5-7-|-0-----------|
|
| +W                     Q  Q  Q  Q    W                 Q  Q  Q  Q
|----------------------|-------------|-----------------|-------------|
|----------------------|-------------|-----------------|-------------|
|----------------------|-------5-----|-4---------------|----------7--|
|-(7)------------------|----5-----5--|-----------------|-------5-----|
|----------------------|-3-----------|-----------------|----7--------|
|----------------------|-------------|-----------------|-0-----------|
|
| +W                     W             W                 W
|----------------------|-------------|-----------------|-------------|
|----------------------|-------------|-----------------|-------------|
|-(7)------------------|-5-----------|-4---------------|-------------|
|-(7)------------------|-5-----------|-4---------------|-------------|
|-(5)------------------|-3-----------|-2---------------|-------------|
|----------------------|-------------|-----------------|-------------|


   E  E E E E   +E  E E   Q  Q  Q  Q     E  E E E E E E E   Q  Q  Q  Q
|-----------------------|-------------|-------------------|-------------|
|-----------------------|-------------|-------------------|-------------|
|-----------------------|----------7--|-------------------|----------7--|
|-------5-7-7b8r(7)-5---|-------5-----|-------------------|-------5-----|
|--5h=7---------------5-|----7--------|--5--7---5---------|----7--------|
|-----------------------|-0-----------|-------8---7-8-5-7-|-0-----------|
|
| +W                      Q  Q  Q  Q    +W                  Q  Q  Q  Q
|-----------------------|-------------|-------------------|-------------|
|-----------------------|-------------|-------------------|-------------|
|-(7)-------------------|----------7--|-(7)---------------|----------7--|
|-----------------------|-------5-----|-------------------|-------5-----|
|-----------------------|----7--------|-------------------|----7--------|
|-----------------------|-0-----------|-------------------|-0-----------|


   E  E E E E   +E  E E   Q  Q  Q  Q     E  E E E E E E E   Q  Q  Q  Q
|-----------------------|-------------|-------------------|-------------|
|-----------------------|-------------|-------------------|-------------|
|-----------------------|----------7--|-------------------|----------7--|
|-------5-7-7b8r(7)-5---|-------5-----|-------------------|-------5-----|
|--5h=7---------------5-|----7--------|--5--7---5---------|----7--------|
|-----------------------|-0-----------|-------8---7-8-5-7-|-0-----------|
|
| +W                      Q  Q  Q  Q    +W                  Q  Q  Q  Q
|-----------------------|-------------|-------------------|-------------|
|-----------------------|-------------|-------------------|-------------|
|-(7)-------------------|----------7--|-(7)---------------|----------7--|
|-----------------------|-------5-----|-------------------|-------5-----|
|-----------------------|----7--------|-------------------|----7--------|
|-----------------------|-0-----------|-------------------|-0-----------|


   E  E E E E   +E  E E   Q  Q  Q  Q     E  E E E E E E E   Q  Q  Q  Q
|-----------------------|-------------|-------------------|-------------|
|-----------------------|-------------|-------------------|-------------|
|-----------------------|----------7--|-------------------|----------7--|
|-------5-7-7b8r(7)-5---|-------5-----|-------------------|-------5-----|
|--5h=7---------------5-|----7--------|--5--7---5---------|----7--------|
|-----------------------|-0-----------|-------8---7-8-5-7-|-0-----------|
|
| +W                      Q  Q  Q  Q    +W                  Q  Q  Q  Q
|-----------------------|-------------|-------------------|-------------|
|-----------------------|-------------|-------------------|-------------|
|-(7)-------------------|----------7--|-(7)---------------|----------7--|
|-----------------------|-------5-----|-------------------|-------5-----|
|-----------------------|----7--------|-------------------|----7--------|
|-----------------------|-0-----------|-------------------|-0-----------|


   E  E E E E   +E  E E   Q  Q  Q  Q     E  E E E E E E E   E E E E E E E E
|-----------------------|-------------|-------------------|-----------------|
|-----------------------|-------------|-------------------|-----------------|
|-----------------------|----------7--|-------------------|-----------------|
|-------5-7-7b8r(7)-5---|-------5-----|-------------------|-----------------|
|--5h=7---------------5-|----7--------|--5--7---5---------|-5-7---5---------|
|-----------------------|-0-----------|-------8---7-8-5-7-|-----8---7-8-5-7-|
|
| +W                      Q  Q  Q  Q    +W                  W
|-----------------------|-------------|-------------------|-----------------|
|-----------------------|-------------|-------------------|-----------------|
|-(7)-------------------|----------7--|-(7)---------------|-----------------|
|-----------------------|-------5-----|-------------------|-----------------|
|-----------------------|----7--------|-------------------|-----------------|
|-----------------------|-0-----------|-------------------|-----------------|


            ~~~~~~~~~        ~
  Q  Q  E E Q    +Q   E E Q  Q    E E +Q   H
|--------------|----------------|---------------*|
|--------------|----------------|---------------*|
|--------------|----------------|---------------*|
|--------------|----------------|---------------*|
|-------7p5-7--|-(7)---------8--|-2-2-(2)-------*|
|-0--0---------|------6p5-6-----|-0-0-(0)-------*|
comments
print report bad tab
2 comments total.
+3 reply
liatopia wrote on June 15 2010, 12:18 am

Could ya make it a little more understandable

+1 reply
doomsayer22 wrote on November 3 2011, 07:42 pm

wow wayyyy too much shit goin on dude you couldnt have made it easier to read? geeez

I want to post or [tab]
guest
You may want to rate the tab now too:
select rating
Please do not post tabs as comments. Select "correction" instead!