Oops, an error
Loading. Please wait.

Frantic Tab

ver3
ver3
More versions @911Tabs.com
73,076 views 81 this week
38 commentsread comments
1 2 3 4 5
excellent!
x 34
Autoscroll
+/-
esc
set tempo
stop
Contributor
WARNING: You are trying to view
                                    content from Ultimate-Guitar.com
                                    in an unauthorized application,
                                    which is prohibited.

                                    Please use an official Ultimate
                                    Guitar Tabs application for iPhone,
                                    iPad or Android to access legitimate
                                    chords, guitar, bass, and drum tabs
                                    from Ultimate-Guitar.com database.

                                    Type "ultimate guitar tabs" in Apple
                                    App Store's or Android Market's
                                    search to find the application.
Ok, the reason i am submitting another frantic tab is because nobody has submitted an
accurate one at all.  Watch the videos and you will find that this tab is correct.
First of all, note that the two guitars play everything seperated.  In this tab, James'
part is guitar one, and Kirk's part is guitar two.  Also please note that all guitars
should be tuned like this:DAFCGC 

Intro(played together)

kirk
|---------------------------------------|
|---------------------------------------|
|---------------------------------------|
|---------------------------------------|
|---------------------------------------|
|-0-0-0-0-0-0-0-0-0---0-0-0-0-0-0-0-0-0-|play four times

james
|------------------X--------------------X-|
|------------------X--------------------X-|
|------------------X--------------------X-|
|------------------X--------------------X-|
|------------------X--------------------X-|
|------------------X--------------------X-|play four times
note:put your fingers just barely on the strings at around the 12th fret.

Then kirk plays the same riff four more times and james plays this with him

Rythm figure one.
|-----------------------------|
|-----------------------------|
|-----------------------------|
|-----------------------------|
|-----------------------------|
|-6-3-0-0-0-0-0-0-5-0-0-0-0-0-|play four times.

Then both guitars play rythm figure one eight times.

then james plays this alone

Rythm figure two.
|---------------------------------------------------------------------------|
|---------------------------------------------------------------------------|
|---------------------------------------------------------------------------|
|---------------------------------------------------------------------------|
|---------------------------------------------------------------------------|
|-18-15-0-17~-17~-17-18-15-0-17~-17~-17-18-15-0-17~-17~-17-18-0-x-x-x-x-x-x-|

then both guitars play this.

Rythm figure three.

|-------------------------------------------------------------------------|
|-------------------------------------------------------------------------|
|-------------------------------------------------------------------------|
|-------------------------------------------------------------------------|
|-------------------------------------------------------------------------|
|-18-15-0-17-17--17-18-15-0-17-17--17-18-15-0-17-17--17-18-15-0-0-0-0-0-0-|
play this four times.

verse (played by both guitars)

rythm figure four.
|-----------------|
|-----------------|
|-----------------|
|-----------------|
|-6\3-------------|
|-6\3-0-0-0-0-0-0-|play this eight times

rythm figure five.
|-----------------------------------------------------------------|
|-----------------------------------------------------------------|
|-----------------------------------------------------------------|
|-----------------------------------------------------------------|
|-3-3-3-3-2-2-2-2-3-3-3-3-2-2-2-2-3-3-3-3-2-2-2-2-3-3-3-3-2-2-2-2-|
|-3-3-3-3-2-2-2-2-3-3-3-3-2-2-2-2-3-3-3-3-2-2-2-2-3-3-3-3-2-2-2-2-|

then play rythm figure four 4x (both guitars)

rythm figure six. (played by just james)
|---------------------------------|
|---------------------------------|
|---------------------------------|
|---------------------------------|
|---------------------------------|
|-18-15-0-17-17--17-18-15-0-17-17-|

then rythm figure six is played once by both guitars
then it is played once by just james

rythm figure seven. (played by both guitars)
|----------------------------------------|
|----------------------------------------|
|----------------------------------------|
|----------------------------------------|
|-0-0-0-0-0-0-0-0-0----0-0-0-0-0-0-0-0-0-|
|-0-0-0-0-0-0-0-0-0----0-0-0-0-0-0-0-0-0-|x2

rythm figure eight. (played by both guitars)

kirks part
|-------------------------------------------------------------|
|-11--8--10~~~-11--8--10~~~-----------------------------------|
|-------------------------------------------------------------|
|---------------------------12--10--9--------12--10--9--------|
|-------------------------------------10====-----------10====-|
|-------------------------------------------------------------|x2

james part                          these two are played together
|---------------------------------| (listen to song for right timing)
|-----0-----0---------0-----0-----|
|---0-----0-----0---0-----0-----0-|
|-5-----3-----5---5-----3-----5---|
|---------------------------------|
|---------------------------------|x4

then for the chorus rythm figure one is played eight times

this is how the rest of the song goes

rythm figure two x2 (both guitars)
rythm figure four x8 (both guitars)
rythm figure five x1 (both guitars)
rythm figure four x4 (both guitars)
rythm figure six x1 (just james, kirk is silent)
rythm figure six x1 (both guitars)
rythm figure six x1 (just james, kirk is silent)
rythm figure seven x2 (both guitars)
rythm figure eight played in the way it is written
rythm figre two x24 (both guitars)

then kirk plays the intro riff twice while james keeps playing rythm figure two.

then
rythm figure seven x1 (both guitars)

then this is played by both guitars
|---------------------------------|
|---------------------------------|
|---------------------------------|
|---------------------------------|
|-0-0-0-0-0-0-0-0-2-2-2-2-2-2-2-2-|
|-0-0-0-0-0-0-0-0-2-2-2-2-2-2-2-2-|

then
rythm figure seven x2
rythm figure eight (just as it is written)
rythm figure two x8

end riff 

rythm figure nine (both guitars)
|-----------------------------|
|-----------------------------|
|-----------------------------|
|-0-0----0-0----0-0----0-0----|
|-0-0----0-0----0-0----0-0----|
|-0-0----0-0----0-0----0-0----|x1

then james keeps playing rythm figure none once more and kirk plays this

rythm figure ten
|------------------------------------------------|
|------------------------------------------------|
|------------------------------------------------|
|------------------------------------------------|
|------------------------------------------12----|
|-0-0-12p10h12p10h12-12-0-0-12p10h12p10h12----12-|x2

then both guitars play rythm figure ten four times and then the song ends with one final chord

final chord.
|---|
|---|
|---|
|-0-|
|-0-|
|-0-|
end song

there ya go.  This here is a very accurate tab. See the DVD video and you will know that it is right.

key
p=pull off
h=hammer on
/=slide up
\=slide down
==let ring
~=vibrato
x=muted note
comments
print report bad tab
38 comments total. Showing first comments.
+3 reply
kirkII wrote on May 26 2005, 12:00 am

Normally id say why did you submit another "Frantic" tab. But this is an amazingly accurate tab. Thanks for submitting it.

+2 reply
titan metal wrote on May 26 2005, 12:00 am

[05/26/2005] by kirkII:
Normally id say why did you submit another "Frantic" tab. But this is an amazingly accurate tab. Thanks for submitting it.

same thing here, good job

+2 reply
ibikinz wrote on September 17 2005, 12:00 am

[05/26/2005] by titan metal:
[05/26/2005] by kirkII:
Normally id say why did you submit another "Frantic" tab. But this is an amazingly accurate tab. Thanks for submitting it.

same thing here, good job
same for me+

I want to post or [tab]
guest
You may want to rate the tab now too:
select rating
Please do not post tabs as comments. Select "correction" instead!