Oops, an error
Loading. Please wait.

Frantic Tab

ver4
ver4
More versions @911Tabs.com
1,333 views 1 this week
no commentswrite comment
1 2 3 4 5
not so good
x 1
Autoscroll
+/-
esc
set tempo
stop
Contributor
Hey! There's an official Ultimate Guitar app which is ideal
for learning songs when you're away from computer. Get the app
WARNING: You are trying to view
                                    content from Ultimate-Guitar.com
                                    in an unauthorized application,
                                    which is prohibited.

                                    Please use an official Ultimate
                                    Guitar Tabs application for iPhone,
                                    iPad or Android to access legitimate
                                    chords, guitar, bass, and drum tabs
                                    from Ultimate-Guitar.com database.

                                    Type "ultimate guitar tabs" in Apple
                                    App Store's or Android Market's
                                    search to find the application.
Frantic by METALLICA
From the ST Anger album (2003)

Tuning: Drop C (C,G,C,F,A,D)


Guitar 1 = kirk hammett
Guitar 2 = james hetfeild

Intro
Distorted
 Guitar 1 (electric)
|------------------||------------------||------------------||------------------|
|------------------||------------------||------------------||------------------|
|------------------||------------------||------------------||------------------|
|------------------||------------------||------------------||------------------|
|------------------||------------------||------------------||------------------|
|-000000000--------||-000000000--------||-000000000--------||-000000000--------|
| xxxxxxxxx           xxxxxxxxx           xxxxxxxxx           xxxxxxxxx
|
|Guitar 2 (electric)
|------------------||------------------||------------------||------------------|
|------------------||------------------||------------------||------------------|
|------------------||------------------||------------------||------------------|
|------------------||------------------||------------------||------------------|
|------------------||------------------||------------------||------------------|
|-000000000--------||-000000000--------||-000000000--------||-000000000--------|
  xxxxxxxxx           xxxxxxxxx           xxxxxxxxx           xxxxxxxxx






|------------------||------------------||------------------||------------------|
|------------------||------------------||------------------||------------------|
|------------------||------------------||------------------||------------------|
|------------------||------------------||------------------||------------------|
|------------------||------------------||------------------||------------------|
|-000000000--------||-000000000--------||-000000000--------||-000000000--------|
| xxxxxxxxx           xxxxxxxxx           xxxxxxxxx           xxxxxxxxx
|
|
|------------------||------------------||------------------||------------------|
|------------------||------------------||------------------||------------------|
|------------------||------------------||------------------||------------------|
|------------------||------------------||------------------||------------------|
|------------------||------------------||------------------||------------------|
|-000000000--------||-000000000--------||-000000000--------||-000000000--------|
  xxxxxxxxx           xxxxxxxxx           xxxxxxxxx           xxxxxxxxx



===================================================================================




|------------------||------------------||------------------||------------------|
|------------------||------------------||------------------||------------------|
|------------------||------------------||------------------||------------------|
|------------------||------------------||------------------||------------------|
|------------------||------------------||------------------||------------------|
|-18-15/12-0000-17-||-----------000000-||-18-15/12-0000-17-||-----------000000-|
|
|
|
|------------------||------------------||------------------||------------------|
|------------------||------------------||------------------||------------------|
|------------------||------------------||------------------||------------------|
|------------------||------------------||------------------||------------------|
|------------------||------------------||------------------||------------------|
|-000000000--------||-000000000--------||-000000000--------||-000000000--------|
  xxxxxxxxx           xxxxxxxxx           xxxxxxxxx           xxxxxxxxx






|------------------||------------------||------------------||------------------|
|------------------||------------------||------------------||------------------|
|------------------||------------------||------------------||------------------|
|------------------||------------------||------------------||------------------|
|------------------||------------------||------------------||------------------|
|-18-15/12-0000-17-||-----------000000-||-18-15/12-0000-17-||-----------000000-|
|
|
|
|------------------||------------------||------------------||------------------|
|------------------||------------------||------------------||------------------|
|------------------||------------------||------------------||------------------|
|------------------||------------------||------------------||------------------|
|------------------||------------------||------------------||------------------|
|-000000000--------||-000000000--------||-000000000--------||-000000000--------|
  xxxxxxxxx           xxxxxxxxx           xxxxxxxxx           xxxxxxxxx






|------------------||------------------||------------------||------------------|
|------------------||------------------||------------------||------------------|
|------------------||------------------||------------------||------------------|
|------------------||------------------||------------------||------------------|
|------------------||------------------||------------------||------------------|
|-18-15/12-0000-17-||-----------000000-||-18-15/12-0000-17-||-----------000000-|
|
|
|
|------------------||------------------||------------------||------------------|
|------------------||------------------||------------------||------------------|
|------------------||------------------||------------------||------------------|
|------------------||------------------||------------------||------------------|
|------------------||------------------||------------------||------------------|
|-000000000--------||-000000000--------||-000000000--------||-000000000--------|
  xxxxxxxxx           xxxxxxxxx           xxxxxxxxx           xxxxxxxxx






|------------------||------------------||------------------||------------------|
|------------------||------------------||------------------||------------------|
|------------------||------------------||------------------||------------------|
|------------------||------------------||------------------||------------------|
|------------------||------------------||------------------||------------------|
|-18-15/12-0000-17-||-----------000000-||-18-15/12-0000-17-||-----------000000-|
|
|
|
|------------------||------------------||------------------||------------------|
|------------------||------------------||------------------||------------------|
|------------------||------------------||------------------||------------------|
|------------------||------------------||------------------||------------------|
|------------------||------------------||------------------||------------------|
|-000000000--------||-000000000--------||-000000000--------||-000000000--------|
  xxxxxxxxx           xxxxxxxxx           xxxxxxxxx           xxxxxxxxx




=====================================================================================
=====================================================================================


Clean
|------------------||------------------||------------------||------------------|
|------------------||------------------||------------------||------------------|
|------------------||------------------||------------------||------------------|
|------------------||------------------||------------------||------------------|
|------------------||------------------||------------------||------------------|
|-18-15-0-17~-17-17||-18-15-0-17~-17-17||-18-15-0-17~-17-17||-18-15-0-0-0-0-0-0|
|                                                                   x x x x x x
|
|
|------------------||------------------||------------------||------------------|
|------------------||------------------||------------------||------------------|
|------------------||------------------||------------------||------------------|
|------------------||------------------||------------------||------------------|
|------------------||------------------||------------------||------------------|
|------------------||------------------||------------------||------------------|




Distorted
|------------------||------------------||------------------||------------------|
|------------------||------------------||------------------||------------------|
|------------------||------------------||------------------||------------------|
|------------------||------------------||------------------||------------------|
|------------------||------------------||------------------||------------------|
|-18-15-0-17~-17-17||-18-15-0-17~-17-17||-18-15-0-17~-17-17||-18-15-0-0-0-0-0-0|
|                                                                   x x x x x x
|
|
|------------------||------------------||------------------||------------------|
|------------------||------------------||------------------||------------------|
|------------------||------------------||------------------||------------------|
|------------------||------------------||------------------||------------------|
|------------------||------------------||------------------||------------------|
|-18-15-0-17~-17-17||-18-15-0-17~-17-17||-18-15-0-17~-17-17||-18-15-0-0-0-0-0-0|
                                                                    x x x x x x






|------------------||------------------||------------------||------------------|
|------------------||------------------||------------------||------------------|
|------------------||------------------||------------------||------------------|
|------------------||------------------||------------------||------------------|
|------------------||------------------||------------------||------------------|
|-18-15-0-17~-17-17||-18-15-0-17~-17-17||-18-15-0-17~-17-17||-18-15-0-0-0-0-0-0|
|                                                                   x x x x x x
|
|
|------------------||------------------||------------------||------------------|
|------------------||------------------||------------------||------------------|
|------------------||------------------||------------------||------------------|
|------------------||------------------||------------------||------------------|
|------------------||------------------||------------------||------------------|
|-18-15-0-17~-17-17||-18-15-0-17~-17-17||-18-15-0-17~-17-17||-18-15-0-0-0-0-0-0|
                                                                    x x x x x x






|------------------||------------------||------------------||------------------|
|------------------||------------------||------------------||------------------|
|------------------||------------------||------------------||------------------|
|------------------||------------------||------------------||------------------|
|------------------||------------------||------------------||------------------|
|-18-15-0-17~-17-17||-18-15-0-17~-17-17||-18-15-0-17~-17-17||-18-15-0-0-0-0-0-0|
|                                                                   x x x x x x
|
|
|------------------||------------------||------------------||------------------|
|------------------||------------------||------------------||------------------|
|------------------||------------------||------------------||------------------|
|------------------||------------------||------------------||------------------|
|------------------||------------------||------------------||------------------|
|-18-15-0-17~-17-17||-18-15-0-17~-17-17||-18-15-0-17~-17-17||-18-15-0-0-0-0-0-0|
                                                                    x x x x x x






|------------------||------------------||------------------||------------------|
|------------------||------------------||------------------||------------------|
|------------------||------------------||------------------||------------------|
|------------------||------------------||------------------||------------------|
|------------------||------------------||------------------||------------------|
|-18-15-0-17~-17-17||-18-15-0-17~-17-17||-18-15-0-17~-17-17||-18-15-0-0-0-0-0-0|
|                                                                   x x x x x x
|
|
|------------------||------------------||------------------||------------------|
|------------------||------------------||------------------||------------------|
|------------------||------------------||------------------||------------------|
|------------------||------------------||------------------||------------------|
|------------------||------------------||------------------||------------------|
|-18-15-0-17~-17-17||-18-15-0-17~-17-17||-18-15-0-17~-17-17||-18-15-0-0-0-0-0-0|
                                                                    x x x x x x




==================================================================================
==================================================================================




Verse
|-----------------||-----------------||-----------------||-----------------|
|-----------------||-----------------||-----------------||-----------------|
|-----------------||-----------------||-----------------||-----------------|
|-----------------||-----------------||-----------------||-----------------|
|-6p3-------------||-6p3-------------||-6p3-------------||-6p3-------------|
|-6p3-0-0-0-0-0-0-||-6p3-0-0-0-0-0-0-||-6p3-0-0-0-0-0-0-||-6p3-0-0-0-0-0-0-|
|     x x x x x x        x x x x x x        x x x x x x        x x x x x x
|
|
|-----------------||-----------------||-----------------||-----------------|
|-----------------||-----------------||-----------------||-----------------|
|-----------------||-----------------||-----------------||-----------------|
|-----------------||-----------------||-----------------||-----------------|
|-6p3-------------||-6p3-------------||-6p3-------------||-6p3-------------|
|-6p3-0-0-0-0-0-0-||-6p3-0-0-0-0-0-0-||-6p3-0-0-0-0-0-0-||-6p3-0-0-0-0-0-0-|
      x x x x x x        x x x x x x        x x x x x x        x x x x x x





|-----------------||-----------------||-----------------||-----------------|
|-----------------||-----------------||-----------------||-----------------|
|-----------------||-----------------||-----------------||-----------------|
|-----------------||-----------------||-----------------||-----------------|
|-6p3-------------||-6p3-------------||-6p3-------------||-6p3-------------|
|-6p3-0-0-0-0-0-0-||-6p3-0-0-0-0-0-0-||-6p3-0-0-0-0-0-0-||-6p3-0-0-2/------|
|     x x x x x x        x x x x x x        x x x x x x        x x
|
|
|-----------------||-----------------||-----------------||-----------------|
|-----------------||-----------------||-----------------||-----------------|
|-----------------||-----------------||-----------------||-----------------|
|-----------------||-----------------||-----------------||-----------------|
|-----------------||-----------------||-----------------||-----------------|
|-----------------||-----------------||-----------------||-----------------|




=================================================================================
=================================================================================



|-------------------------||-------------------------|
|-------------------------||-------------------------|
|-------------------------||-------------------------|
|-10-10-10-9--9--9--9--9--||-10-10-10-9--9--9--9--9--|
|-8--8--8--7--7--7--7--7--||-8--8--8--7--7--7--7--7--|
|-10-10-10-9--9--9--9--9--||-10-10-10-9--9--9--9--9--|
| x  x  x  x  x  x  x  x     x  x  x  x  x  x  x  x
|
|
|-------------------------||-------------------------|
|-------------------------||-------------------------|
|-------------------------||-------------------------|
|-10-10-10-9--9--9--9--9--||-10-10-10-9--9--9--9--9--|
|-8--8--8--7--7--7--7--7--||-8--8--8--7--7--7--7--7--|
|-10-10-10-9--9--9--9--9--||-10-10-10-9--9--9--9--9--|
  x  x  x  x  x  x  x  x     x  x  x  x  x  x  x  x





|-------------------------||-------------------------|
|-------------------------||-------------------------|
|-------------------------||-------------------------|
|-10-10-10-9--9--9--9--9--||-10-10-10-9-----------9--|
|-8--8--8--7--7--7--7--7--||-8--8--8--7-----------7--|
|-10-10-10-9--9--9--9--9--||-10-10-10-9-----------9--|
| x  x  x  x  x  x  x  x     x  x  x
|
|
|-------------------------||-------------------------|
|-------------------------||-------------------------|
|-------------------------||-------------------------|
|-10-10-10-9--9--9--9--9--||-10-10-10-9-----------9--|
|-8--8--8--7--7--7--7--7--||-8--8--8--7-----------7--|
|-10-10-10-9--9--9--9--9--||-10-10-10-9-----------9--|
  x  x  x  x  x  x  x  x     x  x  x




==============================================================================
==============================================================================




|-----------------||-----------------||-----------------||-----------------|
|-----------------||-----------------||-----------------||-----------------|
|-----------------||-----------------||-----------------||-----------------|
|-----------------||-----------------||-----------------||-----------------|
|-6p3-------------||-6p3-------------||-6p3-------------||-6p3-------------|
|-6p3-0-0-0-0-0-0-||-6p3-0-0-0-0-0-0-||-6p3-0-0-0-0-0-0-||-6p3-0-0-0-0-0-0-|
|     x x x x x x        x x x x x x        x x x x x x        x x x x x x
|
|
|-----------------||-----------------||-----------------||-----------------|
|-----------------||-----------------||-----------------||-----------------|
|-----------------||-----------------||-----------------||-----------------|
|-----------------||-----------------||-----------------||-----------------|
|-6p3-------------||-6p3-------------||-6p3-------------||-6p3-------------|
|-6p3-0-0-0-0-0-0-||-6p3-0-0-0-0-0-0-||-6p3-0-0-0-0-0-0-||-6p3-0-0-0-0-0-0-|
      x x x x x x        x x x x x x        x x x x x x        x x x x x x



==============================================================================
==============================================================================



Clean
|------------------||------------------|
|------------------||------------------|
|------------------||------------------|
|------------------||------------------|
|------------------||------------------|
|-18-15-0-17~-17-17||-18-15-0-17~-17-17|
|
|
|
|------------------||------------------|
|------------------||------------------|
|------------------||------------------|
|------------------||------------------|
|------------------||------------------|
|------------------||------------------|



Distorted
Clean
|------------------||------------------|
|------------------||------------------|
|------------------||------------------|
|------------------||------------------|
|------------------||------------------|
|-18-15-0-17~-17-17||-18-15-0-17~-17-17|
|
|
|
|------------------||------------------|
|------------------||------------------|
|------------------||------------------|
|------------------||------------------|
|------------------||------------------|
|-18-15-0-17~-17-17||-18-15-0-17~-17-17|




Clean
|------------------||------------------|
|------------------||------------------|
|------------------||------------------|
|------------------||------------------|
|------------------||------------------|
|-18-15-0-17~-17-17||-18-15-0-17~-17-17|
|
|
|
|------------------||------------------|
|------------------||------------------|
|------------------||------------------|
|------------------||------------------|
|------------------||------------------|
|------------------||------------------|



==================================================================================
==================================================================================



|------------------||------------------||------------------||------------------|
|------------------||------------------||------------------||------------------|
|------------------||------------------||------------------||------------------|
|------------------||------------------||------------------||------------------|
|------------------||------------------||------------------||------------------|
|-000000000--------||-000000000--------||-000000000--------||-000000000--------|
| xxxxxxxxx           xxxxxxxxx           xxxxxxxxx           xxxxxxxxx
|
|
|------------------||------------------||------------------||------------------|
|------------------||------------------||------------------||------------------|
|------------------||------------------||------------------||------------------|
|------------------||------------------||------------------||------------------|
|------------------||------------------||------------------||------------------|
|-000000000--------||-000000000--------||-000000000--------||-000000000--------|
  xxxxxxxxx           xxxxxxxxx           xxxxxxxxx           xxxxxxxxx



==================================================================================
==================================================================================


 Pre Chorus
|-----------------||-----------------||-----------------||-----------------|
|-----------------||-----------------||-----------------||-----------------|
|-13~~~~10~~~~12~~||~~~~~~~~~~~~~~~~~||-13~~~~10~~~~12~~||~~~~~~~~~~~~~~~~~|
|-----------------||-----------------||-----------------||-----------------|
|-----------------||-----------------||-----------------||-----------------|
|-----------------||-----------------||-----------------||-----------------|
|
|
|clean
|-----------------||-----------------||-----------------||-----------------|
|-----0-----0-----||-----0-----0-----||-----0-----0-----||-----0-----0-----|
|---0-----0-----0-||---0-----0-----0-||---0-----0-----0-||---0-----0-----0-|
|-6-----3-----5---||-6-----3-----5---||-6-----3-----5---||-6-----3-----5---|
|-----------------||-----------------||-----------------||-----------------|
|-----------------||-----------------||-----------------||-----------------|





|-----------------||-----------------||-----------------||-----------------|
|-----------------||-----------------||-----------------||-----------------|
|-----------------||-----------------||-----------------||-----------------|
|-12~~~~10~~~~9/5~||~~~~~~~~~~~~~~~~~||-12~~~~10~~~~9/5~||~~~~~~~~~~~~~~~~~|
|-----------------||-----------------||-----------------||-----------------|
|-----------------||-----------------||-----------------||-----------------|
|
|
|clean
|-----------------||-----------------||-----------------||-----------------|
|-----0-----0-----||-----0-----0-----||-----0-----0-----||-----0-----0-----|
|---0-----0-----0-||---0-----0-----0-||---0-----0-----0-||---0-----0-----0-|
|-6-----3-----5---||-6-----3-----5---||-6-----3-----5---||-6-----3-----5---|
|-----------------||-----------------||-----------------||-----------------|
|-----------------||-----------------||-----------------||-----------------|






|-----------------||-----------------||-----------------||-----------------|
|-----------------||-----------------||-----------------||-----------------|
|-13~~~~10~~~~12~~||~~~~~~~~~~~~~~~~~||-13~~~~10~~~~12~~||~~~~~~~~~~~~~~~~~|
|-----------------||-----------------||-----------------||-----------------|
|-----------------||-----------------||-----------------||-----------------|
|-----------------||-----------------||-----------------||-----------------|
|
|
|clean
|-----------------||-----------------||-----------------||-----------------|
|-----0-----0-----||-----0-----0-----||-----0-----0-----||-----0-----0-----|
|---0-----0-----0-||---0-----0-----0-||---0-----0-----0-||---0-----0-----0-|
|-6-----3-----5---||-6-----3-----5---||-6-----3-----5---||-6-----3-----5---|
|-----------------||-----------------||-----------------||-----------------|
|-----------------||-----------------||-----------------||-----------------|





|-----------------||-----------------||-----------------||-----------------|
|-----------------||-----------------||-----------------||-----------------|
|-----------------||-----------------||-----------------||-----------------|
|-12~~~~10~~~~9/5~||~~~~~~~~~~~~~~~~~||-12~~~~10~~~~9/5~||~~~~~~~~~~~~~~~~~|
|-----------------||-----------------||-----------------||-----------------|
|-----------------||-----------------||-----------------||-----------------|
|
|
|clean
|-----------------||-----------------||-----------------||-----------------|
|-----0-----0-----||-----0-----0-----||-----0-----0-----||-----0-----0-----|
|---0-----0-----0-||---0-----0-----0-||---0-----0-----0-||---0-----0-----0-|
|-6-----3-----5---||-6-----3-----5---||-6-----3-----5---||-6-----3-----5---|
|-----------------||-----------------||-----------------||-----------------|
|-----------------||-----------------||-----------------||-----------------|




==================================================================================
==================================================================================



Chorus
|--------------------||--------------------||--------------------||--------------------|
|--------------------||--------------------||--------------------||--------------------|
|--------------------||--------------------||--------------------||--------------------|
|--------------------||--------------------||--------------------||--------------------|
|--------------------||--------------------||--------------------||--------------------|
|-18-18-15~-17-0-0-0-||-18-18-15~-17-0-0-0-||-18-18-15~-17-0-0-0-||-18-18-15~-17-17/12-|
|
|
|
|--------------------||--------------------||--------------------||--------------------|
|--------------------||--------------------||--------------------||--------------------|
|--------------------||--------------------||--------------------||--------------------|
|--------------------||--------------------||--------------------||--------------------|
|--------------------||--------------------||--------------------||--------------------|
|-000000000----------||-000000000----------||-000000000----------||-000000000----------|
  xxxxxxxxx             xxxxxxxxx             xxxxxxxxx             xxxxxxxxx






|--------------------||--------------------||--------------------||--------------------|
|--------------------||--------------------||--------------------||--------------------|
|--------------------||--------------------||--------------------||--------------------|
|--------------------||--------------------||--------------------||--------------------|
|--------------------||--------------------||--------------------||--------------------|
|-18-18-15~-17-0-0-0-||-18-18-15~-17-0-0-0-||-18-18-15~-17-0-0-0-||-18-18-15~-17-17/12-|
|
|
|
|--------------------||--------------------||--------------------||--------------------|
|--------------------||--------------------||--------------------||--------------------|
|--------------------||--------------------||--------------------||--------------------|
|--------------------||--------------------||--------------------||--------------------|
|--------------------||--------------------||--------------------||--------------------|
|-000000000----------||-000000000----------||-000000000----------||-000000000----------|
  xxxxxxxxx             xxxxxxxxx             xxxxxxxxx             xxxxxxxxx







|------------------||------------------||------------------||------------------|
|------------------||------------------||------------------||------------------|
|------------------||------------------||------------------||------------------|
|------------------||------------------||------------------||------------------|
|------------------||------------------||------------------||------------------|
|-18-15-0-17~-17-17||-18-15-0-17~-17-17||-18-15-0-17~-17-17||-18-15-0-0-0-0-0-0|
|                                                                   x x x x x x
|
|
|------------------||------------------||------------------||------------------|
|------------------||------------------||------------------||------------------|
|------------------||------------------||------------------||------------------|
|------------------||------------------||------------------||------------------|
|------------------||------------------||------------------||------------------|
|-18-15-0-17~-17-17||-18-15-0-17~-17-17||-18-15-0-17~-17-17||-18-15-0-0-0-0-0-0|
                                                                    x x x x x x






|------------------||------------------||------------------||------------------|
|------------------||------------------||------------------||------------------|
|------------------||------------------||------------------||------------------|
|------------------||------------------||------------------||------------------|
|------------------||------------------||------------------||------------------|
|-18-15-0-17~-17-17||-18-15-0-17~-17-17||-18-15-0-17~-17-17||-18-15-0-0-0-0-0-0|
|                                                                   x x x x x x
|
|
|------------------||------------------||------------------||------------------|
|------------------||------------------||------------------||------------------|
|------------------||------------------||------------------||------------------|
|------------------||------------------||------------------||------------------|
|------------------||------------------||------------------||------------------|
|-18-15-0-17~-17-17||-18-15-0-17~-17-17||-18-15-0-17~-17-17||-18-15-0-0-0-0-0-0|
                                                                    x x x x x x




==================================================================================
==================================================================================




Verse
|-----------------||-----------------||-----------------||-----------------|
|-----------------||-----------------||-----------------||-----------------|
|-----------------||-----------------||-----------------||-----------------|
|-----------------||-----------------||-----------------||-----------------|
|-6p3-------------||-6p3-------------||-6p3-------------||-6p3-------------|
|-6p3-0-0-0-0-0-0-||-6p3-0-0-0-0-0-0-||-6p3-0-0-0-0-0-0-||-6p3-0-0-0-0-0-0-|
|     x x x x x x        x x x x x x        x x x x x x        x x x x x x
|
|
|-----------------||-----------------||-----------------||-----------------|
|-----------------||-----------------||-----------------||-----------------|
|-----------------||-----------------||-----------------||-----------------|
|-----------------||-----------------||-----------------||-----------------|
|-6p3-------------||-6p3-------------||-6p3-------------||-6p3-------------|
|-6p3-0-0-0-0-0-0-||-6p3-0-0-0-0-0-0-||-6p3-0-0-0-0-0-0-||-6p3-0-0-0-0-0-0-|
      x x x x x x        x x x x x x        x x x x x x        x x x x x x






|-----------------||-----------------||-----------------||-----------------|
|-----------------||-----------------||-----------------||-----------------|
|-----------------||-----------------||-----------------||-----------------|
|-----------------||-----------------||-----------------||-----------------|
|-6p3-------------||-6p3-------------||-6p3-------------||-6p3-------------|
|-6p3-0-0-0-0-0-0-||-6p3-0-0-0-0-0-0-||-6p3-0-0-0-0-0-0-||-6p3-0-0-0-0-0-0-|
|     x x x x x x        x x x x x x        x x x x x x        x x x x x x
|
|
|-----------------||-----------------||-----------------||-----------------|
|-----------------||-----------------||-----------------||-----------------|
|-----------------||-----------------||-----------------||-----------------|
|-----------------||-----------------||-----------------||-----------------|
|-6p3-------------||-6p3-------------||-6p3-------------||-6p3-------------|
|-6p3-0-0-0-0-0-0-||-6p3-0-0-0-0-0-0-||-6p3-0-0-0-0-0-0-||-6p3-0-0-0-0-0-0-|
      x x x x x x        x x x x x x        x x x x x x        x x x x x x





=================================================================================
=================================================================================



|-------------------------||-------------------------|
|-------------------------||-------------------------|
|-------------------------||-------------------------|
|-10-10-10-9--9--9--9--9--||-10-10-10-9--9--9--9--9--|
|-8--8--8--7--7--7--7--7--||-8--8--8--7--7--7--7--7--|
|-10-10-10-9--9--9--9--9--||-10-10-10-9--9--9--9--9--|
| x  x  x  x  x  x  x  x     x  x  x  x  x  x  x  x
|
|
|-------------------------||-------------------------|
|-------------------------||-------------------------|
|-------------------------||-------------------------|
|-10-10-10-9--9--9--9--9--||-10-10-10-9--9--9--9--9--|
|-8--8--8--7--7--7--7--7--||-8--8--8--7--7--7--7--7--|
|-10-10-10-9--9--9--9--9--||-10-10-10-9--9--9--9--9--|
  x  x  x  x  x  x  x  x     x  x  x  x  x  x  x  x





|-------------------------||-------------------------|
|-------------------------||-------------------------|
|-------------------------||-------------------------|
|-10-10-10-9--9--9--9--9--||-10-10-10-9-----------9--|
|-8--8--8--7--7--7--7--7--||-8--8--8--7-----------7--|
|-10-10-10-9--9--9--9--9--||-10-10-10-9-----------9--|
| x  x  x  x  x  x  x  x     x  x  x
|
|
|-------------------------||-------------------------|
|-------------------------||-------------------------|
|-------------------------||-------------------------|
|-10-10-10-9--9--9--9--9--||-10-10-10-9-----------9--|
|-8--8--8--7--7--7--7--7--||-8--8--8--7-----------7--|
|-10-10-10-9--9--9--9--9--||-10-10-10-9-----------9--|
  x  x  x  x  x  x  x  x     x  x  x




==============================================================================
==============================================================================




|-----------------||-----------------||-----------------||-----------------|
|-----------------||-----------------||-----------------||-----------------|
|-----------------||-----------------||-----------------||-----------------|
|-----------------||-----------------||-----------------||-----------------|
|-6p3-------------||-6p3-------------||-6p3-------------||-6p3-------------|
|-6p3-0-0-0-0-0-0-||-6p3-0-0-0-0-0-0-||-6p3-0-0-0-0-0-0-||-6p3-0-0-0-0-0-0-|
|     x x x x x x        x x x x x x        x x x x x x        x x x x x x
|
|
|-----------------||-----------------||-----------------||-----------------|
|-----------------||-----------------||-----------------||-----------------|
|-----------------||-----------------||-----------------||-----------------|
|-----------------||-----------------||-----------------||-----------------|
|-6p3-------------||-6p3-------------||-6p3-------------||-6p3-------------|
|-6p3-0-0-0-0-0-0-||-6p3-0-0-0-0-0-0-||-6p3-0-0-0-0-0-0-||-6p3-0-0-0-0-0-0-|
      x x x x x x        x x x x x x        x x x x x x        x x x x x x



==============================================================================
==============================================================================



Clean
|------------------||------------------|
|------------------||------------------|
|------------------||------------------|
|------------------||------------------|
|------------------||------------------|
|-18-15-0-17~-17-17||-18-15-0-17~-17-17|
|
|
|
|------------------||------------------|
|------------------||------------------|
|------------------||------------------|
|------------------||------------------|
|------------------||------------------|
|------------------||------------------|



Distorted
Clean
|------------------||------------------|
|------------------||------------------|
|------------------||------------------|
|------------------||------------------|
|------------------||------------------|
|-18-15-0-17~-17-17||-18-15-0-17~-17-17|
|
|
|
|------------------||------------------|
|------------------||------------------|
|------------------||------------------|
|------------------||------------------|
|------------------||------------------|
|-18-15-0-17~-17-17||-18-15-0-17~-17-17|




Clean
|------------------||------------------|
|------------------||------------------|
|------------------||------------------|
|------------------||------------------|
|------------------||------------------|
|-18-15-0-17~-17-17||-18-15-0-17~-17-17|
|
|
|
|------------------||------------------|
|------------------||------------------|
|------------------||------------------|
|------------------||------------------|
|------------------||------------------|
|------------------||------------------|



==================================================================================
==================================================================================



|------------------||------------------||------------------||------------------|
|------------------||------------------||------------------||------------------|
|------------------||------------------||------------------||------------------|
|------------------||------------------||------------------||------------------|
|------------------||------------------||------------------||------------------|
|-000000000--------||-000000000--------||-000000000--------||-000000000--------|
| xxxxxxxxx           xxxxxxxxx           xxxxxxxxx           xxxxxxxxx
|
|
|------------------||------------------||------------------||------------------|
|------------------||------------------||------------------||------------------|
|------------------||------------------||------------------||------------------|
|------------------||------------------||------------------||------------------|
|------------------||------------------||------------------||------------------|
|-000000000--------||-000000000--------||-000000000--------||-000000000--------|
  xxxxxxxxx           xxxxxxxxx           xxxxxxxxx           xxxxxxxxx



==================================================================================
==================================================================================


 Pre Chorus
|-----------------||-----------------||-----------------||-----------------|
|-----------------||-----------------||-----------------||-----------------|
|-13~~~~10~~~~12~~||~~~~~~~~~~~~~~~~~||-13~~~~10~~~~12~~||~~~~~~~~~~~~~~~~~|
|-----------------||-----------------||-----------------||-----------------|
|-----------------||-----------------||-----------------||-----------------|
|-----------------||-----------------||-----------------||-----------------|
|
|
|clean
|-----------------||-----------------||-----------------||-----------------|
|-----0-----0-----||-----0-----0-----||-----0-----0-----||-----0-----0-----|
|---0-----0-----0-||---0-----0-----0-||---0-----0-----0-||---0-----0-----0-|
|-6-----3-----5---||-6-----3-----5---||-6-----3-----5---||-6-----3-----5---|
|-----------------||-----------------||-----------------||-----------------|
|-----------------||-----------------||-----------------||-----------------|





|-----------------||-----------------||-----------------||-----------------|
|-----------------||-----------------||-----------------||-----------------|
|-----------------||-----------------||-----------------||-----------------|
|-12~~~~10~~~~9/5~||~~~~~~~~~~~~~~~~~||-12~~~~10~~~~9/5~||~~~~~~~~~~~~~~~~~|
|-----------------||-----------------||-----------------||-----------------|
|-----------------||-----------------||-----------------||-----------------|
|
|
|clean
|-----------------||-----------------||-----------------||-----------------|
|-----0-----0-----||-----0-----0-----||-----0-----0-----||-----0-----0-----|
|---0-----0-----0-||---0-----0-----0-||---0-----0-----0-||---0-----0-----0-|
|-6-----3-----5---||-6-----3-----5---||-6-----3-----5---||-6-----3-----5---|
|-----------------||-----------------||-----------------||-----------------|
|-----------------||-----------------||-----------------||-----------------|






|-----------------||-----------------||-----------------||-----------------|
|-----------------||-----------------||-----------------||-----------------|
|-13~~~~10~~~~12~~||~~~~~~~~~~~~~~~~~||-13~~~~10~~~~12~~||~~~~~~~~~~~~~~~~~|
|-----------------||-----------------||-----------------||-----------------|
|-----------------||-----------------||-----------------||-----------------|
|-----------------||-----------------||-----------------||-----------------|
|
|
|clean
|-----------------||-----------------||-----------------||-----------------|
|-----0-----0-----||-----0-----0-----||-----0-----0-----||-----0-----0-----|
|---0-----0-----0-||---0-----0-----0-||---0-----0-----0-||---0-----0-----0-|
|-6-----3-----5---||-6-----3-----5---||-6-----3-----5---||-6-----3-----5---|
|-----------------||-----------------||-----------------||-----------------|
|-----------------||-----------------||-----------------||-----------------|





|-----------------||-----------------||-----------------||-----------------|
|-----------------||-----------------||-----------------||-----------------|
|-----------------||-----------------||-----------------||-----------------|
|-12~~~~10~~~~9/5~||~~~~~~~~~~~~~~~~~||-12~~~~10~~~~9/5~||~~~~~~~~~~~~~~~~~|
|-----------------||-----------------||-----------------||-----------------|
|-----------------||-----------------||-----------------||-----------------|
|
|
|clean
|-----------------||-----------------||-----------------||-----------------|
|-----0-----0-----||-----0-----0-----||-----0-----0-----||-----0-----0-----|
|---0-----0-----0-||---0-----0-----0-||---0-----0-----0-||---0-----0-----0-|
|-6-----3-----5---||-6-----3-----5---||-6-----3-----5---||-6-----3-----5---|
|-----------------||-----------------||-----------------||-----------------|
|-----------------||-----------------||-----------------||-----------------|




==================================================================================
==================================================================================



Chorus
|--------------------||--------------------||--------------------||--------------------|
|--------------------||--------------------||--------------------||--------------------|
|--------------------||--------------------||--------------------||--------------------|
|--------------------||--------------------||--------------------||--------------------|
|--------------------||--------------------||--------------------||--------------------|
|-18-18-15~-17-0-0-0-||-18-18-15~-17-0-0-0-||-18-18-15~-17-0-0-0-||-18-18-15~-17-17/12-|
|
|
|
|--------------------||--------------------||--------------------||--------------------|
|--------------------||--------------------||--------------------||--------------------|
|--------------------||--------------------||--------------------||--------------------|
|--------------------||--------------------||--------------------||--------------------|
|--------------------||--------------------||--------------------||--------------------|
|-000000000----------||-000000000----------||-000000000----------||-000000000----------|
  xxxxxxxxx             xxxxxxxxx             xxxxxxxxx             xxxxxxxxx






|--------------------||--------------------||--------------------||--------------------|
|--------------------||--------------------||--------------------||--------------------|
|--------------------||--------------------||--------------------||--------------------|
|--------------------||--------------------||--------------------||--------------------|
|--------------------||--------------------||--------------------||--------------------|
|-18-18-15~-17-0-0-0-||-18-18-15~-17-0-0-0-||-18-18-15~-17-0-0-0-||-18-18-15~-17-17/12-|
|
|
|
|--------------------||--------------------||--------------------||--------------------|
|--------------------||--------------------||--------------------||--------------------|
|--------------------||--------------------||--------------------||--------------------|
|--------------------||--------------------||--------------------||--------------------|
|--------------------||--------------------||--------------------||--------------------|
|-000000000----------||-000000000----------||-000000000----------||-000000000----------|
  xxxxxxxxx             xxxxxxxxx             xxxxxxxxx             xxxxxxxxx




========================================================================================
========================================================================================

Interlude

|---------------------------------||---------------------------------|
|---------------------------------||---------------------------------|
|---------------------------------||---------------------------------|
|-6p0h3p0---------5p0-------------||-6p0h3p0---------5p0-------------|
|---------------------------------||---------------------------------|
|---------0-0-0-0-----0-0-0-0-0-0-||---------0-0-0-0-----0-0-0-0-0-0-|
|         x x x x     x x x x x x            x x x x     x x x x x x
|
|
|---------------------------------||---------------------------------|
|---------------------------------||---------------------------------|
|---------------------------------||---------------------------------|
|---------------------------------||---------------------------------|
|---------------------------------||---------------------------------|
|---------------------------------||---------------------------------|





|---------------------------------||---------------------------------|
|---------------------------------||---------------------------------|
|---------------------------------||---------------------------------|
|-6p0h3p0---------5p0-------------||-6p0h3p0---------5p0-------------|
|---------------------------------||---------------------------------|
|---------0-0-0-0-----0-0-0-0-0-0-||---------0-0-0-0-----0-0-0-0-0-0-|
|         x x x x     x x x x x x            x x x x     x x x x x x
|
|
|---------------------------------||---------------------------------|
|---------------------------------||---------------------------------|
|---------------------------------||---------------------------------|
|---------------------------------||---------------------------------|
|---------------------------------||---------------------------------|
|---------------------------------||---------------------------------|




===========================================================================
===========================================================================


|---------------------------------||---------------------------------|
|---------------------------------||---------------------------------|
|---------------------------------||---------------------------------|
|-6p0h3p0---------5p0-------------||-6p0h3p0---------5p0-------------|
|---------------------------------||---------------------------------|
|---------0-0-0-0-----0-0-0-0-0-0-||---------0-0-0-0-----0-0-0-0-0-0-|
|         x x x x     x x x x x x            x x x x     x x x x x x
|
|
|---------------------------------||---------------------------------|
|---------------------------------||---------------------------------|
|---------------------------------||---------------------------------|
|-6p0h3p0---------5p0-------------||-6p0h3p0---------5p0-------------|
|---------------------------------||---------------------------------|
|---------0-0-0-0-----0-0-0-0-0-0-||---------0-0-0-0-----0-0-0-0-0-0-|
          x x x x     x x x x x x            x x x x     x x x x x x





|---------------------------------||---------------------------------|
|---------------------------------||---------------------------------|
|---------------------------------||---------------------------------|
|-6p0h3p0---------5p0-------------||-6p0h3p0---------5p0-------------|
|---------------------------------||---------------------------------|
|---------0-0-0-0-----0-0-0-0-0-0-||---------0-0-0-0-----0-0-0-0-0-0-|
|         x x x x     x x x x x x            x x x x     x x x x x x
|
|
|---------------------------------||---------------------------------|
|---------------------------------||---------------------------------|
|---------------------------------||---------------------------------|
|-6p0h3p0---------5p0-------------||-6p0h3p0---------5p0-------------|
|---------------------------------||---------------------------------|
|---------0-0-0-0-----0-0-0-0-0-0-||---------0-0-0-0-----0-0-0-0-0-0-|
          x x x x     x x x x x x            x x x x     x x x x x x





|---------------------------------||---------------------------------|
|---------------------------------||---------------------------------|
|---------------------------------||---------------------------------|
|-6p0h3p0---------5p0-------------||-6p0h3p0---------5p0-------------|
|---------------------------------||---------------------------------|
|---------0-0-0-0-----0-0-0-0-0-0-||---------0-0-0-0-----0-0-0-0-0-0-|
|         x x x x     x x x x x x            x x x x     x x x x x x
|
|
|---------------------------------||---------------------------------|
|---------------------------------||---------------------------------|
|---------------------------------||---------------------------------|
|-6p0h3p0---------5p0-------------||-6p0h3p0---------5p0-------------|
|---------------------------------||---------------------------------|
|---------0-0-0-0-----0-0-0-0-0-0-||---------0-0-0-0-----0-0-0-0-0-0-|
          x x x x     x x x x x x            x x x x     x x x x x x





|---------------------------------||---------------------------------|
|---------------------------------||---------------------------------|
|---------------------------------||---------------------------------|
|-6p0h3p0---------5p0-------------||-6p0h3p0---------5p0-------------|
|---------------------------------||---------------------------------|
|---------0-0-0-0-----0-0-0-0-0-0-||---------0-0-0-0-----0-0-0-0-0-0-|
|         x x x x     x x x x x x            x x x x     x x x x x x
|
|
|---------------------------------||---------------------------------|
|---------------------------------||---------------------------------|
|---------------------------------||---------------------------------|
|-6p0h3p0---------5p0-------------||-6p0h3p0---------5p0-------------|
|---------------------------------||---------------------------------|
|---------0-0-0-0-----0-0-0-0-0-0-||---------0-0-0-0-----0-0-0-0-0-0-|
          x x x x     x x x x x x            x x x x     x x x x x x



=========================================================================
=========================================================================


|------------------------------------||------------------------------------|
|------------------------------------||------------------------------------|
|------------------------------------||------------------------------------|
|-18p0h15p0-0-0-0-0-17p0-0-0-0-0-0-0-||-18p0h15p0-0-0-0-0-17p0-0-0-0-0-0-0-|
|------------------------------------||------------------------------------|
|------------------------------------||------------------------------------|
|           x x x x      x x x x x x              x x x x      x x x x x x
|
|
|---------------------------------||---------------------------------|
|---------------------------------||---------------------------------|
|---------------------------------||---------------------------------|
|-6p0h3p0---------5p0-------------||-6p0h3p0---------5p0-------------|
|---------------------------------||---------------------------------|
|---------0-0-0-0-----0-0-0-0-0-0-||---------0-0-0-0-----0-0-0-0-0-0-|
          x x x x     x x x x x x            x x x x     x x x x x x



=========================================================================
=========================================================================




|------------------------------------||------------------------------------|
|------------------------------------||------------------------------------|
|------------------------------------||------------------------------------|
|-18p0h15p0-0-0-0-0-17p0-0-0-0-0-0-0-||-18p0h15p0-0-0-0-0-17p0-0-0-0-0-0-0-|
|------------------------------------||------------------------------------|
|------------------------------------||------------------------------------|
|           x x x x      x x x x x x              x x x x      x x x x x x
|
|
|---------------------------------||---------------------------------|
|---------------------------------||---------------------------------|
|---------------------------------||---------------------------------|
|-6p0h3p0---------5p0-------------||-6p0h3p0---------5p0-------------|
|---------------------------------||---------------------------------|
|---------0-0-0-0-----0-0-0-0-0-0-||---------0-0-0-0-----0-0-0-0-0-0-|
          x x x x     x x x x x x            x x x x     x x x x x x



=========================================================================
=========================================================================



|------------------------------------||------------------------------------|
|------------------------------------||------------------------------------|
|------------------------------------||------------------------------------|
|-18p0h15p0-0-0-0-0-17p0-0-0-0-0-0-0-||-18p0h15p0-0-0-0-0-17p0-0-0-0-0-0-0-|
|------------------------------------||------------------------------------|
|------------------------------------||------------------------------------|
|           x x x x      x x x x x x              x x x x      x x x x x x
|
|
|---------------------------------||---------------------------------|
|---------------------------------||---------------------------------|
|---------------------------------||---------------------------------|
|-6p0h3p0---------5p0-------------||-6p0h3p0---------5p0-------------|
|---------------------------------||---------------------------------|
|---------0-0-0-0-----0-0-0-0-0-0-||---------0-0-0-0-----0-0-0-0-0-0-|
          x x x x     x x x x x x            x x x x     x x x x x x



=========================================================================
=========================================================================


|------------------------------------||------------------------------------|
|------------------------------------||------------------------------------|
|------------------------------------||------------------------------------|
|-18p0h15p0-0-0-0-0-17p0-0-0-0-0-0-0-||-18p0h15p0-0-0-0-0-17p0-0-0-0-0-0-0-|
|------------------------------------||------------------------------------|
|------------------------------------||------------------------------------|
|           x x x x      x x x x x x              x x x x      x x x x x x
|
|
|---------------------------------||---------------------------------|
|---------------------------------||---------------------------------|
|---------------------------------||---------------------------------|
|-6p0h3p0---------5p0-------------||-6p0h3p0---------5p0-------------|
|---------------------------------||---------------------------------|
|---------0-0-0-0-----0-0-0-0-0-0-||---------0-0-0-0-----0-0-0-0-0-0-|
          x x x x     x x x x x x            x x x x     x x x x x x



=========================================================================
=========================================================================



|------------------------------------||------------------------------------|
|------------------------------------||------------------------------------|
|------------------------------------||------------------------------------|
|-18p0h15p0-0-0-0-0-17p0-0-0-0-0-0-0-||-18p0h15p0-0-0-0-0-17p0-0-0-0-0-0-0-|
|------------------------------------||------------------------------------|
|------------------------------------||------------------------------------|
|           x x x x      x x x x x x              x x x x      x x x x x x
|
|
|---------------------------------||---------------------------------|
|---------------------------------||---------------------------------|
|---------------------------------||---------------------------------|
|-6p0h3p0---------5p0-------------||-6p0h3p0---------5p0-------------|
|---------------------------------||---------------------------------|
|---------0-0-0-0-----0-0-0-0-0-0-||---------0-0-0-0-----0-0-0-0-0-0-|
          x x x x     x x x x x x            x x x x     x x x x x x



=========================================================================
=========================================================================



|------------------------------------||------------------------------------|
|------------------------------------||------------------------------------|
|------------------------------------||------------------------------------|
|-18p0h15p0-0-0-0-0-17p0-0-0-0-0-0-0-||-18p0h15p0-0-0-0-0-17p0-0-0-0-0-0-0-|
|------------------------------------||------------------------------------|
|------------------------------------||------------------------------------|
|           x x x x      x x x x x x              x x x x      x x x x x x
|
|
|---------------------------------||---------------------------------|
|---------------------------------||---------------------------------|
|---------------------------------||---------------------------------|
|-6p0h3p0---------5p0-------------||-6p0h3p0---------5p0-------------|
|---------------------------------||---------------------------------|
|---------0-0-0-0-----0-0-0-0-0-0-||---------0-0-0-0-----0-0-0-0-0-0-|
          x x x x     x x x x x x            x x x x     x x x x x x



========================================================================
========================================================================


|------------------||------------------||------------------||------------------|
|------------------||------------------||------------------||------------------|
|------------------||------------------||------------------||------------------|
|------------------||------------------||------------------||------------------|
|------------------||------------------||------------------||------------------|
|-000000000--------||-000000000--------||-000000000--------||-000000000--------|
| xxxxxxxxx           xxxxxxxxx           xxxxxxxxx           xxxxxxxxx
|
|
|------------------||------------------||------------------||------------------|
|------------------||------------------||------------------||------------------|
|------------------||------------------||------------------||------------------|
|------------------||------------------||------------------||------------------|
|------------------||------------------||------------------||------------------|
|-0000000000000000-||-0000000000000000-||-0000000000000000-||-0000000000000000-|
  xxxxxxxxxxxxxxxx    xxxxxxxxxxxxxxxx    xxxxxxxxxxxxxxxx    xxxxxxxxxxxxxxxx


========================================================================
========================================================================


|------------------||------------------||------------------||------------------|
|------------------||------------------||------------------||------------------|
|------------------||------------------||------------------||------------------|
|------------------||------------------||------------------||------------------|
|------------------||------------------||------------------||------------------|
|-000000000--------||-000000000--------||-000000000--------||-0000000033333333-|
| xxxxxxxxx           xxxxxxxxx           xxxxxxxxx           xxxxxxxxxxxxxxxx
|
|
|------------------||------------------||------------------||------------------|
|------------------||------------------||------------------||------------------|
|------------------||------------------||------------------||------------------|
|------------------||------------------||------------------||------------------|
|------------------||------------------||------------------||------------------|
|-000000000--------||-000000000--------||-000000000--------||-0000000033333333-|
  xxxxxxxxx           xxxxxxxxx           xxxxxxxxx           xxxxxxxxxxxxxxxx





|------------------||------------------||------------------||------------------|
|------------------||------------------||------------------||------------------|
|------------------||------------------||------------------||------------------|
|------------------||------------------||------------------||------------------|
|------------------||------------------||------------------||------------------|
|-000000000--------||-000000000--------||-000000000--------||-0000000033333333-|
| xxxxxxxxx           xxxxxxxxx           xxxxxxxxx           xxxxxxxxxxxxxxxx
|
|
|------------------||------------------||------------------||------------------|
|------------------||------------------||------------------||------------------|
|------------------||------------------||------------------||------------------|
|------------------||------------------||------------------||------------------|
|------------------||------------------||------------------||------------------|
|-000000000--------||-000000000--------||-000000000--------||-000000000--------|
  xxxxxxxxx           xxxxxxxxx           xxxxxxxxx           xxxxxxxxx



===============================================================================
===============================================================================

Pre Chorus
|-----------------||-----------------||-----------------||-----------------|
|-----------------||-----------------||-----------------||-----------------|
|-13~~~~10~~~~12~~||~~~~~~~~~~~~~~~~~||-13~~~~10~~~~12~~||~~~~~~~~~~~~~~~~~|
|-----------------||-----------------||-----------------||-----------------|
|-----------------||-----------------||-----------------||-----------------|
|-----------------||-----------------||-----------------||-----------------|
|
|
|clean
|-----------------||-----------------||-----------------||-----------------|
|-----0-----0-----||-----0-----0-----||-----0-----0-----||-----0-----0-----|
|---0-----0-----0-||---0-----0-----0-||---0-----0-----0-||---0-----0-----0-|
|-6-----3-----5---||-6-----3-----5---||-6-----3-----5---||-6-----3-----5---|
|-----------------||-----------------||-----------------||-----------------|
|-----------------||-----------------||-----------------||-----------------|





|-----------------||-----------------||-----------------||-----------------|
|-----------------||-----------------||-----------------||-----------------|
|-----------------||-----------------||-----------------||-----------------|
|-12~~~~10~~~~9/5~||~~~~~~~~~~~~~~~~~||-12~~~~10~~~~9/5~||~~~~~~~~~~~~~~~~~|
|-----------------||-----------------||-----------------||-----------------|
|-----------------||-----------------||-----------------||-----------------|
|
|
|clean
|-----------------||-----------------||-----------------||-----------------|
|-----0-----0-----||-----0-----0-----||-----0-----0-----||-----0-----0-----|
|---0-----0-----0-||---0-----0-----0-||---0-----0-----0-||---0-----0-----0-|
|-6-----3-----5---||-6-----3-----5---||-6-----3-----5---||-6-----3-----5---|
|-----------------||-----------------||-----------------||-----------------|
|-----------------||-----------------||-----------------||-----------------|






|-----------------||-----------------||-----------------||-----------------|
|-----------------||-----------------||-----------------||-----------------|
|-13~~~~10~~~~12~~||~~~~~~~~~~~~~~~~~||-13~~~~10~~~~12~~||~~~~~~~~~~~~~~~~~|
|-----------------||-----------------||-----------------||-----------------|
|-----------------||-----------------||-----------------||-----------------|
|-----------------||-----------------||-----------------||-----------------|
|
|
|clean
|-----------------||-----------------||-----------------||-----------------|
|-----0-----0-----||-----0-----0-----||-----0-----0-----||-----0-----0-----|
|---0-----0-----0-||---0-----0-----0-||---0-----0-----0-||---0-----0-----0-|
|-6-----3-----5---||-6-----3-----5---||-6-----3-----5---||-6-----3-----5---|
|-----------------||-----------------||-----------------||-----------------|
|-----------------||-----------------||-----------------||-----------------|





|-----------------||-----------------||-----------------||-----------------|
|-----------------||-----------------||-----------------||-----------------|
|-----------------||-----------------||-----------------||-----------------|
|-12~~~~10~~~~9/5~||~~~~~~~~~~~~~~~~~||-12~~~~10~~~~9/5~||~~~~~~~~~~~~~~~~~|
|-----------------||-----------------||-----------------||-----------------|
|-----------------||-----------------||-----------------||-----------------|
|
|
|clean
|-----------------||-----------------||-----------------||-----------------|
|-----0-----0-----||-----0-----0-----||-----0-----0-----||-----0-----0-----|
|---0-----0-----0-||---0-----0-----0-||---0-----0-----0-||---0-----0-----0-|
|-6-----3-----5---||-6-----3-----5---||-6-----3-----5---||-6-----3-----5---|
|-----------------||-----------------||-----------------||-----------------|
|-----------------||-----------------||-----------------||-----------------|





==================================================================================
==================================================================================



Chorus
|--------------------||--------------------||--------------------||--------------------|
|--------------------||--------------------||--------------------||--------------------|
|--------------------||--------------------||--------------------||--------------------|
|--------------------||--------------------||--------------------||--------------------|
|--------------------||--------------------||--------------------||--------------------|
|-18-18-15~-17-0-0-0-||-18-18-15~-17-0-0-0-||-18-18-15~-17-0-0-0-||-18-18-15~-17-17/12-|
|
|
|
|--------------------||--------------------||--------------------||--------------------|
|--------------------||--------------------||--------------------||--------------------|
|--------------------||--------------------||--------------------||--------------------|
|--------------------||--------------------||--------------------||--------------------|
|--------------------||--------------------||--------------------||--------------------|
|-000000000----------||-000000000----------||-000000000----------||-000000000----------|
  xxxxxxxxx             xxxxxxxxx             xxxxxxxxx             xxxxxxxxx






|--------------------||--------------------||--------------------||--------------------|
|--------------------||--------------------||--------------------||--------------------|
|--------------------||--------------------||--------------------||--------------------|
|--------------------||--------------------||--------------------||--------------------|
|--------------------||--------------------||--------------------||--------------------|
|-18-18-15~-17-0-0-0-||-18-18-15~-17-0-0-0-||-18-18-15~-17-0-0-0-||-18-18-15~-17-17/12-|
|
|
|
|--------------------||--------------------||--------------------||--------------------|
|--------------------||--------------------||--------------------||--------------------|
|--------------------||--------------------||--------------------||--------------------|
|--------------------||--------------------||--------------------||--------------------|
|--------------------||--------------------||--------------------||--------------------|
|-000000000----------||-000000000----------||-000000000----------||-000000000----------|
  xxxxxxxxx             xxxxxxxxx             xxxxxxxxx             xxxxxxxxx




========================================================================================
========================================================================================


Coda

|-------------------||-------------------||-------------------||-------------------|
|-------------------||-------------------||-------------------||-------------------|
|-------------------||-------------------||-------------------||-------------------|
|-0-0---------------||-0-0---------------||-0-0---------------||-0-0---------------|
|-0-0---------------||-0-0---------------||-0-0---------------||-0-0---------------|
|-0-0---------------||-0-0---------------||-0-0---------------||-0-0---------------|
| x x                  x x                  x x                  x x
|
|
|-------------------||-------------------||-------------------||-------------------|
|-------------------||-------------------||-------------------||-------------------|
|-------------------||-------------------||-------------------||-------------------|
|-------------------||-------------------||-------------------||-------------------|
|-------------------||-------------------||-------------------||-------------------|
|-------------------||-------------------||-------------------||-------------------|




======================================================================================
======================================================================================




|-------------------||-------------------|
|-------------------||-------------------|
|-------------------||-------------------|
|-0-0---------------||-0-0---------------|
|-0-0---------------||-0-0---------------|
|-0-0---------------||-0-0---------------|
| x x                  x x
|
|
|---------------------------||---------------------------|
|---------------------------||---------------------------|
|---------------------------||---------------------------|
|---------------------------||---------------------------|
|---------------------------||---------------------------|
|-0-12-12~p10-12p10-12~-12~-||-0-12-12~p10-12p10-12~-12~-|





|-------------------||-------------------|
|-------------------||-------------------|
|-------------------||-------------------|
|-0-0---------------||-0-0---------------|
|-0-0---------------||-0-0---------------|
|-0-0---------------||-0-0---------------|
| x x                  x x
|
|
|---------------------------||---------------------------|
|---------------------------||---------------------------|
|---------------------------||---------------------------|
|---------------------------||---------------------------|
|---------------------------||---------------------10----|
|-0-12-12~p10-12p10-12~-12~-||-0-12-12~p10-12p10-12--12~-|




==============================================================
==============================================================





|---------------------------||---------------------------|
|---------------------------||---------------------------|
|---------------------------||---------------------------|
|---------------------------||---------------------------|
|---------------------------||---------------------------|
|-0-12-12~p10-12p10-12~-12~-||-0-12-12~p10-12p10-12~-12~-|
|
|
|
|---------------------------||---------------------------|
|---------------------------||---------------------------|
|---------------------------||---------------------------|
|---------------------------||---------------------------|
|---------------------------||---------------------------|
|-0-12-12~p10-12p10-12~-12~-||-0-12-12~p10-12p10-12~-12~-|







|---------------------------||---------------------------|
|---------------------------||---------------------------|
|---------------------------||---------------------------|
|---------------------------||---------------------------|
|---------------------------||---------------------10----|
|-0-12-12~p10-12p10-12~-12~-||-0-12-12~p10-12p10-12--12~-|
|
|
|
|---------------------------||---------------------------|
|---------------------------||---------------------------|
|---------------------------||---------------------------|
|---------------------------||---------------------------|
|---------------------------||---------------------10----|
|-0-12-12~p10-12p10-12~-12~-||-0-12-12~p10-12p10-12--12~-|



==============================================================



|---------------------------||---------------------------|
|---------------------------||---------------------------|
|---------------------------||---------------------------|
|---------------------------||---------------------------|
|---------------------------||---------------------------|
|-0-12-12~p10-12p10-12~-12~-||-0-12-12~p10-12p10-12~-12~-|
|
|
|
|---------------------------||---------------------------|
|---------------------------||---------------------------|
|---------------------------||---------------------------|
|---------------------------||---------------------------|
|---------------------------||---------------------------|
|-0-12-12~p10-12p10-12~-12~-||-0-12-12~p10-12p10-12~-12~-|






|---------------------------||---------------------------|
|---------------------------||---------------------------|
|---------------------------||---------------------------|
|---------------------------||---------------------------|
|---------------------------||---------------------10----|
|-0-12-12~p10-12p10-12~-12~-||-0-12-12~p10-12p10-12--12~-|
|
|
|
|---------------------------||---------------------------|
|---------------------------||---------------------------|
|---------------------------||---------------------------|
|---------------------------||---------------------------|
|---------------------------||---------------------10----|
|-0-12-12~p10-12p10-12~-12~-||-0-12-12~p10-12p10-12--12~-|



============================================================



|---------------------------||---------------------------|
|---------------------------||---------------------------|
|---------------------------||---------------------------|
|---------------------------||---------------------------|
|---------------------------||---------------------------|
|-0-12-12~p10-12p10-12~-12~-||-0-12-12~p10-12p10-12~-12~-|
|
|
|
|---------------------------||---------------------------|
|---------------------------||---------------------------|
|---------------------------||---------------------------|
|---------------------------||---------------------------|
|---------------------------||---------------------------|
|-0-12-12~p10-12p10-12~-12~-||-0-12-12~p10-12p10-12~-12~-|






|---------------------------||---------------------------|
|---------------------------||---------------------------|
|---------------------------||---------------------------|
|---------------------------||---------------------------|
|---------------------------||---------------------10----|
|-0-12-12~p10-12p10-12~-12~-||-0-12-12~p10-12p10-12--12~-|
|
|
|
|---------------------------||---------------------------|
|---------------------------||---------------------------|
|---------------------------||---------------------------|
|---------------------------||---------------------------|
|---------------------------||---------------------10----|
|-0-12-12~p10-12p10-12~-12~-||-0-12-12~p10-12p10-12--12~-|



===============================================================



|---------------------------||---------------------------|
|---------------------------||---------------------------|
|---------------------------||---------------------------|
|---------------------------||---------------------------|
|---------------------------||---------------------------|
|-0-12-12~p10-12p10-12~-12~-||-0-12-12~p10-12p10-12~-12~-|
|
|
|
|---------------------------||---------------------------|
|---------------------------||---------------------------|
|---------------------------||---------------------------|
|---------------------------||---------------------------|
|---------------------------||---------------------------|
|-0-12-12~p10-12p10-12~-12~-||-0-12-12~p10-12p10-12~-12~-|







|---------------------------||---------------------------|
|---------------------------||---------------------------|
|---------------------------||---------------------------|
|---------------------------||---------------------------|
|---------------------------||---------------------10----|
|-0-12-12~p10-12p10-12~-12~-||-0-12-12~p10-12p10-12--12~-|
|
|
|
|---------------------------||---------------------------|
|---------------------------||---------------------------|
|---------------------------||---------------------------|
|---------------------------||---------------------------|
|---------------------------||---------------------10----|
|-0-12-12~p10-12p10-12~-12~-||-0-12-12~p10-12p10-12--12~-|




==============================================================
==============================================================


Ending

|----------------|
|----------------|
|----------------|
|----------------|
|----------------|
|-0--------------|
|
|
|
|----------------|
|----------------|
|----------------|
|----------------|
|----------------|
|-0--------------|


Thats It, Have Fun!
Tabbed By Thrash-Master94
Please Rate And Comment
comments
We did not receive enough feedback on this tab! Please rate:
print report bad tab
1 2 3 4 5
I want to post or [tab]
guest
You may want to rate the tab now too:
select rating
Please do not post tabs as comments. Select "correction" instead!