Oops, an error
Loading. Please wait.

Garage Inc Bass Tab

4,419 views 6 this week
no commentswrite comment
1 2 3 4 5
worth learning
x 2
add to favorites launch autoscroll
font size
0
reset
Autoscroll
+/-
esc
set tempo
stop
WARNING: You are trying to view
                                    content from Ultimate-Guitar.com
                                    in an unauthorized application,
                                    which is prohibited.

                                    Please use an official Ultimate
                                    Guitar Tabs application for iPhone,
                                    iPad or Android to access legitimate
                                    chords, guitar, bass, and drum tabs
                                    from Ultimate-Guitar.com database.

                                    Type "ultimate guitar tabs" in Apple
                                    App Store's or Android Market's
                                    search to find the application.
Metallica
Garage inc. disc 1 (new recordings '98)

Free speech for the dumb

E---------------------------------------------------|
B---------------------------------------------------|
F#--------------------------------------------------|
C#-0000000000000-3----------------------------------|

Well repeat that for the rest of the song. Be sure to
Put a strong accent on the 3!

It's electric
Gb--------------------------------------------------------|
Db--------------------------------------------------------|
Ab------------0-----0-----0-2-2---------0-----0-----0-2-2-|
Eb----2-2-2-2---2-2---2-2-------2-2-2-2---2-2---2-2-------|
       Main riff and Chorus

Gb-----------------------|
Db--------x-x-------x-x--|
Ab--------x-x--0----x-x--|
Eb---0-2--x-x----2--x-x--|
       Verse
Gb----------------------------------------|
Db----------------------------------------|
Ab----------------------------------------|
Eb---7-7-7-7-6-6-6-6-5-5-5-5-4-4-4-4------|
             Mid-solo
Gb------------------------|
Db------------------------|
Ab--2--2------------------|
Eb--------2--0--0-1-2---2-|


Sabbra cadabra

Tune down 2 whole step

Intro:
:--------------------------------|----------------------------------|
:------------Guitar--------------|----------------------------------|
:--------------x7----------------|----------------------------------|
:--------------------------------|-----------------------------4-/|-|
          --3--           --3--            --3--           --3------|
|--------------------------------|----------------------------------|
|--------------------------------|----------------------------------|
|--------------------------------|----------------------------------|
|-9---9---9-9-9---9---9---9-9-9--|-9---9---9-9-9---9---9---9-9-8----|

|--------------------------------|--------------------------------|
|--------------------------------|--------------------------------|
|--------------------------------|--------------------------------|
|-7---7---7-7-7---7---7---7-7-7--|-7---7---7-7-7---7---7---7-7-6--|

|--------------------------------|--------------------------------|
|--------------------------------|--------------------------------|
|--------------------------------|--------------------------------|
|-6---6---6-6-6---6---6---6-6-6--|-6---6---6-6-6---6---6---6-6-5--|

|--------------------------------|--------------------------------|
|--------------------------------|--------------------------------|
|--------------------------------|--------------------------------|
|-4---4---4-4-4---4---4---4-4-4--|-4---4---4-4-4---4---4---4/7-8--|

|--------------------------------|--------------------------------|
|--------------------------------|--------------------------------|
|--------------------------------|--------------------------------|
|-9---9---9-------9---9---7-8-9--|11--11-11-11-11-11--11--9-10-11-|

|--------------------------------|--------------------------------|
|--------------------------------|-----------/11---9---7----------|
|--------------------------------|-9---9---9---------------9---7--|
|12--12-12-12-12-12--12-12-11-12-|--------------------------------|

|--------------------------------|--------------------------------|
|--------------------------------|--------------------------------|
|--------------------------------|--------------------------------|
|-9-------9---9---9---9---7-8-9--|11--11--11--11--11--11--9-10-11-|

|--------------------------------|----------------------------------|
|--------------------------------|----------------------------------|
|--------------------------------|-9---9---9-/10---9----------------|
|12--12--12--12--12-11--12--12--|--------------------12---9---------|

|--------------------------------|--------------------------------|
|*-------------------------------|--------------------------------|
|*2---4-------4-------4---4-2----|-2---4-------4-------4---4------|
|-----------------------------4--|--------------------------------|

                                  1.
|--------------------------------|--------------------------------|
|->----->----->--->----->----->--|-------------------------------*|
|-2-----1-----2---1--------------|-2---4-------4-------4---4-2---*|
|-----------------------4-----2--|-----------------------------4--|

                                  2.
                                 |--------------------------------:
                                 |-----------------------------2--:
                                 |-4---4-------4---4---2---3h4----:
                                 |--------------------------------:

Verses 1, 2, 3:
:--------------------------------|--------------------------------|
:-----------------------------2--|-----------------------------2--|
:-4---4-------4---4---2---3h4----|-4---4-------4---4---2---3h4----|
:--------------------------------|--------------------------------|

|--------------------------------|--------------------------------|
|-----------------------------2--|-----------------------------2--|
|-2---2-------2---2---2---3h4----|-4---4-------4---4---2---3h4----|
|--------------------------------|--------------------------------|

|--------------------------------|--------------------------------|
|-----------------------------2--|-----------------------------2--|
|-4---4-------4---4---2---3h4----|-4---4-------4---4---2---3h4----|
|--------------------------------|--------------------------------|

|--------------------------------|--------------------------------:
|-----------------------------2--|--------------------------------:
|-2---2-------2---2---2---3h4----|-4---4-------4---4---4---2------:
|--------------------------------|-----------------------------4--:

Chorus:
:--------------------------------|--------------------------------|
:-----------------4---4----------|-4---2-----------2---4---4---4--|
:--------------------------------|---------4---2------------------|
:-2-------2---2-----------2---2--|--------------------------------|

|--------------------------------|--------------------------------|
|-6---6-----------6--------------|-6-------4----------------------|
|--------------------------------|-----------------7-------6------|
|---------4---4-------4---4---4--|-4------------------------------|

|--------------------------------|--------------------------------|
|-----------------------------2--|--------------------------------|
|-2---4-------4-------2---3h4----|-2---4-------4-------4---4------|
|--------------------------------|--------------------------------|

|--------------------------------|--------------------------------|
|->----->----->--->--------------|--------------------------------|
|-2-----1-----2---1----->----->--|-4---4-------4-------4---2------|
|-----------------------4-----2--|-----------------------------4--|

          (third time go to Coda)* <-- from here
|--------------------------------|--------------------------------|
|-----------------4---4----------|-----------------4--------------|
|--------------------------------|--------------------------------|
|-2-------2---2-----------2---2--|-2-------2---2---2-------2--/---|

                                  1.
|--------------------------------|----------------------------------|
|--------------------------------|----------------------------------|
|-----------------6--------------|-6-----------6--------------------|
|-4-------4---4---4--------------|-4-----------4-------4---4--------|

|--------------------------------|--------------------------------|
|-----------------------------2--|--------------------------------|
|-2---4-------4-------2---3h4----|-2---4-------4-------4---4------|
|--------------------------------|--------------------------------|

|--------------------------------|--------------------------------|
|->----->----->--->--------------|-----------------------------2--|
|-2-----1-----2---1----->----->--|-4---4-------4-------2---3h4----|
|-----------------------4-----2--|--------------------------------|

|--------------------------------|--------------------------------|
|--------------------------------|--------------------------------|
|-2---4-------4-------4---4-2----|-2---4-------4-------4---4------|
|-----------------------------4--|--------------------------------|

|--------------------------------|--------------------------------|
|->----->----->--->--------------|-------------------------------*|
|-2-----1-----2---1----->----->--|-4---4-------4---------------2-*|
|-----------------------4-----2--|---------------------2---4------|

Repeat Verse for 2nd verse, then chorus
                                  2.
                                 |--------------------------------:
                                 |-6-------4----------------------:
                                 |-----------------7-------6------:
                                 |-4------------------------------:

 Interlude (after 2nd chorus):
:--------------------------------|--------------------------------|
:--------------------------------|--------------------------------|
:-4------------------------------|--------------------------------|
:--------------------------------|--------------------------------|

|--------------------------------|----------------------------------|
|--------------------------------|----------------------------------|
|(4)----------------------------|-----------------------------------|
|--------------------------------|----------------------------------|

|--------------------------------|--------------------------------|
|--------------------------------|--------------------------------|
|-4-----------4-----------4------|--------------------------------|
|--------------------------------|--------------------------------|

|--------------------------------|----------------------------------|
|--------------------------------|----------------------------------|
|-4-----------4-----------4------|--------(4)-----------------------|
|--------------------------------|----------------------------------|

|--------------------------------|--------------------------------|
|*-------------------------------|--------------------------------|
|*4-----------4-----------4------|-------------------------2---3--|
|--------------------------------|--------------------------------|

                                  1. 2.
|--------------------------------|----------------------------------|
|--------------------------------|---------------------6---4--------|
|-4-----------4-----------4------|-------------------------2-73-----|
|--------------------------------|---------------------4------------|

                                  3.
                                 |--------------------------------|
                                 |--------------------------------|
                                 |-------------------------9-h11-/|
                                 |--------------------------------|

|--------------------------------|--------------------------------|
|->----------->----------->------|->----------->----------->------|
|16----------14----------11------|-9-----------7-----------6------|
|--------------------------------|--------------------------------|

|--------------------------------|----------------------------------|
|->--------------->--------------|->--------------->----------------|
|16--------------14--------------|11---------------9----------------|
|--------------------------------|----------------------------------|

Half Time 1. 2. 4.
|--------------------------------|--------------------------------|
|*-------------------------------|-------------------------------*|
|*5h7-----7---7---5h7------------|-5h7-----7-------5---5---------*|
|-----0---------------0-0-3-2-2--|-----0-0---5h7-0-------7-2-3-2--|

                                  3.
                                 |--------------------------------|
                                 |-----------7h9p7---------4-5-4-*|
                                 |-5h7-----7-------5---5---------*|
                                 |-----0-0---------------7--------|

|--------------------------------|--------------------------------|
|--------------------------------|--------------------------------|
|-7-------7----------------------|-5---5---5---5------------------|
|-0-------0-------3---3---3-3h5--|-----------------5-------7-5-3--|

|--------------------------------|--------------------------------|
|--------------------------------|--------------------------------|
|-5h7-----7---7---5h7------------|-5h7-----7-------5---5----------|
|-----0---------------0-0-3-2-2--|-----0-0---5h7-0-------7-2-3-2--|

                                                 -----6-------------|
|--------------------------------|----------------------------------|
|--------------------------------|-------------5-7-7-7-7-7-7-5------|
|-7-------7----------------------|-5---5---5-7-----------------7----|
|-0-------0-------3---3---3-3h5--|----------------------------------|

|--------------------------------|--------------------------------|
|--------------------------------|--------------------------------|
|-5h7-----7---7---5h7------------|-5h7-----7-------5---5----------|
|-----0---------------0-0-3-2-2--|-----0-0---5h7-0-------7-2-3-2--|

                        ---6----------------------------------------|
|--------------------------------|----------------------------------|
|--------------------------------|----------------------------------|
|-------------7h10---------------|----------------------------------|
|-8---8---8-------7---7-7777775--|-3-3-3--3----3---5--555-555333----|

|--------------------------------|--------------------------------|
|--------------------------------|--------------------------------|
|-5h7-----7---7---5h7------------|-5h7-----7-------5---5----------|
|-----0---------------0-0-3-2-2--|-----0-0---5h7-0-------7-2-3-2--|

|--------------------------------|----------------------------------|
|--------------------------------|----------------------------------|
|---------7-10-7-----------------|----------------------------------|
|-8---8-8-------8--7-7-7-7-10-7-|-3--3-3--3--3-3--5-5-5-5-5-5-7-----|

|--------------------------------|--------------------------------|
|----------------------b5--------|--------------------------------|
|-5-7-----------5-7-5-7---7-5----|-5-7----------------------------|
|-------------7---------------7--|--------------------------------|

Fig. 1                                                    end Fig.1
:--------------------------------|--------------------------------:
:----------------------b5--------|--------------------------------:
:-5-7-----------5-7-5-7---7-5----|-5-7----------------------------:
:-------------7---------------7--|-----------------------------7--:

Repeat Fig.1 x 3

|--------------------------------|--------------------------------|
|----------------------b5--------|--------------------------------|
|-5-7-----------5-7-5-7---7-5----|-5-7-----------7---------5h7-5--|
|-------------7---------------7--|-------------------7------------|

|--------------------------------|--------------------------------|
|--------------------------------|--------------------------------|
|-7---7---5---5------------------|-7---7-7-5---5------------------|
|----------------b5-----5-3---3--|----------------b5-----5-3---3--|

|--------------------------------|--------------------------------|
|--------------------------------|--------------------------------|
|-7---7-7-5---5------------------|--------------------------------|
|----------------b5-----5-3---3--|-7-7-7-7-7-7-7-7-7-7-7-7-7------|

End Half Time

|--------------------------------|--------------------------------|
|--------------------------------|--------------------------------|
|--------------------------------|--------------------------------|
|-9---9---9-9-9---9---9---9-9-9--|-9---9---9-9-9---9---9---9-9-8--|

|--------------------------------|--------------------------------|
|--------------------------------|--------------------------------|
|--------------------------------|--------------------------------|
|-7---7---7-7-7---7---7---7-7-7--|-7---7---7-7-7---7---7---7-7-6--|

|--------------------------------|--------------------------------|
|--------------------------------|--------------------------------|
|--------------------------------|--------------------------------|
|-6---6---6-6-6---6---6---6-6-6--|-6---6---6-6-6---6---6---7-6-5--|

|--------------------------------|--------------------------------:
|--------------------------------|--------------------------------:
|--------------------------------|---------------------------2-3--:
|-4---4---4-4-4---4---4---4-4-4--|-4---4---4-4-4---4---4---4------:

3rd Verse
Chorus (until * to Coda)

Coda:
:--------------------------------|--------------------------------|
:--------------------------------|-----------------6---6---6------|
:--------------------------------|-----------------------------6--|
:-2-------2---2---4---4---5---5--|-4-------4----------------------|

|--------------------------------|--------------------------------|
|-6-------4-----------4----------|--------------------------------|
|-----------------7--------------|-2---4-------4-------4---4-2----|
|--------------------------------|-----------------------------4--|

|--------------------------------|--------------------------------|
|--------------------------------|->----->----->--->--------------|
|-2---4-------4-------4---4------|-2-----1-----2---1----->----->--|
|--------------------------------|-----------------------4-----2--|

|--------------------------------|--------------------------------|
|--------------------------------|-----------------------------2--|
|-4---4-------4-------4---4------|-2---4-------4-------4---2h4----|
|-----------------------------4--|--------------------------------|

|--------------------------------|--------------------------------|
|--------------------------------|->----->----->--->--------------|
|-2---4-------4-------4---4------|-2-----1-----2---1----->----->--|
|--------------------------------|-----------------------4-----2--|

|--------------------------------|----------------------------------|
|--------------------------------|----------------------------------|
|-4---4-------4-------4---4---2--|-4--------------1-----------------|
|--------------------------------|----------------------------------| End

turn the page

Tune Down 1/2 step

Intro:
Gb:--------------------------------------------------------------------|
Db:--------------------------------------------------------------------|
Ab:---7------7------7------7------7------7------7-5----5-5----5-5----5-|
Eb:-0------0------0------0------0------0-------------------------------|
                               On a long...

Gb:---------------------------------------------------------:
Db:---------------------------------------------------------:
Ab:-5----5h7---------------------------------5h7--------7---:
Eb:---------5----5-5------5------5-5-----5h7-----0--------0-: end Intro


Verse 1:
Gb:--------------------------------------------------------------------|
Db:--------------------------------------------------------------------|
Ab:--------7----------7----------7-----------7-7--5--5-3-5-5-5-5-3h4-5-|
Eb:-----0----0--0---0----0--0--0----0--0---0---------------------------|
But your thoughts will soon....

Gb:--------------------------------------------------------------------|
Db:-------------------------------7----------7-------------7-7------7--|
Ab:-5--5-5--5-5-5-5--5-5--5/7------------------------------------------|
Eb:---------------------------5-------5----5----3h4-5-5-5-------5-5----|
		      And you don't feel much like...

Gb:-------------------------------------------------------:
Db:-------------------------------------------------------:
Ab:-----5-7-----7----------5h7-7--7-7--7------7-7-7-7-7-7-:
Eb:-5-7-----0-------0--0-0-----0--0-0--0--0-0-------------: end Verse 1
					          Here I'am....

Chorus:
Gb:-------------------------------------------------- ------------------|
Db:-------------------------------------------------- ------------------|
Ab:-5---5--0-0-5-0-5-5-5h7------7--7-5-7-7---5h7-5h7- -5---5--0-0-5-7-5-|
Eb:------------------------0--0------------0--------- ------------------|
		       On the road...       There I'am...

Gb:--------------------------------------------------------------------|
Db:-----------------------------------7----7----------------------7----|
Ab:-5--5h7--------7---------7-7--5h7--5----5--0-5-0-5--5--5h7----------|
Eb:--------0-0--0-0-0-0-0-0-0-0-------------------------------5--------|

Gb:---------------------------------------------------------------------|
Db:---------------------------------------------------------------------|
Ab:-------------3---3---3-5--5-3-5--7-------7------7--7---7-7-----------|
Eb:-5-5--5-5--5-------5-------------0--0-0----0-0---0--0--0-0-0-0-0-0-0-|
	There I Go...        Turn the page

Gb:---------------:
Db:---------------:
Ab:---------------:
Eb:-0-0-0-0-0-3-2-: end Chorus
              As We

Verse 2:
Gb:---------------------------------------------------------------------|
Db:---------------------------------------------------------------------|
Ab:-----7-----------7-5h7---7-7---7--------7-7-5h7-5---5--0-5-0-5-5-5h7-|
Eb:-0-------0-0---0-------0---------0--0-0------------------------------|
    walking to this restaurant...

Gb:---------------------------------------------------------------------|
Db:---------------------------------------------------------------------|
Ab:-5--5--0-5-0-5-5-5h7-5--5-5-5--5-5-5--5-5-5-5h7----------------------|
Eb:------------------------------------------------5--5-5-5--5-5-5--5-5-|

Gb:------------------------------------- -------------------------------|
Db:------------------------------------- -------------------------------|
Ab:---------------------------------5-7- --------7-----------7p5h7------|
Eb:-5--5--5--5-5-5--5-5-5-5-5-5-5-7----- -0--0-0----0-0--0-0-------0--0-|
 		 To Explode........

Gb:---------------------------------------------------------------------|
Db:---------------------------------------------------------------------|
Ab:---7-7------------7--5/7-------7--7-7--------7--5/7-------7--7-------|
Eb:-0-----0-0-0--0-0-0-------0--0--------0--0-0--------0--0-------0-0-0-|
                 Yeah most time...

Gb:--------------------------------------------------------------------|
Db:-----------------------------------------------------------------7--|
Ab:---7--5h7-5-5-5--0-5-0-5-5-5-5-0-5--5-5-5--5-0-5-5--5-0-------------|
Eb:-0------------------------------------------------------5h7--5-5----|

Gb:---------------------------------------------------------------------|
Db:----------7-------------7--------------------------------------------|
Ab:------------------------------------7p5----------7---------7-5h7-----|
Eb:-5-5-5--5---5-5-5--5-5----5-5-5-5-5-----7p5-0--0-0--0-0--0-------0-0-|

Gb:-------------------------:
Db:---------------------5---:
Ab:---7--7----------7-5---7-:
Eb:-0-0--0--0-0-0-0---------: end Verse 2

Chorus 2:
Gb:--------------------------------------------------------------------|
Db:---------------------------------------------------5----------------|
Ab:-5---5--0-5--5-5-5--5h7----------7----7----7-7-7-7---7-5--5--5--0-0-|
Eb:--------------------------0-0--0-0------0---------------------------|

Gb:----------------------------------------- --------------------------|
Db:----------------------------------------- --------------------------|
Ab:-5-0-0-0-0--5h7--------------7----------- -----3--3-3----3-5-5--5-5-|
Eb:----------------5---5-5--5-5-5-5-5-5-5-5- -3-5---------5------------|

Gb:------------------------------------------------------------:
Db:------------------------------------------------------------:
Ab:-3-5-7---7----5-7-7-7-7-7--7-7-7---5-7--7-7-----7-7-7-7-5-7-: end 2°
Eb:-----0-----0---------------0-0-0------------0-0-------------: Chorus

Verse 3:
Gb:--------------------------------------------------------------------|
Db:--------------------------------------------------------------------|
Ab:-------7------------7-5h7---7-7-7-7---7-----7-5h7-5---5---0-5-0-5-5-|
Eb:-0-0-------0-0--0-0-------0---------0---0-0-------------------------|

Gb:--------------------------------------------------------------------|
Db:-7--7---------------------------------------------------------------|
Ab:-5--5--5-5--5-5--5-5-5-5-5-5-5-5-5h7--------------------------------|
Eb:-------------------------------------5--5--5--5-5-5--5-5-5--5--5-5--|

Gb:--------------------------------------------------------------------|
Db:-----------------------------------------------5--------------------|
Ab:---------------------------5-7-7---7-------------7-5h7-------7--7-7-|
Eb:-5-5--5-5--5-0-5-5-5-5-5-7-----0---0---0-0--0----------0---0-0------|

Gb:--------------------------------------------------------------------|
Db:--------------------------------------------------------------------|
Ab:-7-10--9------------------------------------------------------------|
Eb:----------0--0--0--0-0------0---------------0-0---------------------|
             Later in...       lie a wake in bed               with the

Gb:--------------------------------------------------------------------|
Db:--------------------------------------------------------------------|
Ab:-5---------------5-5------5---------------5-5-----------------------|
Eb:-------------------------------------------------------5------------|
echoes of the amplifiers  ringing in your head   you smoke the day's

Gb:--------------------------------------------------:
Db:--------------------------------------------------:
Ab:--------------------------------------------5h7---:
Eb:-5-5-------------5---------------5-5------------0-: end Verse 3
  last cigarette   remembring what she said....


Interlude:
Gb:--------------------------------------------------------------------|
Db:--------------------------------5-----------------------------------|
Ab:-5---5-5--5-3-5--5-5-5-5-3-5------7--5-7-7-7-7-7--5h7-5---5---0-5-5-|
Eb:-----------------------------0--------------------------------------|

Gb:---------------------------------------------------------------------|
Db:---------------------------------------------------------------------|
Ab:-5-5-5--5h7-------7---7-7-7-7-7--5h7-5---5--0-5--5-5-5-5-5-7----7--7-|
Eb:------------0-------0----------------------------------------0----0--|

Gb:-------------------------------------------------------------------:
Db:--------------------------------7-5--------------------------------:
Ab:-7-7-7------3--3-3-----3-5-5--5-----7-5-5h7-7-7-7-7-7-7-7-7-7-7-7-7:
Eb:--------3-5---------5----------------------------------------------:

Guitar Solo:
Gb:----------------------------- ------------------------------|
Db:----------------------------- --------5---------9-----------|
Ab:-5--5-5-5--0-5-0-5-5-5-5-3-5- -7--7-7---7-7-7-7-7-7-7-7-7-0-|
Eb:----------------------------- -0----------------------------|

Gb:----------------------------- ------------------------------|
Db:----------------------------- --------5---------7-----------|
Ab:-5-555-5-5-0-5-0-5-5-5-5-3-5- -7--7-7---7-7-7-7-7-7-7-7-7-0-|
Eb:----------------------------- -0----------------------------|

Gb:----------------------------- ------------------------------|
Db:----------------------------- --------5---------------------|
Ab:-5-555-5-5-0-5-0-5-5-5-5-5-5- -7----7---7-7-7-7-------------|
Eb:----------------------------- -0--------------0---0--0--3h5-|

Gb:----------------------------- ------------------------------:
Db:----------------------------- ------------------------------:
Ab:-3----3-3--3-5-0-5---5-5-3-5- -7--7-7-----7-----------------:
Eb:----------5------------------ --------0-0---0-0-0-0-0-0-0-0-:

Chorus 3:
Gb:---------7-----7------------- --------------------------------|
Db:-------7-----7---7----------- ------------------------5-------|
Ab:-5---5-------------5--5--5h7- ---------7--7-5-7-7-7-7---7-5h7-|
Eb:----------------------------- -0---0-0-0----------------------|

Gb:----------------7------------ --------------------------------|
Db:------------7----7----------- ----------------------------5---|
Ab:-5---5---5--5------5-5-5-5h7- ---------7--7-5-7---7---7-7---7-|
Eb:----------------------------- -0-----0----------0---0---------|

Gb:----------------------------- --------------------------------|
Db:----------------------------- ---------7----------------7-----|
Ab:-5---5---5--5-5-5--5-5-5-5h7- --------------------------------|
Eb:----------------------------- -5-5---5--------5--5--5-5---5-5-|

Gb:----------------------------- --------------------------------|
Db:----------------------------- --------------------------------|
Ab:-3---3-3----3-5-5--5-5---3-5- -7-------7-----7-7--------------|
Eb:----------5------------------ -------0----0------0---0----3-5-|

Gb:---------------------------------- ------------------------------|
Db:---------------------------------- ------------------------------|
Ab:-3-3-3-3-3-3---3-5-5-5-5-5--5-3-5- -7-7--7-------7-5-----7-5---5-|
Eb:-------------5-------------------- -------0--0-0-----7-7-----7---|

Gb:--------------------------------- ------------------------------|
Db:--------------------------------- ------------------------------|
Ab:-3-3-3-3-3---2-2-3-2-3-3-3-----3- -5---5-5-5---5-5-5--5--5--3-5-|
Eb:-----------------------------5--- ------------------------------|

Gb:------------------------------- ---------------------------------:
Db:---------------5--------------- -5-----------------5---------5---:
Ab:---------7---7---7-7-7-7---7-7- ---7-7-7-7-7-7-7-7---7-7-7-7---0-:
Eb:-0---0-0----------------------- ---------------------------------:

Outro:
Gb:----------------------------- --------------------------------|
Db:----------------------------- --------5---------------5-------|
Ab:-5--5-5--3-4-5---5-5-5---3-5- -7--7-7---7-7-7-7-7-7-7---7-7-7-|
Eb:----------------------------- -0------------------------------|

Gb:----------------------------- ------------------------------|
Db:----------------------------- ------------------------------|
Ab:-5--5-5--3-4-5-5-5-5-5---3-5- -7------7-----5h7-7-7-7-7-7-0-|
Eb:----------------------------- -0--0-0-0-5h7-----------------|

Gb:----------------------------- --------------------------------|
Db:----------------------------- --------------------5-----------|
Ab:-5-5-5-5-3-4-5---5-5-5---3-5- -7------7-----557-7---7-7-7-5-0-|
Eb:----------------------------- -0--0-0-0-----------------------|

Gb:----------------------------- -----------------------------:
Db:----------------------------- -----------------------------:
Ab:-3--3-3--0-2-3--3-3-3-3----3- -5------5-----5--3-3-5--3h5/-:
Eb:-------------------------5--- -----------------------------: end

Die die my darling

Tune down 1/2 step

Fig.1 (first without voice)
Gb:-----------------|-----------------|-----------------|-----------------:
Db:-----------------|-----------------|-----------------|-----------------:
Ab:-2-------2-------|-2-------2-------|-----------------|-----------------:
Eb:-----2-------2---|-----2-------2-2-|-3---3-3-3-3-3-3-|-2-2-2-2-2-2-2-2-:

Chorus: Repeat Fig.1  2 times with last bar variation:  |-------------------|
                                 |------------------------------------------|
                            |-----------------------------------------------|
                            |-2---2-2-2-3-2-0-------------------------------|

Fill.1
Gb:-----------------|-----------------|-----------------|-----------------|
Db:-----------------|-----------------|-----------------|-----------------|
Ab:-----------------|---------7---7---|-2-2-2-2-2-2-2-2-|-2-2-0-0---------|
Eb:-0---0-0-0-0-0-0-|-0-0-0-0---0---0-|-----------------|---------2-2-1-1-|

Gb:-----------------|-----------------|-----------------:
Db:-----------------|-----------------|-----------------:
Ab:-----7-----7-7-7-|-----------------|-----------------:
Eb:-0---0-----------|-3-3-3-3-3-3-3-3-|-3---------------: end Fill.1

Fig.2
Gb:-----------------|-----------------|-----------------|-----------------:
Db:-----------------|-----------------|-----------------|-----------------:
Ab:-2-2-2-2-2-2-2-2-|-2-2-2-2-2-2-2-0-|-----------------|-5-5-5-5-4-4-4-4-:
Eb:-----------------|-----------------|-3---3-3-3-3-3-3-|-----------------:

Repeat Fig.2  6 times total
Repeat Chorus
Repeat Fill.1
Repeat Fig.2  6 times
Repeat Chorus
Repeat Fill.1

Ending:
Gb:-----------------|-----------------|-----------------|-----------------|
Db:-----------------|-----------------|-----------------|-----------------|
Ab:-2-------2-------|-2-------2-------|-2-------2-------|-2-------2-------|
Eb:-----2-------2---|-----2-------2---|-----2-------2---|-----2-------2---|

Gb:-----------------:
Db:-----------------:
Ab:-2---------------:
Eb:-----------------: end.


Lover man

Verse 1:
:--------------------------------|--------------------------------|
:--------------------------------|--------------------------------|
:--------------------------------|--------------------------------|
:-7-----7---5-6---7-----7---5-6--|-7---7---7--5-6--7-----7-5-7----|
:--------------------0-----------|---------------------0-------0--|

|--------------------------------|--------------------------------|
|--------------------------------|--------------------------------|
|--------------------------------|--------------------------------|
|-7-------7--5-6--7-----7---5-6--|-7---7---7--5-6--7-----7--5--7--|
|-----0--------------0-----------|--------------------0-----------|

|--------------------------------|--------------------------------|
|--------------------------------|--------------------------------|
|--------------------------------|--------------------------------|
|-7---7---7--5-6--7-----7--5--6--|-7-------7--5-6--7--7--7-5---5--|
|-0------------------0-----------|-----0-----------0---------7----|

|--------------------------------|--------------------------------|
|--------------------------------|--------------------------------|
|--------------------------------|--------------------------------|
|-7-------7--5-6--7-----7--7--5--|-7---7---7--5-6-7-----7--5----5-|
|-----0-0------------0--0--------|-------------------0--------7---|

|--------------------------------|--------------------------------|
|--------------------------------|--------------------------------|
|--------------------------------|----------------------5---------|
|-7-------7--5-6--7-----7--5--6--|-7-------7--5-6-7--------7-5--6-|
|-----0-0------------0-----------|-----0-------------0------------|

|--------------------------------|--------------------------------|
|--------------------------------|--------------------------------|
|--------------------------------|--------------------------------|
|-7-------7--5-6--7-----7--5--6--|-7-------7--5-6-7-----7--5----5-|
|-----0--------------0-----------|-----0-------------0-------7----|

|--------------------------------|--------------------------------|
|--------------------------------|--------------------------------|
|--------------------------------|--------------------------------|
|-7-------7--5-6--7-----7--5--6--|-7-------7--5-6-7-----7--6--5-6-|
|-----0--------------0-----------|-----0-------------0------------|

|--------------------------------|--------------------------------:
|--------------------------------|--------------------------------:
|--------------------------------|-----------------------5--------:
|-7-------7--5-6-7------7---5--6-|-7-------7--5-6-7----------7--5-:
|-----0--------------0-----------|-----0-------------0------------:

Chorus:
:--------------------------------|--------------------------------|
:--------------------------------|--------------------------------|
:-----------------------5--------|--------------------------------|
:-7-----7---5-6-7-6-5-7---7-5--6-|-7-------7---5-6-7-5-6-7-5------|
:-0---0--------------------------|-0---0-0-0-----------------7-5-3|

|--------------------------------|--------------------------------|
|--------------------------------|---------------- sixplet--------|
|-------------------------5------|---------------- ------ --------|
|-----7-5-7---5-6-7-6-7-7---7-5-6|-7-7-5-6-7-5-6-7-677765---------|
|-0-------0----------------------|-------------------------7-6-5-3|

|--------------------------------|--------------------------------|
|--------------------------------|--------------------------------|
|----------------------------b5--|--------------------------------|
|-----7-5-7---5-6-7-5-6-7-5------|-7---7-5-7-7-5-6-7-5-6-7-5------|
|-0-------0-----------------7----|-0-------------------------7-5-3|

|--------------------------------|--------------------------------:
|--------------------------------|--------------------------------:
|---------------------------5----|-------------------------5------:
|-----7-5-7---5-6-7---7-7-77--7-5|-7---5-6-7---5-6-7---5-7---7-x--:
|-0-------0---------0------------|--------------------------------:

Interlude:
|Fig.1                                                   end Fig.1|
:--------------------------------|----------------------------------|
:--------------------------------|----------------------------------|
:--------------------10h12---10--|------------9h10-9----------------|
:-7-------9------10--------------|12----------------------10--12----|
:--------------------------------|----------------------------------|

Repeat Fig.1 x 1 1/2

|--------------------------------|----------------------------------|
|--------------------------------|----------------------------------|
|--------------===---------------|------------9h10-9----------------|
|--------------------------------|12-------------------10h12--10----|
|--------------------------------|----------------------------------|

Chorus:
:--------------------------------|--------------------------------|
:--------------------------------|--------------------------------|
:---------------------------5----|---------------------------5----|
:-7---7-5-7---5-6-7-7-5-6-7---5-6|-7-7-5-6-7---5-6-7---5-6-77-756-|
:--------------------------------|--------------------------------|

|--------------------------------|--------------------------------|
|--------------------------------|--------------------------------|
|--------------------------------|-------------------5-----5------|
|-7---5-6-7---5-6-777-5-7-5------|-----7-5-7---5-6-7---7-5---7-5-6|
|---------------------------7-653|-0------------------------------|

|--------------------------------|--------------------------------|
|--------------------------------|--------------------------------|
|-------------------------5------|--------------------------------|
|-7---5-6-7---5-6-7---5-7---7-5-6|-7---7-5-7---5-6-7-7-5-7-75-----|
|---------0---0-0-0--------------|-0-------------------------7--3-|

|--------------------------------|--------------------------------|
|--------------------------------|--------------------------------|
|-------------------------5------|-------------------------5------|
|-----7-5-7---5-6-7-7-5-7---7-5-6|-7---5-6-7---5-6-7-7-5-7---7---7|
|-0------------------------------|---------0----------------------|

|--------------------------------|----------------------------------|
|--------------------------------|----------------------------------|
|--------------------------------|----------------------------------|
|-7------------------------------|--------------------(7)-----------|
|--------------------------------|----------------------------------|

Verse 2:
:--------------------------------|--------------------------------|
:--------------------------------|--------------------------------|
:-------------------------5------|-------------------------5------|
:-7-----7---5-6-7-----------7-5-6|-7---5-6-7-------7---------7-5-6|
:--------------------------------|-------------0------------------|

|--------------------------------|--------------------------------|
|--------------------------------|--------------------------------|
|-------------------------5------|-------------------------5------|
|-7-------7---5-6-7-7-------7-5-6|-7-------7---5-6-7---------7-5-6|
|-0------------------------------|-----0---------------0-0--------|

|Fig.2                  end Fig.2|
|--------------------------------|--------------------------------|
|--------------------------------|--------------------------------|
|-------------------------5------|-------------------------5------|
|-7-------7---5-6-7---------7-5-6|-7-------7---5-6-7---------7-5-6|
|-0-------------------0----------|-----0---------------0----------|

|--------------------------------|--------------------------------|
|--------------------------------|--------------------------------|
|-------------------------5------|-------------------------5------|
|-7-------7---5-6-7---------7-5-6|-7-------7-----------------7-5-6|
|-0-------------------0----------|-------------0---0--------------|

|--------------------------------|--------------------------------|
|--------------------------------|--------------------------------|
|-------------------------5------|-------------------------5------|
|-7-------7---5-6-7---------7-5-6|-7-------7---5-6-7-----7---7-5-6|
|-0-------------------0----------|-------------------0------------|

|--------------------------------|--------------------------------|
|--------------------------------|--------------------------------|
|-------------------------5------|---------5---------------5------|
|-7-------7---5-6-7---------7-5-6|-7---------7-5-6-7-7-5-7---7-5-6|
|-0-------------------0----------|-----0-0------------------------|

|--------------------------------|--------------------------------|
|--------------------------------|--------------------------------|
|-------------------------5------|-------------------------5------|
|-7-------7---7-5-7---7-----7-5-6|-7-------7---5-6-7---------7-5-6|
|--------------------------------|---------------------0----------|

|--------------------------------|--------------------------------:
|--------------------------------|--------------------------------:
|-------------------------5------|--------------------------------:
|-7-------7-------7---7-----7-5-6|-7-------7-------7-------7---7-5:
|-------------0------------------|-----0-------0-------0----------:

Chorus:
:--------------------------------|--------------------------------|
:--------------------------------|--------------------------------|
:-------------------------5------|--------------------------------|
:-7-------7---5-6-7---5-7---7-5-6|-7---5-6-7---5-6-7-777556-75----|
:-0---0--------------------------|-0-------0------------------75-3|

|--------------------------------|--------------------------------|
|--------------------------------|--------------------------------|
|-------------------------5------|-------------------------5------|
|-----7-5-7---5-6-7-7-5-7---7-5-6|-7-------7---5-6-7-7-5-7---7-5-6|
|-0------------------------------|-0---0-0------------------------|

|--------------------------------|--------------------------------|
|--------------------------------|--------------------------------|
|-------------------------5------|-------------------------5------|
|-7---5-6-7---5-6-7-7-5-7---7-5-6|-7---5-6-7---5-6-7---567---7-5-6|
|-0-------0----------------------|-0-------0-------0---h-h--------|

|--------------------------------|--------------------------------:
|--------------------------------|--------------------------------:
|-------------------------5------|-------------------------5------:
|-7---5-6-7---5-6-7-7-5-7---7-5-6|-7---5-6-7---5-6-7-7-5-7---7-5-6:
|-0-------0----------------------|-0-------0----------------------:

Interlude:

Repeat Fig.1 x 3 1/2

|--------------------------------|----------------------------------|
|--------------------------------|----------------------------------|
|--------------===---------------|------------9h10-9----------------|
|--------------------------------|12-------------------10h12--10----|
|--------------------------------|----------------------------------|

Chorus:
:--------------------------------|--------------------------------|
:-----------------------------h-p|--------------------------------|
:-------------------------5---575|--------------------------------|
:-7---7-5-7---5-6-7---5-7---7----|-----7-5-7---5-6-7---5-6-7-6-5--|
:-0-------0-------0--------------|-0-------0-------0-------0-----3|

|--------------------------------|--------------------------------|
|--------------------------------|--------------------------------|
|--------------------------------|--------------------------------|
|-----7-5-7---5-6-7---5-6-7-6-5--|-----7-5-7---5-6-7---5-6-7-6-5--|
|-0-------0-------0-------0-----3|-0-------0-------0-------0-----3|

|--------------------------------|--------------------------------|
|--------------------------------|--------------------------------|
|-------------------------5------|-------------------------5------|
|-----7-5-7---5-6-7---567---7----|-----7-5-7---5-6-7-7-5-7---7----|
|-0-------0-------0---h-h-----7-3|-0-------0-------------------7-3|

|--------------------------------|--------------------------------|
|--------------------------------|--------------------------------|
|-------------------------5------|-------------------------5------|
|-----7-5-7---5-6-7---567---7----|-----7-5-7---5-6-7-7-5-7---7----|
|-0-------0-------0---h-h-----7-3|-0-------0-------------------7-3|

|--------------------------------|--------------------------------|
|--------------------------------|--------------------------------|
|--------------------------------|-------------------------5------|
|-7------------------------------|---------7-------7---------7-5-6|
|-0------------------------------|-0-----------0-0----------------|

|--------------------------------|--------------------------------:
|--------------------------------|--------------------------------:
|-------------------------5------|-------------------------5------:
|-7-------7-------7---567---7-5-6|-7-------7---5-6-7---------7-5-6:
|-0-------------------h-h--------|-----0-0-------------0-0--------:

Verse 3:

Repeat Fig.2 x 10 (with free variaions) +

|--------------------------------|--------------------------------|
|--------------------------------|--------------------------------|
|-------------------------7p5----|--------------------------------|
|-------------7---------------7--|--------------------------------|
|-0------------------------------|--------------------------------|

|--------------------------------:
|--------------------------------:
|--------------------------------:
|--------------------------------:
|--------------------------------:

Chorus:
:--------------------------------|--------------------------------|
:--------------------------------|--------------------------------|
:-------------------------5------|---------------------5----------|
:-7-------7---5-6-7---5-7---7-5h7|-7---5-6-7---5-7-7-----7-6-5----|
:-0---0-0-0-------0--------------|-0---0-0-0-------0-----------7-3|

|--------------------------------|--------------------------------|
|--------------------------------|--------------------------------|
|-------------------------5------|-------------------------5------|
|-7---7-5-7---5-6-7-7-5-7---7-5-6|-7---5-6-7---5-6-7---567---7----|
|-0---0-0-0----------------------|-0-------0-------0---h-h-----7-3|

|--------------------------------|--------------------------------|
|--------------------------------|--------------------------------|
|-------------------------5------|-------------------------5------|
|-----7-5-7---7-7-7---567---7-5-6|-7---7-5-7---5-6-7---5-7---7----|
|-0-------0-------0--------------|-0-------0-------0-----------7-3|

|--------------------------------|--------------------------------|
|--------------------------------|--------------------------------|
|-------------------------5------|-------------------------7p5----|
|-----7-5-7---5-6-7-7-5-7---7-5h7|-----7-5-7---5-6-7-7-5-7-----7--|
|-0---0-0-0----------------------|-0---0-0-0----------------------|

|--------------------------------|--------------------------------|
|--------------------------------|--------------------------------|
|-------------------------5------|--------------------------------|
|-----5-6-7---5-6-7---5-7---7-5--|---------7--------5-------------|
|-0-------0-------0-------------7|-0---0-0------------7-6-565---3-|

|--------------------------------|--------------------------------:
|--------------------------------|--------------------------------:
|-------------------------5------|-------------------------5------:
|-----7-7-7---5-6-7---7-7---7-5-6|-7---5-6-7---5-6-7-5-7-7---7-5-7:
|-0---0-0-0---------0------------|-0---0-0-0-0-0-0-0--------------:

Outro:
:--------------------------------|--------------------------------|
:--------------------------------|--------------------------------|
:--------------------------------|-------------------------5------|
:-7-----------------------9------|-------5-7-----5-7---------7-5-6|
:-0------------------------------|-0---7-------7-------0-0--------|

|--------------------------------|--------------------------------|
|--------------------------------|--------------------------------|
|-------------------------5------|-9-------9---------------5------|
|-7-------7-------7---7-7---7-5-/|-7-------7-------7---------7-5-6|
|-----0-0-----0-0----------------|-----0-0-----0-0-----0-0-----0-0|

|--------------------------------|--------------------------------|
|--------------------------------|--------------------------------|
|-------------------------5------|-------------------------5------|
|-7-------7-------7---------7-5-6|-7-------7-----------------7-5-6|
|-0---0-0-----0-0-----0-0-----0-0|-0---0-------0-0-0---0----------|

|--------------------------------|----------------------------------|
|--------------------------------|----------------------------------|
|---------------------10h12---10-|------------9h10-9----------------|
|-7-------9------10--------------|12---------------------10---12----|
|--------------------------------|----------------------------------|

|--------------------------------|--------------------------------|
|--------------------------------|--------------------------------|
|---------------------10h12---10-|-----------9h10-9-9h10p9--------|
|-7-------9------10--------------|12----------------------10-10h12|
|--------------------------------|--------------------------------|

|--------------------------------|--------------------------------|
|--------------------------------|--------------------------------|
|---------------------10h12---10-|-----------9h10-9-12-10-9-------|
|-7-----7h9------10--------------|12------------------------12-10-|
|--------------------------------|--------------------------------|

|--------------------------------|----------------------------------|
|--------------------------------|----------------------------------|
|---------------------10h12---10-|------------10---9----------------|
|-7-------9------10--------------|12------------------12--10--12----|
|--------------------------------|----------------------------------|

|--------------------------------:
|--------------------------------:
|--------------------------------:
|-7------------------------------:
|--------------------------------: End

mercyful fate medley

PART A]  "SATAN'S FALL"

F#|---------------------------------------------------------------|
C#|------------------------------------------------------------P5-| {RPT}
G#|--------------------------2-0----------------------------------|
D#|0-2-2-2--0-2-2-2--0-2-2-2-----0-2-2-2--0-2-2-2--0-2-2-2--2-3---|


"BRINGING THE BLOOD OF A NEW BORN CHILD!!.."
F#|---------------------------------------------------| {PLAY THE FIRST RIFF AGAIN THEN   }
C#|---------------------------------------------------| {THIS ONE AGAIN, EXCEPT THE SECOND}
G#|2-2-3---------| {TIME END ON -2--------------------|                 }
D#|-----3-3-3-3-3-------------------------------------|


PART B]  "CURSE OF THE PHARAOH'S"

IT STARTS TO GET A LITTLE MORE CHALENGING FROM HERE

[INTRO]
F#|-----------------------|
C#|-----------------------|
G#|(0)------(0)------(0-0)|
D#|-----------------------|


[VERSE]
F#|--------------------------------------------------------|
C#|--------------------------------------------------------|
G#|---------------------------0----------------------------|
D#|0-2-2-2-2-2-2-2-2-2-2---0h2--2-2-2-2-2-2-2-2---0--0--0/2|

"DON'T TOUCH..."
F#|----------------------------------------------|
C#|----------------------------------------------|
G#|--------------0-0-0-0--3-2-2-2-2-2-4-4-4-4-4-4|
D#|0-2-4-4-4-4-4---------2-----------------------|

"..OR YOU'LL BE HEXED.."
F#|-----------------------|
C#|-----------------------|
G#|------0--3-2--3-2-0-0--|
D#|2-0-2--2--------------0|

"..BY THE CURSE OF THE PHARAOH'S"
F#|-----------------------|
C#|-----------------------|
G#|-----0--5-4--5-4-0---0-|
D#|2-0-2--2-----------0---|

F#|-----------------------|
C#|-----------------------|
G#|------0--3-2--3-2-0-0--|
D#|2-0-2--2--------------0|


F#|-----------------------|
C#|-----------------------|
G#|-----0--5-4--/7-6------|
D#|2-0-2--2---------------|


BRIDGE THING
F#|---------------------------|
C#|---------------------------|
G#|---------------------------|
D#|0-2-XXX-2-3-XXX-5-2-XXX-7-5|

DURING GUITAR SOLO
F#|--------------------------|
C#|--------------------------|[GO BACK TO BRIDGE THING]
G#|4-4-4-4-4-4-4-4-4--2-0-2--|
D#|--------------------------|

TRICKY BIT A  [X2]
F#|0-------2--------3---2--|
C#|--2--XX---2--XXX---2---2|
G#|------------------------|
D#|------------------------|

TRICKY BIT B  [X2]
F#|----------------|
C#|----------------|
G#|0----2---3---2--|
D#|--2----2---2---2|

THEN
F#|---------------|
C#|---------------|
G#|7---5--5-4-3-2-|
D#|---------------|

PRE VERSE
F#|---------------------------|
C#|-------------0-------------|
G#|2-2-2-2--0-2---2-2-2-2-2-2-|
D#|---------------------------|

VERSE
F#|-------------------------------------------------|
C#|-------------------------------------------------|
G#|-----------------------2-------------------------|
D#|0--0--0/2-2-2-2-2--0-2----2-2-2-2-2-2--0--0-0/2--|

"DON'T TOUCH..."
F#|----------------------------------------------|
C#|----------------------------------------------|
G#|--------------0-0-0-0--3-2-2-2-2-2-4-4-4-4-4-4|
D#|0-2-4-4-4-4-4---------2-----------------------|

"..OR YOU'LL BE HEXED.."
F#|-----------------------|
C#|-----------------------|
G#|------0--3-2--3-2-0-0--|
D#|2-0-2--2--------------0|

"..BY THE CURSE OF THE PHARAOH'S"
F#|-----------------------|
C#|-----------------------|
G#|-----0--5-4--5-4-0---0-|
D#|2-0-2--2-----------0---|

F#|-----------------------|
C#|-----------------------|
G#|------0--3-2--3-2-0-0--|
D#|2-0-2--2--------------0|


F#|------------------------|
C#|------------------------|
G#|-----0--5-4--5-4-0------|
D#|2-0-2--2------------0---|


PART C]   "CORPSE WITHOUT A SOUL"
INTRO
F#|---------------------|
C#|---------------------|
G#|3-2--3-5--2-3-1-2----|
D#|------------------5/0|

VERSE (MAIN RIFF)  [PLAY IT A SHIT LOAD OF TIMES]
F#|------------------------------------------|
C#|------------------------------------------|
G#|5-5--0-0-0-0-0-0-0-0-0-0-0-0-0-0-3--------|
D#|-----------------------------------3------|

"HE TOOK IT ON ME"
F#|----------------------|
C#|----------------------|[BACK TO MAIN RIFF]
G#|(5)---2-2-2-(3)----5-0|
D#|----------------------|[THEN BACK HERE]
OUTRO
F#|-------------------------------|
C#|-------------------------------|
G#|5-3-2--3-2-0--2-0----0-----(0)-|
D#|------------------3----3-2-----|

PART D]    "INTO THE COVEN"

I'M NOT SURE ABOUT THIS BIT CAUSE THE GUITARS USE WEIRD CHORDS
THAT I CANT FIGURE OUT SO IF YOURT A BRAIN IN MUSIC  AND KNOW
WHAT IT IS, SEND ME THE CORRECTION. ;-P

MY GUESS IS THAT IT'S SOMEWHERE IN THE KEY OF G# (OR Ab  IS THERE A DIFF??)

VERSE
F#|------------------------------------|
C#|------------------------------------|
G#|0-0-0-0---5-3-0-0-0-0-0-0-0-0--3-5-5|
D#|--------3---------------------------|

CHORUS
"YEAH... COME COME, INTO MY COVEN"
F#|-------------------------------------------|
C#|-------------------------------------------|
G#|----------------------------------0-2-3-4--|
D#|2-2-2-2-2--3-3-2-2-2-2-2-2-2-2---2-------0-|

"AND BECOME LUCIFERS CHILD.."
F#|-------------------------------------|
C#|-------------------------------------|
G#|-----------------------------0-0--0-0|[GO BACK TO VERSE]
D#|2-2-2-2-2-2-2--3-3-2-2-2-2-2---------|[THEN VERSE]

OUTRO
F#|----------------------|
C#|----------------------|
G#|3-3-3--3-3--3-3-3-----|
D#|------------------3-2-|

PART E]   "EVIL"
INTRO [X2]
F#|-----------|
C#|-----------|
G#|5-7--5-7/0-|
D#|-----------|

CHORUS
F#|-----------------------------------------|
C#|-----------------------------------------|
G#|7/107--7/107--7/107--7/10--5-7--5-7------|
D#|-----------------------------------------|

VERSE  A
"I WAS BORN IN A CEMETARY"
F#|--------------------------|
C#|----------------------0---|[RPT A FEW TIMES]
G#|2-2-2-2-2-2-2-2-2-0-2---2-|
D#|

VERSE  B
"RAISED FROM MY GRAVE"
F#|------------------|
C#|----------------0-|[BACK TO VERSE A]
G#|------------0-2---|[THEN BACK HERE]
D#|3-3-3-3-3-3-------|

VARIATION OF VERSE B
F#|------------------------|
C#|-------------0----------|
G#|----------0-2--2-2--0---|[TO CHORUS]
D#|3-3-3-3-3-------------3-|

BRIDGE
"AND I'LL BE THE FIRST..."
F#|--------------------------------------------|
C#|--------------------------------------------|
G#|----------------5-3--3-3-3-3-3-3-3--3-3-3-3-|
D#|2-2-2-2-2-2-2-2-----------------------------|
THEN
"AND I'LL BE THE LAST"
F#|-------------------------------------------|
C#|-------------------------------------------|
G#|2-0-0-0-0-0-0-0-0-0-0-0--2-3-4-4-4-4-4-4-4-|[TO CHORUS]
D#|-------------------------------------------|[THEN TO BRIDGE]


MID SOLO
F#|-----------------------------------|
C#|-----------------------------------|
G#|-----------------------------------|
D#|5--5/85--5/85--5/85--3-5--3-5------|


"AND WHEN YOUR DOWN"
F#|-------------------------------------------|
C#|-------------------------------------------|
G#|--------5-3---------3---------5-3----------|
D#|5-5-3-5-----3-3-0-1---5-5-3-5-----3-3--1-1-|

"YOU GOTTA SAY GOOD BYE
F#|----------------------------------|
C#|----------------------------------|
G#|--------3-----------5--3--1---5-3-|
D#|1-1---0----0-5-5------------------|


BASS SOLO (FAST .......DER)

F#|-------------------------|
C#|-------------------------|
G#|-----------------------1-|
D#|3-3-3-3-3-3-3-3-3-3--1---|

THEN

F#|----------------------------|
C#|----------------------------|
G#|1-1-1-1-1-1-1-1----1----1---|
D#|---------------------4------|

GUITAR SOLO 2

F#|------------------------------|
C#|------------------------------|
G#|3-3-3-3-3-3-3-3-3-3-3-3-3-3-3-|
D#|------------------------------|

F#|---------------------------------------------------------------|
C#|------------------------------------------------------------P5-|
G#|--------------------------2-0----------------------------------|
D#|0-2-2-2--0-2-2-2--0-2-2-2-----0-2-2-2--0-2-2-2--0-2-2-2--2-3---|


OUTRO


F#|------------------------------|
C#|------------------------------|
G#|--------------------2-0-------|
D#|0-2-2-2-2---0-2-2-2-----2-2/0-|

Astronomy

Tune down 1/2 step.
Intro:
|--------------------------------|--------------------------------|
|--------------------------------|-------------9-----7h9---7------|
|-7---7-------7------------------|-7---7-------7--------------10--|
|-0---0-------0------------------|-0---0--------------------------|

|--------------------------------|--------------------------------|
|-------------9------------------|-------------9-----7h9---7------|
|-7---7-------7------------------|-7---7-------7--------------10--|
|-0---0--------------------------|-0---0--------------------------|

|--------------------------------|--------------------------------|
|-------------9------------------|-------------------7h9---7------|
|-7---7-------7------------------|-7---7-------7--------------10--|
|-0---0--------------------------|-0---0-------0------------------|

Verse 1:                          2/4
|--------------------------------|----------------------------------|
|-------------------------7------|----------------------------------|
|-7----------(7)-5-----------5-|-3---------------2------------------|
|-0------------------------------|----------------------------------|
 4/4
|--------------------------------|----------------------------------|
|-------------9------------------|-------------------------7--------|
|-----7--------------------------|-7----------(7)-5-----------5-----|
|-0------------------------------|-0--------------------------------|
 2/4				  4/4
|--------------------------------|----------------------------------|
|-------------5------------------|----------------------------------|
|-3---------------2--------------|-------------7------7p5-----------|
|--------------------------------|-0---0-----------------73---5-----|

|--------------------------------|----------------------------------|
|---------5-------5-------7-5----|----------------------------------|
|-3---------5/7---------------7-|-3-----3h5-p-3---2---------3-5-----|
|--------------------------------|----------------------------------|
                                  2/4
|--------------------------------|----------------------------------|
|---------9---------------7------|---------5------------------------|
|-7-----------7--5-----------5-|-3---------------2------------------|
|--------------------------------|----------------------------------|
 4/4
|--------------------------------|--------------------------------|
|-------------9------------------|-------------9-----7h9---7------|
|-----7--------------------------|-----7----------------------10--|
|-0------------------------------|-0------------------------------|

|--------------------------------|--------------------------------|
|-------------9------------------|-------------------7h9---7------|
|-----7--------------------------|-7---7-------7--------------10--|
|-0---0--------------------------|-0---0-------0------------------|

Verse 2:                          2/4
|--------------------------------|----------------------------------|
|-------------------------7------|---------5---------------4--------|
|-7----------(7)-5-----------5-|-3---------------2------------------|
|-0------------------------------|----------------------------------|
 4/4
|--------------------------------|----------------------------------|
|-------------9------------------|-------------------------7--------|
|-----7----------------------10--|-7-----------7--5-----------5-----|
|-0------------------------------|-0--------------------------------|
 2/4				  4/4
|--------------------------------|----------------------------------|
|-----5--------------------------|----------------------------------|
|-3---------------2--------------|-------------7------7p5-----------|
|--------------------------------|-0---0-----------------73---5-----|

|--------------------------------|-------------------------4--------|
|-------------5----------7p5-----|----------------------4-----------|
|-3------5/7-----------------7p5|-3-----3h5-p-3---2-2---------2-/|--|
|--------------------------------|----------------------------------|
				  2/4
|--------------------------------|----------------------------------|
|---------9----------------------|----------------------------------|
|-7-----------7--5-------5h7p5--|-3---------------2-----------------|
|--------------------------------|----------------------------------|
 4/4
|--------------------------------|--------------------------------|
|-------------9------------------|-9-----------9-----7h9---7------|
|-----7--------------------------|-7---7-------7--------------10--|
|-0------------------------------|-----0--------------------------|

Interlude:
 4/4
|--------------------------------|--------------------------------|
|--------------------------------|--------------------------------|
|-7---------------5--------------|-3---------------7--------------|
|-0------------------------------|-----------------0--------------|

|--------------------------------|--------------------------------|
|--------------------------------|--------------------------------|
|-7---------------5--------------|-3---------------7-5------------|
|-0------------------------------|---------------------7---5--b3--|

|--------------------------------|--------------------------------|
|--------------------------------|-----------------------------5--|
|-7---------------5--------------|-3---------------7--------------|
|-0------------------------------|-----------------0---5-h-7------|
                                  2/4
|--------------------------------|--------------------------------|
|--------------------------------|--------------------------------|
|-7---------------5--------------|-3------------------------------|
|-0------------------------------|--------------------------------|
 4/4
|--------------------------------|
|--------------------------------|
|-3----------2-3--5--------4--5--|
|----0-3-3h5----------5--7-------|

Fig.1 (Play in the structure below)
|--------------------------------|--------------------------------|
|-9--x-9---x--9---x-x-5---5--x-x-|-7--x-7---x--7---x-x-9---9--x-x-|
|-7--x-7---x--7---x-x-3---3--x-x-|-5--x-5---x--5---x-x-7---7--x-x-|
|--------------------------------|--------------------------------|

Play Fig.1 x 2 (With "Hey!"at the beginning of each bar)
Play Fig.1 x 4 (For first bridge)
Play Fig.1 x 4 (For second bridge)

|--------------------------------|--------------------------------|
|-7---5-----7-------5-5-5-5-5-5--|-7---5-----7-------5-5-5-5-5-5--|
|-5---3-----5-------3-3-3-3-3-3--|-5---3-----5-------3-3-3-3-3-3--|
|--------------------------------|--------------------------------|
  Ne- ver   Warms                  Ne- ver   Warms

|--------------------------------|--------------------------------|
|-7---5-----7-------5-5-----5----|--------------------------------|
|-5---3-----5-------3-3-----3----|-7------------------------------|
|--------------------------------|-0------------------------------|
  Ne- ver   Warms...

|-G-|----------------------------|--------------------------------|
|-u-|----------------------------|--------------------------------|
|-i-|-------------2p0-0----------|--------------------------------|
|-t-|----------------3----3/-----|-0------------------------------|

|--------------------------------|--------------------------------|
|-------------9------------------|-------------9-----7h9---7------|
|-----7--------------------------|-----7----------------------10--|
|-0------------------------------|-0------------------------------|

|--------------------------------|--------------------------------|
|-------------9------------------|-------------9-----7h9---7------|
|-----7--------------------------|-----7----------------------10--|
|-0------------------------------|-0------------------------------|

Verse 3:                          2/4
|--------------------------------|----------------------------------|
|-------------------------7------|---------5------------------------|
|-7----------(7)-5-----------5-|-3---------------2------2p0---------|
|-0------------------------------|----------------------------------|
 4/4
|--------------------------------|----------------------------------|
|--------------------------------|-------------------------7--------|
|-------------7------------------|-7----------(7)-5-----------5-----|
|-0-----------0------------------|-0--------------------------------|
 2/4				  4/4
|--------------------------------|----------------------------------|
|-----5--------------------------|----------------------------------|
|-3---------------2--------------|-------------7------7p5-----------|
|--------------------------------|-0---0------------------73--5-----|

|--------------------------------|-------------------------4--------|
|-------------5----------7p5-----|----------------------------------|
|-3---3-/5h7-----------------7p5|-3-----------5---2-----------2-/|--|
|--------------------------------|----------------------------------|
				  2/4
|--------------------------------|-------------------------4--------|
|---------9---------------7------|---------5------------------------|
|-7-----------7--5-----------5-|-3---------------2------------------|
|--------------------------------|----------------------------------|
 4/4
|--------------------------------|--------------------------------|
|-------------9------------------|-9-----------9-----7h9---7------|
|-----7--------------------------|-7---7-------7--------------10--|
|-0------------------------------|-----0--------------------------|

Interlude:
|--------------------------------|--------------------------------|
|--------------------------------|--------------------------------|
|-7---------------5--------------|-3---------------7--------------|
|-0------------------------------|-----------------0--------------|

|--------------------------------|--------------------------------|
|--------------------------------|--------------------------------|
|-7---------------5--------------|-3---------------7--------------|
|-0------------------------------|-------------------0--3--5---7--|

|--------------------------------|--------------------------------|
|--------------------------------|--------------------------------|
|-7---------------5--------------|-3---------------7---5----------|
|-0------------------------------|-------------------0------7--3--|
                                  2/4
|--------------------------------|--------------------------------|
|--------------------------------|--------------------------------|
|-7---------------5--------------|-3-------3-------3---3---3---3--|
|-0------------------------------|--------------------------------|
 4/4
|--------------------------------|
|--------------------------------|
|-3----------2-3--5--------4--5--|
|----0-3-3h5----------5--7-------|

Guitar Solo:
|--------------------------------|--------------------------------|
|-9--x-9---x--9---x-x-5---5--x-x-|-7--x-7---x--7---x-x-9---9--x-x-| x 2
|-7--x-7---x--7---x-x-3---3--x-x-|-5--x-5---x--5---x-x-7---7--x-x-|
|--------------------------------|--------------------------------|
				  1.
|--------------------------------|--------------------------------|
|-9--x-9---x--9---x-x-5---5--x-x-|-7--x-7---x--7---x-x-9----------|
|-7--x-7---x--7---x-x-3---3--x-x-|-5--x-5---x--5---x-x-7--7-7-9-10|
|--------------------------------|--------------------------------|
				  2.
                                 |--------------------------------|
                                 |-7--x-7---x--7--7-5-----5-------|
                                 |-5--x-5---x--5------7-5---7-5---|
                                 |------------------------------7-|

Bridge:
|--------------------------------|--------------------------------|
|-9--x-9---x--9---x-x-5---5--x-x-|-7--x-7---x--7---x-x-9---9------|
|-7--x-7---x--7---x-x-3---3--x-x-|-5--x-5---x--5---x-x-7---7--9-10|
|--------------------------------|--------------------------------|
 Call me Desdinova...             eternal light...
|--------------------------------|--------------------------------|
|-9--x-9---x--9---x-x-5---5--x-x-|-7--x-7---x--7--7-5-------5-----|
|-7--x-7---x--7---x-x-3---3--x-x-|-5--x-5---x--5------7-5-7---7-5-|
|--------------------------------|--------------------------------|

|--------------------------------|--------------------------------|
|-9--x-9---x--9---x-x-5---5--x-x-|-7--x-7---x--7---x-x-9---9--7-5-|
|-7--x-7---x--7---x-x-3---3--x-x-|-5--x-5---x--5---x-x-7---7------|
|--------------------------------|--------------------------------|

Interlude:
|--------------------------------|--------------------------------|
|--------------------------------|--------------------------------|
|-7------------------------------|-3---------------------------5-/|
|-0------------------------------|--------------------------------|

|--------------------------------|--------------------------------|
|--------------------------------|-5-------------------5---5---7--|
|-7---------------7----p----5h7--|--------------------------------|
|--------------------------------|--------------------------------|

|--------------------------------|--------------------------------|
|-7/9-----------------------7h9--|-5-------------------7---7---5--|
|--------------------------------|--------------------------------|
|--------------------------------|--------------------------------|

|--------------------------------|--|
|--------------------------------|--|
|-7------------------------------|--|
|--------------------------------|--|

|--------------------------------|--------------------------------|
|--------------------------------|--------------------------------|
|--------------------------------|--------------------------------|
|-------0-0-0-0-0-0-0-0-0-0-0-0--|-0-0-0-0-0-0-0-0-0-0-0-0-0-0-0-0|

Ending: (repeat and fade)
|--------------------------------|--------------------------------|
|-9--x-9---x--9---x-x-7---7------|-5--x-5---x--5---x-x-7---7--7-5-| x 4
|-7--x-7---x--7---x-x-5---5--7-5-|-3--x-3---x--3---x-x-5---5------|
|--------------------------------|--------------------------------|
Astronomy.......

Whiskey in the jar

F|--------------------------|--------------------------|--------------------------|
C|--------------------------|--------------------------|--------------------------|
G|--------------------------|--------------------------|--------------------------|
D|--0--0--0--0--0--0--0--0--|--0--0--0--0--0--0--0--2--|--3--3--3--3--3--3--3--3--|

|-------------------------|--------------------------|--------------------------|
|-------------------------|--------------------------|--------------------------|
|-------------------------|--------------------------|--------------------------|
|--3--3--3--3--3----2p-0--|--0--0--0--0--0--0--0--0--|--0--0--0--0--0--0--0--2--|

|--------------------------|--------------------------|------------------------|
|--------------------------|--------------------------|------------------------|
|--------------------------|--------------------------|------------------------|
|--3--3--3--3--3--3--3--3--|--3--3--3--3--3--3--3--0--|--3--3----3--3--3----3--|

|--------------------------|
|--------------------------|
|-----------------------5--|
|--3--3----3--3--3--5/7----|

|------------------------|------------------------|------------------------|
|------------------------|------------------------|------------------------|
|--7--7----7--7--7----7--|--7--7----7--7--7----5--|--3--3----3--3--3----3--|
|------------------------|------------------------|------------------------|

|------------------------|
|------------------------|
|--3--3----3--3--3-------|
|---------------------5--|

|--------------------------|--------------------------|------------------------|
|--------------------------|--------------------------|------------------------|
|--------------------------|--------------------------|------------------------|
|--3--3--3--3--3--3--3--3--|--3--3--3--3--3--3--3--0--|--3--3----3--3--3----3--|

|--------------------------|
|--------------------------|
|-----------------------5--|
|--3--3----3--3--3--5/7----|

|------------------------|------------------------|------------------------|
|------------------------|------------------------|------------------------|
|--7--7----7--7--7----7--|--7--7----7--7--7----5--|--3--3----3--3--3----3--|
|------------------------|------------------------|------------------------|

|------------------------|
|------------------------|
|--3--3----3--3--3-------|
|---------------------5--|

|--------------------------|--------------------------|--------------------------|
|--------------------------|--------------------------|--------------------------|
|--------------------------|--------------------------|--------------------------|
|--0--0--0--0--0--0--0--0--|--0--0--0--0--0--0--0--2--|--3--3--3--3--3--3--3--3--|

|-------------------------|--------------------------|--------------------------|
|-------------------------|--------------------------|--------------------------|
|-------------------------|--------------------------|--------------------------|
|--3--3--3--3--3----2p-0--|--0--0--0--0--0--0--0--0--|--0--0--0--0--0--0--0--2--|

|--------------------------|--------------------------|------------------------|
|--------------------------|--------------------------|------------------------|
|--------------------------|--------------------------|------------------------|
|--3--3--3--3--3--3--3--3--|--3--3--3--3--3--3--3--0--|--3--3----3--3--3----3--|

|--------------------------|
|--------------------------|
|-----------------------5--|
|--3--3----3--3--3--5/7----|

|------------------------|------------------------|------------------------|
|------------------------|------------------------|------------------------|
|--7--7----7--7--7----7--|--7--7----7--7--7----5--|--3--3----3--3--3----3--|
|------------------------|------------------------|------------------------|

|------------------------|
|------------------------|
|--3--3----3--3--3-------|
|---------------------5--|

|--------------------------|--------------------------|------------------------|
|--------------------------|--------------------------|------------------------|
|--------------------------|--------------------------|------------------------|
|--3--3--3--3--3--3--3--3--|--3--3--3--3--3--3--3--0--|--3--3----3--3--3----3--|

|--------------------------|
|--------------------------|
|-----------------------5--|
|--3--3----3--3--3--5/7----|

|------------------------|------------------------|------------------------|
|------------------------|------------------------|------------------------|
|--7--7----7--7--7----7--|--7--7----7--7--7----5--|--3--3----3--3--3----3--|
|------------------------|------------------------|------------------------|

|------------------------|
|------------------------|
|--3--3----3--3--3-------|
|---------------------5--|

|------------------------|-------------------------|-------------------------|
|------------------------|-------------------------|-------------------------|
|------------------------|-------------------------|--5----5--5--5--5--5--5--|
|--3--3----3--3--3----3--|--3--3----3--3--5--7--5--|-------------------------|

|--------------------------|-------------------------|---------------------------|
|--------------------------|-------------------------|------------------------8--|
|--5--5--5--5--5--5--7--5--|--3----3--3--3--3--3--3--|--3--3--3--3--3--8--10-----|
|--------------------------|-------------------------|---------------------------|

|----------------------------------|--------------------------------|
|--10--10--10--10--10--10--10--10--|--10--10--10--8-----------------|
|----------------------------------|-----------------10--8----------|
|----------------------------------|------------------------10------|

|--------------------------|------------------------|
|--------------------------|------------------------|
|--------------------------|------------------------|
|--3--3--3--3--3--3--3--3--|--3--3--3--0--3----2----|

|--------------------------|--------------------------|--------------------------|
|--------------------------|--------------------------|--------------------------|
|--------------------------|--------------------------|--------------------------|
|--0--0--0--0--0--0--0--0--|--0--0--0--0--0--0--0--2--|--3--3--3--3--3--3--3--3--|

|-------------------------|--------------------------|--------------------------|
|-------------------------|--------------------------|--------------------------|
|-------------------------|--------------------------|--------------------------|
|--3--3--3--3--3----2p-0--|--0--0--0--0--0--0--0--0--|--0--0--0--0--0--0--0--2--|

|--------------------------|--------------------------|------------------------|
|--------------------------|--------------------------|------------------------|
|--------------------------|--------------------------|------------------------|
|--3--3--3--3--3--3--3--3--|--3--3--3--3--3--3--3--0--|--3--3----3--3--3----3--|

|--------------------------|
|--------------------------|
|-----------------------5--|
|--3--3----3--3--3--5/7----|

|------------------------|------------------------|------------------------|
|------------------------|------------------------|------------------------|
|--7--7----7--7--7----7--|--7--7----7--7--7----5--|--3--3----3--3--3----3--|
|------------------------|------------------------|------------------------|

|------------------------|
|------------------------|
|--3--3----3--3--3-------|
|---------------------5--|

|--------------------------|--------------------------|------------------------|
|--------------------------|--------------------------|------------------------|
|--------------------------|--------------------------|------------------------|
|--3--3--3--3--3--3--3--3--|--3--3--3--3--3--3--3--0--|--3--3----3--3--3----3--|

|--------------------------|
|--------------------------|
|-----------------------5--|
|--3--3----3--3--3--5/7----|

|------------------------|------------------------|------------------------|
|------------------------|------------------------|------------------------|
|--7--7----7--7--7----7--|--7--7----7--7--7----5--|--3--3----3--3--3----3--|
|------------------------|------------------------|------------------------|

|------------------------|
|------------------------|
|--3--3----3--3--3-------|
|---------------------5--|

|------------------------|-------------------------|-------------------------|
|------------------------|-------------------------|-------------------------|
|------------------------|-------------------------|--5----5--5--5--5--5--5--|
|--3--3----3--3--3----3--|--3--3----3--3--5--7--5--|-------------------------|

|--------------------------|-------------------------|---------------------------|
|--------------------------|-------------------------|------------------------8--|
|--5--5--5--5--5--5--7--5--|--3----3--3--3--3--3--3--|--3--3--3--3--3--8--10-----|
|--------------------------|-------------------------|---------------------------|

|----------------------------------|--------------------------------|
|--10--10--10--10--10--10--10--10--|--10--10--10--8-----------------|
|----------------------------------|-----------------10--8----------|
|----------------------------------|------------------------10------|

|--------------------------|------------------------|
|--------------------------|------------------------|
|--------------------------|------------------------|
|--3--3--3--3--3--3--3--3--|--3--3--3--0--3----2----|

 SOLO
|--------------------------|--------------------------|--------------------------|
|--------------------------|--------------------------|--------------------------|
|--------------------------|--------------------------|--------------------------|
|--0--0--0--0--0--0--0--0--|--0--0--0--0--0--0--0--2--|--3--3--3--3--3--3--3--3--|

|--------------------------|--------------------------|--------------------------|
|--------------------------|--------------------------|--------------------------|
|--------------------------|--------------------------|-----------------------5--|
|--3--3--3--3--3--3--3--3--|--0--0--0--0--0--0--0--0--|--0--0--0--0--0--0--0-----|

|--------------------------|-------------------------------|
|--------------------------|-------------------------------|
|--3--3--3--3--3--3--3--3--|--3--3-3-3-3-3-3-3-3-3-3-3--3--|
|--------------------------|-------------------------------|

|------------------------|-------------------------|--------------------------|
|------------------------|-------------------------|--------------------------|
|------------------------|-------------------------|--------------------------|
|--3--3----3--3--3----3--|--3--3----3--3--3/-10---|--3--3----3--3--3----3-----|

|--------------------------|--------------------------|--------------------------|
|--------------------------|--------------------------|--------------------------|
|-----------------------5--|--7--7--7--7--7--7--7--7--|--7--7--7--7--7--7--7--5--|
|--3--3----3--3--3--5/7----|--------------------------|--------------------------|

|--------------------------|-------------------------------|
|--------------------------|-------------------------------|
|--3--3--3--3--3--3--3--3--|--3--3-3-3-3-3-3-3-3-3-3-3--5--|
|--------------------------|-------------------------------|

|------------------------|--------------------------|-------------------------|
|------------------------|---------5-------------5--|-------------------------|
|---------5----------5-5-|------------5----5--5-----|--5----5--5--5--5--5--5--|
|--3---------3----3------|--3--3-3------------------|-------------------------|

|--------------------------|------------------------|-------------------------|
|-----------------5--5-----|------------------------|-------------------------|
|--5--5--5--5--5--------5--|--3----3--3----3--5--3--|--3----3--3--3--3--2--3--|
|--------------------------|------------------------|-------------------------|

|-------------------------|
|-------------------------|
|--3--3--3--3----3--3--3--|
|-------------------------|

|--------------------------|-------------------------|--------------------------|
|--------------------------|-------------------------|--------------------------|
|--3--3--3--0--3--3--3--5--|-------------------------|--------------------------|
|--------------------------|--3----3--3--3--3--3--3--|--3--3--0-0-2-2-3----2----|

|--------------------------|--------------------------|
|--------------------------|--------------------------|
|--------------------------|--------------------------|
|--0--0--0--0--0--0--0--0--|--0--0--0--0--0--0--0--2--|

|--------------------------|-------------------------|----------------------------|
|--------------------------|-------------------------|----------------------------|
|--------------------------|-------------------------|----------------------------|
|--3--3--3--3--3--3--3--3--|--3--3--3--3--3-2--1----|--0--0--0--0--0--0--0--0-----|

|--------------------------|--------------------------|-------------------------|
|--------------------------|--------------------------|-------------------------|
|--------------------------|--------------------------|-------------------------|
|--0--0--0--0--0--0--0--2--|--3--3--3--3--3--3--3--3--|--3--3--3----3--3--0--2--|

 INTERLUDE
|---------------------|---------------------|----------------------|
|---------------------|---------------------|----------------------|
|---------------------|------------------5--|--7-------------------|
|--3--------3------3--|--------------5-7----|---------0--0------0--|

|-----------------------|----------------------|----------------------|
|-----------------------|----------------------|----------------------|
|-----------------7--5--|--3--------3----3--0--|--3----------0--3--0--|
|--0------0--0----------|----------------------|----------------------|

|---------------------|---------------------|-----------------------|
|---------5-----------|----------5----------|-----------------------|
|---------------------|---------------------|-----------------------|
|--3---------------3--|---------------0--2--|--3------3--3--3--3----|

|--------------------------|------------------------|-------------------------|
|--------------------------|------------------------|-------------------------|
|-----------------------5--|--7------7--7--7--7--7--|--7--7--7--7----7--5--2--|
|--3--3--3--3----3--5/7----|------------------------|-------------------------|

|----------------------|-------------------------|--------------------------|
|----------------------|-------------------------|--------------------------|
|--3------3--3------3--|--3----3--3--2--3--2--0--|--------------------------|
|----------------------|-------------------------|--3--3--3--3--3--3--3--3--|

|--------------------------|--------------------------------|
|--------------------------|--------------------------------|
|--------------------------|--17----17--17--17--17--17--17--|
|--3--3--3--3--3/-5--7--5--|--------------------------------|

|----------------------------------|----------------------------------|
|----------------------------------|----------------------------------|
|--17--17--17--17--17--16--16--15--|--13h15---15--15--15--15--15--15--|
|----------------------------------|----------------------------------|

|----------------------------------|----------------------------------|
|----------------------------------|----------------------------------|
|--15--15--15--15--15--15--15--15--|--15--15--15--15--15--15--15--15--|
|----------------------------------|----------------------------------|

|--------------------------------|----------------------------|
|--------------------------------|----------------------------|
|--15--15--15--15--15--15--------|----------------------------|
|--------------------------15---|--3--3--3--3--3--3--3--3-----|

|------------------------|--------------------------|--------------------------|
|------------------------|--------------------------|--------------------------|
|------------------------|--------------------------|--------------------------|
|--3--3--3--3--3----2----|--0--0--0--0--0--0--0--0--|--0--0--0--0--0--0--0--2--|

|--------------------------|-------------------------|--------------------------|
|--------------------------|-------------------------|--------------------------|
|--------------------------|-------------------------|--------------------------|
|--3--3--3--3--3--3--3--3--|--3--3--3--3--3----2p-0--|--0--0--0--0--0--0--0--0--|

|--------------------------|--------------------------|
|--------------------------|--------------------------|
|--------------------------|--------------------------|
|--0--0--0--0--0--0--0--0--|--3--3--3--3--3--3--3--3--|

|--------------------------||---------------------------|
|--------------------------||*--------------------------|
|--------------------------||*--------------------------|
|--3--3--3--3--3--3--3--0--||---3--3--3--3--3--3--3--3--|

                            2x
|---------------------------||--------------------------|
|--------------------------*||--------------------------|
|--------------------------*||--------------------------|
|--3--3--3--3--3--3--0--2---||--3--3--3--3--3--3--3--3--|

|--------------------------|-----------------------------|
|--------------------------|-----------------------------|
|--------------------------|-----------------------------|
|--3--3--3--3--0--2--3--0--|--3------3/-8--8/-15--15-----|

Tuesday's gone

Intro:                                                         x 12
:---------------------|---------------------|---------------------|
:---------------------|---------------------|*------Guitar-------*|
:---------------------|---------------------|*-------------------*|
:---------------------|---------------------|---------------------|
 One,   two,   three.  One,   two,   three.

                    x 3
|---------------------|---------------------:
|*------12------7----*|---------------------:
|*-------------------*|---------------------:
|---------------------|---------------0-h-2-: end Intro

Guitar Solo 1:
:---------------------|---------------------|-----------------------|
:---------------------|---------------------|-----------------------|
:---------------------|---------------------|-----------------------|
:-5-------------------|-5-----(5)----------|-0----------------------|

|---------------------|---------------------|---------------------|
|---------------------|---------------------|---------------------|
|-7-------------------|---------------------|---------------------|
|---------------0---1-|-2-------------------|-2-----------4h5-----|

|---------------------|---------------------|---------------------|
|---------------------|---------------------|---------------------|
|-5-p-4--5-p-4--5-p-4-|-5------5------------|---------------------|
|---------------------|---------------5---3-|-5-------------------|

|---------------------|---------------------|---------------------|
|-7-------------------|---------------------|---------------------|
|---------------------|---------------------|---------------------|
|--------5---5----2---|-0------0------0-----|-0----------2--5-/-7-|

|---------------------|---------------------|---------------------|
|---------------------|-7-------------------|-7-------------------|
|-5------5------5-----|--------5------5-----|--------5------5-----|
|---------------------|---------------------|---------------------|

|---------------------:
|-7-------------------:
|---------------------:
|---------------------: end Guitar Solo 1

Verse 1:
|---------------------|---------------------|-----------------------|
|---------------------|---------------------|-----------------------|
|---------------------|---------------------|-----------------------|
|-5-------------------|-5---------5---5----|-0-------------0--------|

|---------------------|---------------------|-----------------------|
|---------------------|---------------------|-----------------------|
|-7-------------------|---------------------|-----------------------|
|--------0------7--0-|-2-------------------|-2---------2--2---5-----|

|---------------------|---------------------|---------------------|
|---------------------|---------------------|---------------------|
|-5---------5--5---3--|-5---------5---------|---------------------|
|---------------------|--------------0---3--|-5-------------------|

|---------------------|---------------------|-----------------------|
|---------------------|---------------------|-----------------------|
|---------------------|---------------------|-7------------7--0-----|
|-5---------5---5-----|-0-------------0-----|-----------0-----------|

|---------------------|---------------------|---------------------|
|---------------------|-7-------------------|-7-------------------|
|-5------5------5-----|--------5------5-----|--------5------5-----|
|---------------------|---------------------|---------------------|

|---------------------|---------------------|-----------------------|
|-------------4---5---|---------------------|-7---------7--(7)------|
|-5------5------------|---------------------|---------------5-------|
|---------------------|-5-------------5-----|-----------------------|

|---------------------|---------------------|---------------------|
|---------------------|---------------------|---------------------|
|---------------------|-7-------------------|---------------------|
|-0------0------0-----|------0---0--2---0---|-2----2---2--2---2---|

|---------------------|---------------------|---------------------|
|---------------------|---------------------|---------------------|
|---------------------|-5------5------5-----|-5-------------------|
|-2-----------5---7---|---------------------|-------------0---3---|


|---------------------|---------------------|---------------------|
|---------------------|---------------------|---------------------|
|---------------------|---------------------|---------------------|
|-5-------------5-----|-5--------5----5-----|-0-------------0-----|


|---------------------|---------------------|---------------------|
|---------------------|---------------------|---------------------|
|-7-------------------|-5------5------5-----|-5--------5----5-----|
|-----------0--5-/-7--|---------------------|---------------------|


|---------------------|---------------------:
|---------------------|-----------------5---:
|-5----5---5--5---5---|-5------5----7-------:
|---------------------|---------------------: end Verse 1

Chorus 1:
:---------------------|---------------------|-----------------------|
:---------------------|---------------------|-----------------------|
:---------------------|---------------------|-----------------------|
:-5------5------5-----|-5--------5----5----|-3------3------3--------|


|---------------------|---------------------|---------------------|
|-5-------------------|---------------------|-7-------------------|
|---------------------|-5------5------5-----|-5--------5----5-----|
|---------3---5-/-7---|---------------------|---------------------|


|---------------------|---------------------|---------------------|
|-7-------------------|-7-------------------|---------------------|
|-5-----------5---5---|-5------5------------|---------------------|
|---------------------|-------------0---3---|-5------5------5-----|


|---------------------|---------------------|-----------------------|
|---------------------|---------------------|-----------------------|
|---------------------|---------------------|-7---------------------|
|-5--------5----5----|-0------0------0-----|----------0--5-/-7------|


|---------------------|---------------------|---------------------|
|---------------------|-7-------------------|-7-------------------|
|-5------5------5-----|-5--------5----5-----|-5--------5----5-----|
|---------------------|---------------------|---------------------|


|---------------------:
|-7-------------------:
|-5-------------------:
|---------------------: end Chorus 1

Guitar Solo 2:
:---------------------|---------------------|-----------------------|
:---------------------|---------------------|-----------------------|
:---------------------|---------------------|-----------------------|
:-5-------------------|-5------------(5)---|-0----------------------|

|---------------------|---------------------|---------------------|
|---------------------|---------------------|-4-------------------|
|-7-------------------|---------------------|---------------------|
|---------------0-----|-2-------------2-----|-------------2---0---|

|---------------------|---------------------|---------------------|
|---------------------|---------------------|---------------------|
|-5-p-4--5-p-4--5-p-4-|-5-------------------|---------------------|
|---------------------|-------------0---3---|-5-------------------|

|---------------------|---------------------|---------------------|
|---------------------|---------------------|---------------------|
|---------------------|---------------------|-7-------------------|
|-5--------5--5---2---|-0-----------0---0---|-0--------0----2--/--|

|---------------------|---------------------|---------------------|
|--------7----7---7---|--------7----7---7---|--------7----7---7---|
|-5------5----5---5---|-5------5----5---5---|-5------5----5---5---|
|---------------------|---------------------|---------------------|

|---------------------:
|---------------------:
|-5------5------------:
|-------------0---2---: end Guitar Solo 2

Verse 2, 3:
:---------------------|---------------------|-----------------------|
:---------------------|---------------------|-----------------------|
:---------------------|---------------------|-----------------------|
:-5-------------------|-5------------(5)---|-0-------------0--------|

|---------------------|---------------------|---------------------|
|---------------------|---------------------|---------------------|
|-7-------------------|---------------------|-4-------------------|
|----------0---0---0--|-2-------------2-----|-----------2---5-/-7-|

|---------------------|-----------------------|
|---------------------|-----------------------|
|-5------5------5-----|-5------5------5--3----|
|--------5------5-----|-5---------------------|

|---------------------|---------------------|---------------------|
|---------------------|---------------------|---------------------|
|---------------------|---------------------|---------------------|
|-5-------------------|-5---------5---5-----|-0-------------0-----|

|---------------------|---------------------|---------------------|
|---------------------|---------------------|-7--------7--7---7---|
|-7-------------------|-5------5------5-----|-5--------5--5---5---|
|-----------0---0-----|---------------------|---------------------|

|---------------------|---------------------|---------------------|
|-7--------7--7---7---|-7------7------------|---------------------|
|-5--------5--5---5---|-5------5------------|---------------------|
|---------------------|-------------0---3---|-5-------------------|

|---------------------|---------------------|-----------------------|
|---------------------|---------------------|-----------------------|
|---------------------|---------------------|-7---------------------|
|-5------------(5)---|-0-----------0---0---|--------0----0----0-----|

|---------------------|---------------------|---------------------|
|---------------------|---------------------|---------------------|
|---------------------|-4-------------------|-5----5---5---5---5--|
|-2------2------2-----|----------2--5-/-7---|---------------------|

|---------------------|---------------------|-----------------------|
|-7------7------------|---------------------|-----------------------|
|-5------5------------|---------------------|-----------------------|
|-------------0---3---|-5-------------5-----|-5----------5--5-------|

|---------------------|---------------------|---------------------|
|---------------------|---------------------|--------7----7---7---|
|---------------------|-7-------------------|-5------5----5---5---|
|-0-----------0---0---|-0-----------5-/-7---|---------------------|

|---------------------|---------------------|---------------------:
|-7--------7--7---7---|-7--------7--7---7---|-7------7------------:
|-5--------5--5---5---|-5--------5--5---5---|-5------5------------:
|---------------------|---------------------|-------------0---3---:

Chorus:
:---------------------|---------------------|-----------------------|
:---------------------|---------------------|-----------------------|
:---------------------|---------------------|-----------------------|
:-5----------5--5-----|-5---------5---5----|-3----------------------|

|---------------------|---------------------|---------------------|
|---------------------|---------------------|-7-------------------|
|---------------------|-5------5------5-----|-5--------5----5-----|
|-3-----------5-/-7---|---------------------|---------------------|

|---------------------|---------------------|-----------------------|
|-7--------7--7---7---|-7------7------------|-----------------------|
|-5--------5--5---5---|-5------5----5--3---|------------------------|
|---------------------|---------------------|-5------5------5-------|

|---------------------|---------------------|-----------------------|
|---------------------|---------------------|-5---------------------|
|---------------------|---------------------|-----------------------|
|-5--------5----5----|-3------3------3-----|--------3------3--------|

|---------------------|---------------------|---------------------|
|---------------------|---------------------|---------------------|
|-5---------5---5-----|-5---------5---5--5--|-5-----------5---5---|
|---------------------|---------------------|---------------------|

|---------------------|---------------------|-----------------------|
|---------------------|---------------------|-----------------------|
|-5------5------------|---------------------|-----------------------|
|-------------0---3---|-5------5------5-----|-5---------5---5-------|

|---------------------|---------------------|---------------------|
|---------------------|-5-------------------|---------------------|
|---------------------|---------------------|-5------5------5-----|
|-3------3------3-----|--------3------3-----|---------------------|

|---------------------|---------------------|---------------------|
|---------------------|-7--------7----------|---------------------|
|-5---------5---5--5--|-5--------5--5---5---|-5------5----7-------|
|---------------------|---------------------|-----------------0---|

|---------------------|---------------------|---------------------|
|---------------------|---------------------|---------------------|
|---------------------|---------------------|---------------------|
|-5-------------5-----|-5------5------5-----|-0-------------0-----|

|---------------------|---------------------|---------------------|
|---------------------|---------------------|-7-------------------|
|-7-------------------|-5---------5---5--5--|-5------5------5-----|
|-----------0--5-/-7--|---------------------|---------------------|

|---------------------|---------------------:
|---------------------|---------------------:
|-5------5------5-----|-5-------------------:
|---------------------|-5------0------3-----:

Harmonica Solo:
:---------------------|---------------------|-----------------------|
:---------------------|---------------------|-----------------------|
:---------------------|---------------------|-----------------------|
:-5-------------5-----|-5----------5--5----|-0-------------0--------|

|---------------------|---------------------|---------------------|
|---------------------|---------------------|-4-------------------|
|-7-------------------|---------------------|---------------------|
|-0----------0--0-----|-2-------------2-----|------------2--5-/-7-|

|---------------------|---------------------|---------------------|
|---------------------|---------------------|---------------------|
|-5------5-p-4--5-p-4-|-5------5---5--5-----|---------------------|
|---------------------|------------------3--|-5-------------5-----|

|---------------------|---------------------|---------------------|
|---------------------|---------------------|---------------------|
|---------------------|---------------------|-7-------------------|
|-5----------5--5--5--|-0-------------------|------------0--0---1-|

|---------------------|---------------------|---------------------|
|---------------------|---------------------|---------------------|
|---------------------|---------------------|---------------------|
|-2------2------2-----|-2------2--2--2--2---|-3------3------3-----|

|---------------------|---------------------|-----------------------|
|---------------------|---------------------|-----------------------|
|---------------------|---------------------|-----------------------|
|-3------3------3--4--|-5----------5--5-----|-5----------5--5-------|

|---------------------|---------------------|---------------------|
|---------------------|---------------------|---------------------|
|---------------------|-7-------------------|---------------------|
|-0----------0--0---0-|------------0--0---0-|-2------2---2--2---2-|

|---------------------|---------------------|---------------------|
|-4-------------------|---------------------|---------------------|
|---------------------|-5-p-4--5---4--5---4-|-5------5--3--5------|
|--------2------2-5/7-|---------------------|-----------------0---|

|---------------------|---------------------|-----------------------|
|---------------------|---------------------|-----------------------|
|---------------------|---------------------|-----------------------|
|-5----------5--5-----|-5----------5--5----|-0------------0---------|

|---------------------|---------------------|---------------------|
|---------------------|---------------------|---------------------|
|-7----------7--------|-5-------------------|---------------------|
|---------------5-/-7-|--------2------2-----|-2------2-----2---2--|

|---------------------|---------------------:
|---------------------|---------------------:
|---------------------|---------------------:
|-3---3--3---3--3---3-|-3------3------3-----:

Coda 1:
|---------------------:
|---------------------:
|-5-------------------:
|---------------0---3-:

Coda 2:
|---------------------|---------------------|---------------------|
|---------------------|---------------------|---------------------|
|-5------5---3--5---3-|-5----5---3----------|---------------------|
|---------------------|-------------0--0--3-|-5-------------5-----|

|---------------------|---------------------|---------------------|
|---------------------|---------------------|---------------------|
|---------------------|---------------------|-7-------------------|
|-5------5------5-----|-0-------------0---0-|-0-------------5-/-7-|

|---------------------|---------------------|---------------------|
|---------------7-----|-7-------------------|---------------------|
|-5------5------5-----|-5-----------5-5-----|-5------5------------|
|---------------------|---------------------|---------------0---3-|

Interlude:
|---------------------|---------------------|---------------------|
|*--------------------|---------------------|---------------------|
|*--------------------|---------------------|---------------------|
|-5------5---5--5---5-|-5----------5--5-----|-0-------------------|

|---------------------|---------------------|---------------------|
|---------------------|--------7------7-----|-7----------7--7---7-|
|-7-------------------|-5------5------5-----|-5----------5--5---5-|
|------------0--5-/-7-|---------------------|---------------------|

                       1.
                      |-7-------------------|-7-------------------|
                      |-7-------------------|-7------------------*|
                      |-5----5---5--5---5---|-5----5---5---------*|
                      |---------------------|-------------0---3---|

                       2.
                      |-7-------------------|---------------------|
                      |-7-------------------|--------------------*|
                      |-5----5---5--5---3---|-5------5-----------*|
                      |---------------------|-------------0---3---|

                       3.
                      |---------------------|---------------------|
                      |---------------------|--------------------*|
                      |-5----5---5--5---3---|-5----5---5---------*|
                      |---------------------|-------------0---3---|

                       4.
                      |-7------7------7-----|-7------7------------:
                      |---------------------|---------------------:
                      |-5------5------5-----|-5------5----5-------:
                      |---------------------|-----------------0---:

Guitar Solo 3:
|---------------------|---------------------|---------------------|
|*--------------------|---------------------|---------------------|
|*--------------------|---------------------|---------------------|
|-5------5------5-----|-5------5---5--5-----|-0------0------0-----|

|---------------------|---------------------|---------------------|
|---------------------|---------------7-----|-7------7----7---7---|
|-7-------------------|-5------5------5-----|-5------5----5---5---|
|--------0------0---5-|---------------------|---------------------|

                                      4 Times
|---------------------|---------------------|---------------------|
|-7------7------7-----|-7------7-----------*|---------------------|
|-5------5------5-----|-5------5-----------*|---------------------|
|---------------------|---------------0---3-|-5------5----5---5---|

|---------------------|---------------------|-----------------------|
|---------------------|---------------------|-----------------------|
|---------------------|---------------------|-7-------------7-------|
|-5----5---5----5-----|-0------0------0-----|--------0--------------|

|---------------------|---------------------|---------------------|
|---------------------|---------------------|---------------------|
|-5------5------5-----|-5--------5--5---3---|-5------5----5---3---|
|---------------------|---------------------|---------------------|

|---------------------|---------------------|---------------------|
|---------------------|---------------------|---------------------|
|-5------5------------|---------------------|---------------------|
|---------------0---3-|-5------5------5-----|-5----------5--5--/--|

|---------------------|---------------------|-----------------------|
|---------------------|---------------------|---------------7-------|
|-7-------------------|---------------9--7-|-5------5------5--------|
|-0-------------0-----|-0-------------------|-----------------------|

|---------------------|---------------------|---------------------:
|-7------7------7-----|-7--------7--7---7---|-7-------------------:
|-5------5------5-----|-5--------5--5---5---|-5-------------------:
|---------------------|---------------------|---------------0---3-:

Outro:
|---------------------|---------------------|---------------------|
|---------------------|---------------------|---------------------|
|---------------------|---------------------|-7-------------------|
|-5-------------------|-5--------5--5-/-7---|---------------------|

|---------------------|---------------------|---------------------|
|---------------------|--------------12-----|--------------12-----|
|-7------7------7-----|-------12------------|-------12------------|
|---------------------|---------------------|---------------------|

|--------------11-----|-------11------------|-----------------------|
|-------12------------|12------------12----|------------------------|
|---------------------|---------------------|-----------------------|
|---------------------|---------------------|--------5--------------|

|---------------------|---------------------|---------------------|
|---------------------|---------------------|---------------------|
|---------------------|---------------7-----|---------------------|
|-5-------------------|-0-------------------|-0-------------------|

|---------------------|-7-------------------|---------------------|
|--------7------------|---------------7---5-|---------------------|
|-5-------------5-----|---------------------|-5-------------------|
|---------------------|---------------------|---------------------|

                       4/4
|---------------------|--------------------------------|
|---------------------|--------------------------------|
|-5-------------------|-----------------7--------------|
|--------3------4-----|-5------------------------------|

|--------------------------------|--------------------------------|
|--------------------------------|--------11----------------------|
|-7--------------(7)------/------|12--------------12--------------|
|--------------------------------|--------------------------------|

|--------------------------------|--------------------------------|
|----11--------11--------11------|--------------------------------|
|12----------12--12----------12--|--------------------------------|
|--------------------------------|--------------------------------|

|-x------------------------------:
|--x-----------------------------:
|---x----------------------------:
|----X---------------------------: End

the more I see

Tune down 1 1/2 step
Intro:
:--------------------------------|--------------------------------|
:--------------------------------|*-------------------------------|
:--------------------------------|*-------------------------------|
:-----------------------------6--|-6-p-5---6-p-5---6-p-5-------3--|

                                 |Fig.1
|--------------------------------|--------------------------------|
|--------------------------------|--------------------------------|
|--------------------------------|--------------------------------|
|-----0---0---0---0---0---0---6--|-6-p-5---6-p-5---6-p-5---x---3--|

 1. -6.                 end Fig.1| 7.
|--------------------------------|--------------------------------|
|-------------------------------*|--------------------------------|
|-------------------------------*|--------------------------------|
|-----0---0---0---0---0---0---6--|-----0---0---0---0---0---0---6--|

Repeat Fig.1 x 10

Verse 1, 2:

   Repeat Fig.1 x 4

Chorus:
:Fig.2                                                   end Fig.2|
:--------------------------------|--------------------------------| x 3
:--------------------------------|--------------------------------|
:--------------------------------|--------------------------------|
:-----0---0---0---0---0---0---5--|-----0---0---0---0---0---0---6--|

 1.
|--------------------------------|--------------------------------|
|--------------------------------|--------------------------------|
|--------------------------------|--------------------------------|
|-----0---0---0---0---0---0---5--|-----0---0---0---0---0---0---6--|

 Repeat Fig.1 x 4
 Repeat Verse

 2.
|--------------------------------|--------------------------------:
|--------------------------------|--------------------------------:
|--------------------------------|--------------------------------:
|-----0---0---0---0---0---0---5--|-----0---0---0---0---0---0---0--:

Interlude:
:--------------------------------|--------------------------------|
:*-------------------------------|--------------------------------|
:*-------------------------------|--------------------------------|
:-6-------6---6---6---6---6---6--|-6---6---6---6---6---6---6---5--|

|--------------------------------|--------------------------------|
|--------------------------------|--------------------------------|
|-7-------7---7---7---7---7---7--|-7-/10--10--10--10--10---7---0--|
|--------------------------------|--------------------------------|

|--------------------------------|--------------------------------|
|--------------------------------|--------------------------------|
|--------------------------------|--------------------------------|
|-6-------6---6---6---6---6---6--|-6---6---6---6---6---6---6---5--|

 1.                              |2.
|--------------------------------|--------------------------------:
|-------------------------------*|--------------------------------:
|-------------------------------*|-7---7---7---7---7---7----------:
|-0---0---0---0---0---0---0---0--|-------------------------0---6--:

Repeat Fig.1 x 4

Chorus:

   Repeat Fig.2 x 4
   Repeat Fig.1 x 4

Interlude:

   Repeat Fig.1 x 4
   Repeat Fig.2 x 2

Chorus:

   Repeat Fig.2 x 3 then:
|--------------------------------|--------------------------------|
|--------------------------------|--------------------------------|
|--------------------------------|--------------------------------|
|-----0---0---0---0---0---0---5--|-----0---0---0---0---3---5---6--|

Outro:

   Repeat Fig.1 x 7 then:
|--------------------------------|----|----|----:
|--------------------------------|----|----|----:
|--------------------------------|----|----|---7:
|-6-p-5---6-p-5---6-p-5---0---3--|----|----|---0:

Now, in 19 sec., you must tune your bass 1/2 step down (Eb, Ab, Db, Gb)

Final Solo (I love it):
|--------------------------------|--------------------------------|
|--------------------------------|-----------------5--------------|
|-----------------7--------------|-7---5---------------7---5-h-7--|
|-0-------------0----------------|---------7----------------------|

|--------------------------------|--------------------------------|
|--------------------------------|-----5--------------------------|
|-----------------7-----------7--|-7-------7-------5--------------|
|-0-------0----------------------|---------------------7---5------|

|--------------------------------|--------------------------------|
|--------------------------------|-------------------------5------|
|-----------------7--------------|--------------------------------|
|-0-------0----------------------|-0-------0---0---5-h-7----------|

|--------------------------------|--------------------------------|
|--------------------------------|--------------------------------|
|--------------------------------|-----------------7---5----------|
|-0---------------0--------------|-0-----------0-----------7---3--|

|--------------------------------|----------------------------------|
|--------------------------------|---------------------5------------|
|-----------------7--------------|--------(7)-5---------------------|
|-0-------0----------------------|-------------------------3--------|

|--------------------------------|--------------------------------|
|--------------------------------|--------------------------------|
|---------------7-7-----------7--|10---7-b10-----------7---5------|
|-0------------------------------|--------------------------------|

|--------------------------------|----------------------------------|
|-------------------------5------|----------------------------------|
|--------------------------------|----------------7--5--------------|
|-0---------------5-h-7----------|------------------------b3--------|

|--------------------------------|--------------------------------|
|--------------------------------|--------------------------------|
|-------------------------5------|---------7-------7---5---7------|
|-0-------0-------5-h-7----------|--------------------------------|

|--------------------------------|--------------------------------|
|-------------------------5------|---------5----------------------|
|--------------------------------|-----------------7---5----------|
|-0-------0-------5-h-7----------|-------------------------3------|

|--------------------------------|--------------------------------|
|--------------------------------|--------------------------------|
|-------------------------5------|--------b7-------7---5----------|
|-0-------0-------5-h-7----------|-------------------------7---5--|

|--------------------------------|----------------------------------|
|-------------------------5------|-------5/7------11--7---5---------|
|-----------------5-h-7----------|----------------------------------|
|-0------------------------------|----------------------------------|

|--------------------------------|--------------------------------|
|--------------------------------|--------------------------------|
|-----------------5-h-7---5------|---------5----------------------|
|-0-------0----------------------|-------------0---5---7---5---3--|

|--------------------------------|--------------------------------|
|-------------------------5------|---------5-------7---5----------|
|-----------------5-h-7----------|-------------------------7------|
|-0-------0---0------------------|--------------------------------|

|--------------------------------|--------------------------------:
|--------------------------------|--------------------------------:
|-----------------5-----5h7------|-------5h7---5------------------:
|-0-----------0------------------|-----------------7---6---5---3--: End

-----------------------------------------------------------------------

the guys who tabbed the songs
free speech for the dumb- ronny doucet
it's electric- chris parker
sabbra cadabra- eros fratini
turn the page- asfin
die die my darling- eros fratini
loverman- eros fratini
mercyful fate medley- MigiT
astronomy- peter klein
whiskey in the jar- felix pflaum
Tuesday's gone- matt w
The more I see- eros fratini

The guy who put all theis shit together
Big tommy p

I bet you've all had enough of my lame jokes, so 

\\\\\\\\\\\\\\\\\\\\\\\\\\\\\\\\\\\\\\\\\\\\\\\\\\\\\\\\\\\\\\

Metallica
Garage inc disc 2 (the complete garage days)

Helpless

Intro: Fast

G|---------|
D|---------|
A|---------|
E|-5-7-7p5-|


Main Bass Fig.
                                12X (times)
G|---------------------------------|
D|---------------------------------|
A|---------------------------------|
E|-2-2p0-0-2-2p0-0-2-2p0-0-5-7-7p5-|


Bridge into Chorus (or Pre-Chorus)

G|---------------------|------------------------------|
D|-------------------2-|-----------2-4--4-2-----------|
A|-----5-------2-3-5---|-------2-5----------4-3-2-----|
E|-2-----0-2-3---------|-0-2-3--------------------5-2-|

G|---------------------|-------------------------|
D|-------------------2-|-----------2-4--44444444-|
A|-----5-------2-3-5---|-------2-5---------------|
E|-2-----0-2-3---------|-0-2-3-------------------|


Chorus:EXTREMELY FAST

G|------------------------|---|---|----------------------|
D|o-777777777p5---------5-|-%-|-%-|-77777777-----------o-|
A|o-------------7-6-7-6---|---|---|--------------------o-|
E|------------------------|---|---|----------2-2-R-4-4---|


Main Bass Fig. 10X

Pre-Chorus, Chorus

Main Bass Fig. 4X


Bass Solo (Break)  8X
G|------------------|
D|------------------|
A|----0-2p0---0-2p0-|
E|-2--------2-------|

                   4X
G|------------------|
D|------------------|
A|----1-3p1---1-3p1-|
E|-3--------3-------|

                   4X
G|-----------------|
D|-----------------|
A|---2-4p2---2-4p2-|
E|-4-------4-------|

                   4X
G|-----------------|
D|-----------------|
A|---3-5p3---3-5p3-|
E|-3-------3-------|

                   2X
G|-----------------|
D|-----------------|
A|---2-4p2---2-4p2-|
E|-4-------4-------|

                   2X
G|-----------------|
D|-----------------|
A|---3-5p3---3-5p3-|
E|-5-------5-------|

G|-----------------------------------------------|
D|--------------5----3----3----------------------|
A|---2----3---7----5----1------------------------|
E|-4----5--------------------5-3-5-7---3-5-7---0-|


             3X, then
G|-------------|---------|
D|-------4444-|----------|
A|-5-3-5-------|-5-3-5---|
E|-------------|---------|

Now, after that huge break, there's a whole new part to the song...you do
this really long part twice, starting below.

                                      4X
G|-------------------------------------|
D|-----------------------------------2-|
A|---------------------2-2-2-2-2-5-2---|
E|-2-2-2-2-2-5-5-5-5-5-----------------|


G|-------------------------------------|
D|---------------------------------2---|
A|---------------------2-2-2-2-2-5---5-|
E|-2-2-2-2-2-5-5-5-5-5-----------------|

G|----------------------------------------|
D|----------------------------------------|
A|---------------------2-2-2-2-2----------|
E|-2-2-2-2-2-5-5-5-5-5-----------0x-0x-0x-|

G|-------------------------------------|---|
D|---------------------------------2---|-%-|
A|---------------------2-2-2-2-2-5---5-|---|
E|-2-2-2-2-2-5-5-5-5-5-----------------|---|

G|----------------|---|-------------|---------------|
D|------------2---|-%-|-------3-2-|-4-2-------------|
A|-44444444-5---5-|---|-4-5-------|-----4-3-2-------|
E|----------------|---|-------------|-----------5---|

(That is the end of the big part you do twice-----/ )


Now do below, which is basically Main Bass Fig. 4X, with a little fill
on the 4th time.

G|---------------------------------|---|---|-----------------------------|
D|---------------------------------|-%-|-%-|-----------------------------|
A|---------------------------------|---|---|-----------------22222-------|
E|-2-2p0-0-2-2p0-0-2-2p0-0-5-7-7p5-|---|---|-2-2p0-0-2-2p0-0-------0-0-0-|


Now do Main Bass Fig. 8X, which is part of the beginning of the guitar
solo; the rest of the guitar solo is below.


G|-------------------------------------|
D|---------------------------------2---|
A|---------------------2-2-2-2-2-5---5-|
E|-2-2-2-2-2-5-5-5-5-5-----------------|

G|----------------------------------------|
D|----------------------------------------|
A|---------------------2-2-2-2-2----------|
E|-2-2-2-2-2-5-5-5-5-5-----------0x-0x-0x-|

G|-------------------------------------|---|
D|---------------------------------2---|-%-|
A|---------------------2-2-2-2-2-5---5-|---|
E|-2-2-2-2-2-5-5-5-5-5-----------------|---|

G|----------------|---|-------------|---------------|
D|------------2---|-%-|-------2-3-|-4-2-------------|
A|-44444444-5---5-|---|-4-5-------|-----4-3-2-------|
E|----------------|---|-------------|-----------5---|


Now, right when guitar solo stops and you're done with the above, go
back to Main Bass Fig. 4X


After that, do below lick, slowly and loudly.

G|-------------------------|---|-----------------------------|
D|-------------------------|-%-|-----------------------------|
A|-------------------------|---|-----------------------------|
E|-2-2---2-2---2-2---2-0-0-|---|-2-2---2-2---2-2---2-2---2-2-|

Do this slowly also, but fade out.
|-----------------------------|
|-----------------------------|
|-----------------------------|
|-2-2---2-2---2-2---2-2---2-2-|

the small hours

Tune down 1 full step

At one point in the same section of every Verse, there is a different bass fill each time.
They are at the bottom of the tabs (all six fills).

/--------------------------------------Verse------------------------------------------------

            Bass Part 1                                  where
   /-----------------------------                  /-fill goes- /--Part 1

F|------------------------|-------|-------|-------|--------------|----------|-----|
C|------------------------|---%---|---%---|---%---|--------------|----------|--%--|
G|------------------------|-------|-------|-------|--------------|----------|-----|
D|--0-0--2h3-2h3--0-0--3--|-------|-------|-------|--------------|----------|-----|


  Chorus--------------------------------------------------------------

F|----------------------------------|-----------------------------------|
C|-o--------------------------------|---------------------------------o-|
G|-o----------------5---------------|--------------5-------7---7h8p7--o-|
D|----0-0-0---5-7-----7-5-7--5-3----|--0-0-0---5-7----7-5---------------|

After these, there's a break and then a speeded up riff which serves as a guitar solo.......

                4 times,  then
F|----------------|-------|
C|----------------|-------|
G|----------------|-------|
D|--0-----1---2-1-|-(0)---|

      (this is the speeded up riff)
F|------------------------------|--------------------------------|
C|------------------------------|--------------------------------|
G|------------------------------|--------------------------------|
D|--0-000-000-000-000-006-0-008-|--0-000-000-000-000-006-0-0032--|

Play the above speed riff again and again until immediately after solo stops, then


F|-------------------------------|
C|-------------------------------|
G|-------------------------------|
D|--0-000-000-000-000-006-0-008--|

F|-------------------------------------------|------------------------|
C|-------------------------------------------|------------------------|
G|-------------------------------------------|------------------------|
D|--0-000-000-000-000-008--0-0010--|--0-000-000-000-000-0010--0-0012--|

F|---------------------------------|
C|---------------------------------|
G|---------------------------------|
D|--0-000-000-000-000-0012--0-012--|

Then back to the verse, chorus and then closing riff, which is directly below:

              3 times,   then
F|--------------------|---------------------------|
C|--------------------|---------------------------|
G|--------------------|----------------------1----|
D|--0----0-1-2---2-1--|--0----0-1-2---2-1------0--|


   /--Fill 1------------|
F|----------------------|
C|----------------------|
G|-----5----------------|
D|--/7----7-5---3---1---|


    /--Fill 2--------------------------|
F|-------------------------------------|
C|--------3h5-------5-------5-----4----|
G|--3h5-------5p3----------------------|
D|-----------------------3-----2-------|

    /--Fill3----------------------|
F|--------------------------------|
C|--------------------------------|
G|-7----------5-7-5---------------|
D|-------5h7---------5---3---1----|


  /--Fill 4----------------------|
F|-------------------------------|
C|-------3h5---------------------|
G|--3h5------5-------------------|
D|-----------------5---3--2--1---|

    /--Fill 5-------------------|
F|------------------------------|
C|-------------------------22---|
G|-------1h3--------------------|
D|--3h5-------3-3---2---1-------|


    /--Fill 6---------------------------------------------|
F|--------------------------------------------------------|
C|--------4h6---------------------------------------------|
G|--4h6-------4-------------------------------------------|
D|-----------------5---3-3-3-3-3-3-3-3-2-2-2-2-1-1-1-1----|

(on the last fill, 6, pluck the hammer-on's really strong, then slow down,
 then on the rapidly declining low notes, go pretty fast.)


the wait

Intro: Fast

G|--------------------------|
D|--------------------------|
A|--------------------------|
E|-/8-0-----12-00-----1/----|

Verse: Fast (percussive; emphasize the notes with ( ) around them)

G|--------------------------------------------------|
D|----------------------------------------------3---|
A|---------------------------------------3---3------|
E|-0-(0)-0-0-(0)-0-0-(0)-0-(0)-0-0---1--------------|
                                   ------/----------|A lot of times this
                                                 whole end part is made
G|-----------------------------------------|        higher like down here:
D|--------------------------------------| -|
A|--------------------------------------| -|
E|-0-(0)-0-0-(0)-0-0-(0)-0-(0)-0-0-1111-| -|


A lot of times a (2)
is stuck in here
          /---------------------------------------------------------|
G|------------------------------------------------------------------|
D|-------5----------------------------------------------------------|
A|-3---3------------------------------------------------------------|
E|---1--------------------------------------------------------------|

Chorus:

G|----------------------------------------------------------|
D|o---------------------------------------3-3-3-3-3-3-----o-|
A|o-0-0-0-0-2---0-0-0-0-3---0-0-0-0---------------------0-o-|
E|----------------------------------------------------------|

G|-----------------------------------------------|
D|---------------------------------------------o-|
A|-0-0-0-0-2---0-0-0-0-3---0-0-0-0-------------o-|
E|---------------------------------1--1-1--111---|


Sometimes the A|-0-0-0-0- 's go A|-000-0-0- (if you don't understand what
I mean by this, mail me).


Somewhere along the line, after a few Verses and Chorus's, there is a break
like below:

G|------------|-------------|------------|-----------------|--------------|
D|------------|-------------|------------|---------5-------|--------------|
A|------------|-------------|------------|-------7---7-5---|--------------|
E|-00---------|-00--1111----|-00---------|-00------------7-|-0------------|

G|----8---------------------------|----------------|
D|-11---11----7---5---5-----------|----------------|
A|---------------------7---7-5----|----------------|
E|------------------------------7-|-0--------------|


Then you do a lot of stuff like:

G|--------------------------------------|
D|----------------------------3-3-3-3-2-|
A|--------------------------------------|
E|-0-0-0-0-0-0-0-0-0-0-0-0-0------------|

And stuff like:

G|-----------------------------------------|
D|---------------------------------------3-|
A|---------------------------------3---3---|
E|-0-0-0-0-0-0-0-0-0-0-0-0-0---1-----------|


Just be inventive, and go with the flow of the song. It'll go in and out
of muffled parts and the Main Verse.


Also, after the first, slow wa-wa solo, there is a muffled part for a while.
Then do the bass lick below, to open it up to the next, faster, solo.

G|-----------------|
D|----5-7-5--------|
A|-7---------7-5---|
E|---------------7-|


The end, after one last Chorus, goes like:

G|-------------------|
D|-------------------|
A|-------------------|
E|-0----------X-X----|

G|-------------------------------------------|
D|---------------------------------------(5)-|

Crash course in brain surgery

Tune Down 1 whole step
Intro:
|-------------------------7---8--|-9------------------------------|
|*------------7---8---9----------|-----7---8---9---7---8---9-----*|x 4
|*7---8---9----------------------|-------------------------------*|
|--------------------------------|--------------------------------|

2/4
|----------------|
|----------------|
|----------------|
|----------------|

|Fig.1  4/4                                              end Fig.1|
|--------------------------------|--------------------------------|
|*-------------------------------|--------------------------------|
|*-------------------------------|--------------------------------|
|-0-h-2---2---2-------2-------2--|-0-h-2---2---2-------2-------2--|

|Fig.1A                                                 end Fig.1A|
|--------------------------------|--------------------------------|
|--------------------------------|--------------------------------|
|--------------------------------|-----------------------------4--|
|-0-h-2---2---2-------2-------2--|-0-h-2---2---2-------2----------|

1.|--------------------------------|--------------------------------|
  |-4---2--------------------------|-------------------------------*|
  |-----------------4---2----------|-------------------------------*|
  |--------------------------------|-5---2-----------0---1----------|

                                   2/4
2.|--------------------------------|----------------|
  |-4---2--------------------------|----------------|
  |-----------------4---2----------|----------------|
  |--------------------------------|-5---2----------|

4/4                              * To Coda
|--------------------------------|----------------------------------|
|--------------------------------|----------------------------------|
|--------------------------------|----------------------------------|
|-0------------------------------|-1--------------(1)/-x-x-19-------|

Repeat Fig.1 x 2

Verse 1, 2:

Repeat Fig.1 x 6

|--------------------------------|--------------------------------|
|*-------------------------------|--------------------------------|
|*-------------------------------|--------------------------------|
|-3-h-5---5---5-------5-------5--|-3-h-5---5---5-------5-------5--|

|--------------------------------|--------------------------------|
|--------------------------------|--------------------------------|
|--------------------------------|--------------------------------|
|-3-h-5---5---5-------5---5---5--|-3---0--------------------------|

|--------------------------------|----------------------------------|
|--------------------------------|----------------------------------|
|--------------------------------|----------------------------------|
|12------12------1212121212-----|-----------------------------------|

Coda:
|--------------------------------|--------------------------------|
|--------------------------------|--------------------------------|
|--------------------------------|--------------------------------|
|-1------------------------------|-2------------------------------|

|--------------------------------|--------------------------------|
|--------------------------------|--------------------------------|
|--------------------------------|--------------------------------|
|--------------------------------|-2------------------------------|

|--------------------------------|--------------------------------|
|--------------------------------|--------------------------------|
|--------------------------------|--------------------------------|
|--------------------------------|-1---2--------------------------|

|--------------------------------|--------------------------------|
|--------------------------------|--------------------------------|
|--------------------------------|--------------------------------|
|--------------------------------|-3---2--------------------------|

|----------------------------------|
|----------------------------------|
|----------------------------------|
|-2---/-------------------X--------|

Guitar Solo:
|--------------------------------|--------------------------------|
|*-------------------------------|--------------------------------|
|*-------------------------------|--------------------------------|
|-3-h-5---5---5-------5-------5--|-3-h-5---5---5-------5-------5--|

                                  1.
|--------------------------------|--------------------------------|
|--------------------------------|-------------------------------*|
|--------------------------------|-------------------------------*|
|-3-h-5---5---5-------5-------5--|-3-h-5---5---5---5---5---0------|

 	                          2.
                                 |--------------------------------|
                                 |--------------------------------|
                                 |-----------------3-/-5---7---5--|
                                 |-3-h-5---3---5------------------|

|--------------------------------|--------------------------------|
|-7---5--------------------------|--------------------------------|
|-----------------7---5----------|-3---------------5---6----------|
|--------------------------------|-----5-----------3---4----------|

|--------------------------------|--------------------------------|
|*-------------------------------|--------------------------------|
|*-------------------------------|--------------------------------|
|-0-h-2---2---2-------2-------2--|-0-h-2---2---2-------2-------2--|

                                  1.
|--------------------------------|--------------------------------|
|--------------------------------|-------------------------------*|
|--------------------------------|-------------------------------*|
|-0-h-2---2---2-------2-------2--|-0-h-2---2---2---2---2---2---2--|

                                  2.
                                 |--------------------------------|
                                 |--------------------------------|
                                 |-----------------------------4--|
                                 |-0-h-2---2---2-------2----------|

                                 2/4
|--------------------------------|----------------|
|-4---2--------------------------|----------------|
|-----------------4---2----------|----------------|
|--------------------------------|-5---2----------|

4/4                               2/4
|--------------------------------|----------------|
|--------------------------------|----------------|
|--------------------------------|----------------|
|-0------------------------------|----------------|

Bass Solo:
4/4
|--------------------------------|----------------------------------|
|--------------------------------|----------------------------------|
|--------------------------------|----------------------------------|
|-5---7---5---7---5---7-------5--|(5)-2---2---0---2---0---5---0-----|

|--------------------------------|----------------------------------|
|--------------------------------|-----------------4---2------------|
|--------------------------------|-------------4-----------4--------|
|-5---7---5---7---5---7-------5--|(5)-2---2-------------------0-----|

|--------------------------------|----------------------------------|
|--------------------------------|----------------------------------|
|--------------------------------|-----------------------------4----|
|-5---7---5---7---5---7-------5--|(5)-2---2---0---2---0---5---------|

|--------------------------------|--------------------------------|
|-4---3---2----------------------|--------------------------------|
|-------------4---3---2-------2--|--------------------------------|
|--------------------------------|-----0---2---0---2---0---5------|

|--------------------------------|----------------------------------|
|---------7----------------------|---------7------------------------|
|-7---9-------------------7------|-7---9-------------------7--------|
|-----------------7---9----------|-----------------7---9------------|

Verse 3:

Repeat Fig.1
Repeat Fig.1A

|--------------------------------|--------------------------------|
|-4---2--------------------------|--------------------------------|
|-----------------4---2----------|--------------------------------|
|--------------------------------|-5---2-----------0---1----------|

Repeat Fig.1
Repeat Fig.1A

                                 2/4
|--------------------------------|----------------|
|-4---2--------------------------|----------------|
|-----------------4---2----------|----------------|
|--------------------------------|-5---2----------|

4/4
|--------------------------------|--------------------------------|
|--------------------------------|-3------------------------------|
|--------------------------------|-3------------------------------|
|-0------------------------------|-1------------------------------|

|----------------------------------|
|-4---4--(4)-----------------------|
|-4---4--(4)-----------------------|
|-2---2--(2)-----------------------|

last caress/green hell

Intro:
|---------|
|--Drums--|
|----x2---|
|---------|

Verse 1:
|--------------------------------|--------------------------------|
|--------------------------------|--------------------------------|
|--------------------------------|--------------------------------|
|--------------------------------|-----------------1-------3------|

|--------------------------------|--------------------------------|
|--------------------------------|--------------------------------|
|--------------------------------|--------------------------------|
|--------------------------------|-----------------1-------3------|

|--------------------------------|--------------------------------|
|--------------------------------|--------------------------------|
|--------------------------------|-5------------------------------|
|-1------------------------------|--------------------------------|

|--------------------------------|--------------------------------|
|--------------------------------|--------------------------------|
|-3-------3---3---3---3---3---3--|-3---3---3---3------------------|
|--------------------------------|-----------------1-------3------|

|--------------------------------|--------------------------------|
|--------------------------------|--------------------------------|
|-3-------3---3---3---3---3---3--|-3---3---3---3------------------|
|--------------------------------|-----------------1-------3------|

Verse 2, 3, 4:
|--------------------------------|--------------------------------|
|*-------------------------------|--------------------------------|
|*3-------3---3---3---3---3---3--|-3---3---3---3------------------|
|--------------------------------|-----------------1-------3------|

|--------------------------------|--------------------------------|
|--------------------------------|--------------------------------|
|-3-------3---3---3---3---3---3--|-3---3---3---3------------------|
|--------------------------------|-----------------1-------3------|

|--------------------------------|--------------------------------|
|--------------------------------|--------------------------------|
|--------------------------------|-5-------5---5-------5---7---5--|
|-1-------1---1-------1---1---5--|--------------------------------|

|--------------------------------|--------------------------------|
|--------------------------------|--------------------------------|
|-3-------3---3-------3---3---3--|-3---3---3---3---5---3----------|
|--------------------------------|-------------------------5---0--|

Chorus:
|--------------------------------|--------------------------------|
|--------------------------------|--------------------------------|
|--------------------------------|--------------------------------|
|-1-------1---1-------1---1---1--|-3-------3---3-------3---5---7--|

|--------------------------------|--------------------------------|
|--------------------------------|--------------------------------|
|--------------------------------|--------------------------------|
|-8---8---8---0---7---7---0---0--|-5---5---5---5---5---5---5---0--|

|--------------------------------|--------------------------------|
|--------------------------------|--------------------------------|
|--------------------------------|-------------------------0---2--|
|-1-------1---1-------1---1---2--|-3-------3---3-------3----------|

                                  1. 2.
                                 |--------------------------------|
                                 |--------------------------------|
                                 |-3-------3---3---3---3---3---3--|
                                 |--------------------------------|

                                 |Fig.1
|--------------------------------|--------------------------------|
|--------------------------------|--------------------------------|
|--------------------------------|-3-------3---3---3---3---3---3--|
|-1---1---1---3-------3---3------|--------------------------------|

                        end Fig.1|
|--------------------------------|
|--------------------------------|
|--------------------------------|
|-1---1---1---3-------3---3------|

                                  3.
                                  Repeat Fig.1 x 4 then
                                 |--------------------------------|
                                 |--------------------------------|
                                 |-3------------------------------|
                                 |--------------------------------|

|--------------------------------|
|--------------------------------|
|--------------------------------|
|----------------1-------3-------|


Green Hell

Time 4/4
beat 185

|--------------------------------|--------------------------------|
|--------------------------------|--------------------------------|
|--------------------------------|--------------------------------|
|-3---3---3---3---3---3---3---3--|-3---3---3---3---3---3---3---3--|

|--------------------------------|--------------------------------|
|--------------------------------|--------------------------------|
|--------------------------------|--------------------------------|
|-3---3---3---3---3---3---3---3--|-3---3---3---3---3---3---3---3--|

Verse 1:
|Fig.2
|--------------------------------|--------------------------------|
|--------------------------------|--------------------------------|
|--------------------------------|--------------------------------|
|-3---3---3---3---3---3---3---3--|-3---3---3---3---3---3---3---3--|

|--------------------------------|--------------------------------|
|--------------------------------|--------------------------------|
|--------------------------------|--------------------------------|
|-3---3---3---3---3---3---3---3--|-3---3---3---3---3---3---3---5--|

                        end Fig.2|
|--------------------------------|--------------------------------|
|--------------------------------|--------------------------------|
|-----------------6-------3------|--------------------------------|
|-6-------3----------------------|-3---3---3---3---3---3---3---0--|

|--------------------------------|--------------------------------|
|--------------------------------|--------------------------------|
|--------------------------------|--------------------------------|
|-3---3---3---3---3---3---3---3--|-3---3---3---3---3---3---3---3--|

Repeat Fig.2

Pre-Chorus:
|Fig.3                                                   end Fig.3|
|--------------------------------|--------------------------------|
|--------------------------------|--------------------------------|
|--------------------------------|-----------------6-------3------|
|-3---3---3---3---3---3---3---3--|-6-------3----------------------|

Repeat Fig.3 x 2 1/2

|--------------------------------|--------------------------------|
|--------------------------------|--------------------------------|
|-5---5---5---5---5---5---5---5--|-5---5---5---5---5---5---5------|
|--------------------------------|-----------------------------0--|

Chorus:
|Fig.4
|--------------------------------|--------------------------------|
|--------------------------------|--------------------------------|
|--------------------------------|--------------------------------|
|-3---3---3---3---3---3---3---3--|-3---3---3---3---3---3---3---0--|

                                                         end Fig.4|
|--------------------------------|--------------------------------|
|--------------------------------|--------------------------------|
|--------------------------------|--------------------------------|
|-0---0---0---0---0---0---0---0--|-0---0---0---0---0---0---0---2--|

Repeat Fig.4 x 2

|--------------------------------|--------------------------------|
|--------------------------------|--------------------------------|
|--------------------------------|--------------------------------|
|-3---3---3---3---3---3---3---3--|-3---3---3---3---3---3---3---2--|

|--------------------------------|--------------------------------|
|--------------------------------|--------------------------------|
|--------------------------------|--------------------------------|
|-0---0---0---0---0---0---0---0--|-0---0---0---0---0---0---0---0--|

|--------------------------------|--------------------------------|
|--------------------------------|-----5---7---5------------------|
|-5---5---5---5---5---5---5---5--|-7---------------5--------------|
|--------------------------------|---------------------0--0--5--6-|

|--------------------------------|
|--------------------------------|
|-----------------6-------3------|
|-6-------3----------------------|

Pre-Chorus:

Repeat Fig.3 x 3

|--------------------------------|--------------------------------|
|--------------------------------|--------------------------------|
|--------------------------------|--------------------------------|
|-3---3---3---3---3---3---3---0--|-3---3---3---3---3---3---3---3--|

|--------------------------------|--------------------------------|
|--------------------------------|--------------------------------|
|--------------------------------|--------------------------------|
|-3---3---3---3---3---3---3---3--|-3---3---3---3---3---3---3---3--|

|--------------------------------|
|--------------------------------|
|--------------------------------|
|-3---3---3---3---3---3---3---3--|

Verse 2:
|--------------------------------|
|--------------------------------|
|--------------------------------|
|-3---3---3---3---3---3---3---3--|

|--------------------------------|--------------------------------|
|--------------------------------|--------------------------------|
|--------------------------------|--------------------------------|
|-3---3---3---3---3---3---3---3--|-3---3---3---3---3---3---3---3--|

|--------------------------------|--------------------------------|
|--------------------------------|--------------------------------|
|--------------------------------|-----------------6-------3------|
|-3---3---3---3---3---3---0---0--|-6-------3----------------------|

|--------------------------------|--------------------------------|
|--------------------------------|--------------------------------|
|--------------------------------|--------------------------------|
|-3---3---3---3---3---3---3---0--|-3---3---3---3---3---3---3---3--|

|--------------------------------|--------------------------------|
|--------------------------------|--------------------------------|
|--------------------------------|--------------------------------|
|-3---3---3---3---3---3---3---3--|-3---3---3---3---3---3---3---3--|

|--------------------------------|--------------------------------|
|--------------------------------|--------------------------------|
|--------------------------------|--------------------------------|
|-3---3---3---3---3---3---3---3--|-3---3---3---3---3---3---3---3--|

|--------------------------------|--------------------------------|
|--------------------------------|--------------------------------|
|--------------------------------|--------------------------------|
|-3---3---3---3---3---3---3---3--|-3---3---3---3---3---3---3---3--|

|--------------------------------|--------------------------------|
|--------------------------------|--------------------------------|
|--------------------------------|--------------------------------|
|-3---3---3---3---3---3---3---3--|-3---3---3---3---6---6---3---3--|

Pre-Chorus:

Repeat Fig.3 x 5

|--------------------------------|--------------------------------|
|--------------------------------|--------------------------------|
|--------------------------------|-5---5---5---5---5---5---5---5--|
|-3---3---3---3---3---3---3---3--|--------------------------------|

|--------------------------------|--------------------------------|
|--------------------------------|--------------------------------|
|-5---5---5---5------------------|--------------------------------|
|-----------------0---0---1---2--|-3------------------------------|

|--------------------------------|--------------------------------|
|--------------------------------|--------------------------------|
|--------------------------------|--------------------------------|
|--------------------------------|--------------------------------|

|----------------------------------|
|----------------------------------|
|-5------(5)-----------------------|
|-3------(3)-----------------------| End.

Am I evil?

100 bpm
|--------|------|------|  3  |---|-------|---|-------|---|-----|---|-------|
|--------|------|------|-----|---|-------|---|-------|---|-----|---|-------|
|-7--5-7-|-8----|---R--|-----|---|-----2-|-1-|-(1)---|---|---2-|-1-|-(1)---|
|--------|----3-|-0----|     |-0-|-(0)---|---|-----1-|-0-|-0---|---|-----1-|
  h. e e   h. q   q h.         w   (h) h   w   (h) h   w   h h   w   (h) h

|---|-------|---|-------|---|-----|---|-------|---|-----------------|
|---|-------|---|-------|---|-----|---|-------|---|-----------------|
|---|-----2-|-1-|-(1)-8-|-7-|---2-|-1-|-(1)---|---|-----5-5-5-5-5-5-|
|-0-|-(0)---|---|-------|---|-0---|---|-----1-|-0-|-(0)-------------|
  w   (h) h   w   (h) h   w   h h   w   (h) h   w   (h) e e e e e e
                                                        [ 3 ] [ 3 ]

|--------------------|-----------------------|-----------------------|
|--------------------|-----------------------|---R---------R---------|
|-7---------R-------|---R-------5-5-5-5-5-5-|-7-------------7-7-7----|
|----0-0-0-0---0-0-0-|-0---0-0-0-------------|-----0-0-0-0-----------|
  q  e e e e e e e e   e e e e e e e e e e e   e e e e e e e e e e
     [ 3 ]     [ 3 ]       [ 3 ] [ 3 ] [ 3 ]       [ 3 ]     [ 3 ]

|---------------------|---------------------|-----------------------|
|---------------------|---R-----------------|-----------------------|
|-7-7-7-7-5-5-5-5-5-5-|-7-----------R-------|---R-------5-5-5-5-5-5-|
|---------------------|-----0-0-0-0---0-0-0-|-0---0-0-0-------------|
  q e e e e e e e e e   e e e e e e e e e e   e e e e e e e e e e e
    [ 3 ] [ 3 ] [ 3 ]       [ 3 ]     [ 3 ]       [ 3 ] [ 3 ] [ 3 ]

                                                         160 bpm
                                                 240 bpm 2/4 4/4
|---------|-----------|-------------|------------||  13  |----|---|-----|
|---------|---9-8-/15-|-14-15-15h17-|-(17)-(17)-||------|----|---|------|
|-------8-|-7---------|-------------|------------||------|--R-|-R-|-R---|
|-0-7-6---|-----------|-------------|------------||      |----|---|-----|
  q q q q   q q q  q    q  q     h    (h.) (q)              h   w   w

|---|-------|----|---------------|-----------|--------------------|
|---|-R-----|----|---------------|-----------|----5---------------|
|-7-|----5/-|-/7-|-(7)-5h7-5---5-|-7-(7)-5/-|-/7---7-5------------|
|-0-|-------|--0-|-(0)-------7---|-----------|----------7-6-5-3---|
  w   h. q     w   (q.)  q e e e   h.+e e       e e e e e e e e

  fig.1                   end fig.1  3 times  fill 1              end fill 1
||-------------------|--------------||-----------------|-----------------|
||-o-----------------|------------o-||-----------------|-----------------|
||-o-----------------|------------o-||-----------------|-------------5-7-|
||---0-0-0-0-3-0-0-5-|-0-0-0-6--5---||-0-0-0-0-3-0-0-5-|-0-0-0-5-6-7-----|
     e e e e e e e e   e e e q. q      e e e e e e e e   e e e e e e e e

  Verse 1,2              fill 2                     end fill 2
||--                     |-----------------|-----------------|
||-o play fig.1  3 times |-----------------|-----------------|
||-o                     |-----------------|-------5-7-5-----|
||--                     |-0-0-0-0-3-0-0-5-|-0-0-0-------7-5-|
                           e e e e e e e e   e e e e e e e e

                       Pre-chorus                     4 times
                      ||-------------------|--------------||
  play fig.1  4 times ||-o-----------------|------------o-||
                      ||-o---------5-----7-|-------8--7-o-||
                      ||---7-7-7-7---7-7---|-7-7-7--------||
                           e e e e e e e e   e e e q. q

  Chorus
  play fig.1, 1st time play fill 1 , play fig.1  2 times
              2nd time play fill 3

             fill 3
             |-----------------|-----------------|
             |-----------------|-----------------|
             |-----------------|---7-7-7-7-7-7-7-|
             |-0-0-0-0-3-0-0-5-|-0---------------|

|1.                           |2.
                           --||---------|-5-5-5-5-5-5-------|
  play fig.1, play fill 1  o-||---------|-------------------|
                           o-||-7--5--3-|---------------5-6-|
                           --||---------|-------------7-----|
                                q. q. q   e s s e e e e e e

                                                              3 times
|-----------------|------------||-----------|-5-5-5-5-5-5---------||
|-----------------|------------||-o---------|-------------------o-||
|-7---------------|------------||-o-7--5--3-|---------------5-6-o-||
|---0-0-0-3-0-0-5-|-0-0-0-6--5-||-----------|-------------7-------||
  e e e e e e e e   e e e q. q      q. q. q   e s s e e e e e e

                                       192 bpm triplet feel
                                         fig.3
|----------|---------------|-----|-----||-----------------------|
|----------|---------------|-----|-----||---7-7-7-7---7-7-7-7---|
|-7--9--10-|-(10)-(10)-3--|-(3)-|-(3)-||-0---------0------------|
|----------|---------------|-----|-----||-----------------------|
  q. q. q     e   (e)   h.   (w)   (w)    e e e e e e e e e e
                                              [ 3 ]     [ 3 ]

                                              end fig.3
|---------------|---------------------|---------------|---------------------|
|---7-7-7-7-----|---7-7-7-7---7-7-7-7-|---7-7-7-7-----|---7-7-7-7---7-7-7-7-|
|-0-----------5-|-0---------0---------|-0---------3---|-0---------0---------|
|-----------3---|---------------------|-------------3-|---------------------|
  e e e e e q q   e e e e e e e e e e   e e e e e q q   e e e e e e e e e e
      [ 3 ]           [ 3 ]     [ 3 ]      [ 3 ]           [ 3 ]     [ 3 ]

|---------------|---------------------|-----------------------|
|---7-7-7-7-----|---7-7-7-7---7-7-7-7-|---7-7-7-7-7-7-7-------|
|-0-----------5-|-0---------0---------|-0---------------7-----|
|-----------3---|---------------------|-----------------------|
  e e e e e q q   e e e e e e e e e e   e e e e e e e e q
      [ 3 ]           [ 3 ]     [ 3 ]       [ 3 ] [ 3 ]

Bridge 1
   fig.4
||-----------------------|-----------------|---------------------|
||-o---------------------|-----------------|---------------------|
||-o-7---------7---------|-7-----------5---|-7---------7---------|
||-----0-0-0-0---0-0-0-0-|---0-0-0-0-0-----|---0-0-0-0---0-0-0-0-|
     e e e e e e e e e e   e e e e e e e+q   e e e e e e e e e e
         [ 3 ]     [ 3 ]       [ 3 ]             [ 3 ]     [ 3 ]

                        Chorus II
          end fig.4  4 times
|-------------------||                                |----------------------|
|-----------------o-|| play fig.3, fig.3 first 3 bars |---7-7-7-7-7-7-7------|
|-7-----------5-5-o-||                                |-0---------------7----|
|---0-0-0-0-0-------||                                |----------------------|
  e e e e e q q q                                       e e e e e e e e q
      [ 3 ] [ 3 ]                                           [ 3 ] [ 3 ]


Bridge 2  :  play fig.4  4 times, play fig.3  2 times

                 Guitar solo                                  6 times
|---|-----|-----||-----------------------|-----------------------||
|---|-----|-----||-o---------------------|---------------------o-||
|---|-----|---0-||-o-2-2-2-2-2-2-2-2-2-2-|-2-2-2-2-2-2-2-2-2-2-o-||
|-0-|-(0)-|-3---||-----------------------|-----------------------||
  w   (w)   h h      e e e e e e e e e e   e e e e e e e e e e
                         [ 3 ]     [ 3 ]       [ 3 ]     [ 3 ]

                                              2 times
||-----------------------|-----------------------||
||-o---------------------|---------------------o-||
||-o-7---------7---------|-7---------7---------o-||
||-----0-0-0-0---0-0-0-0-|---0-0-0-0---0-0-0-0---||
     e e e e e e e e e e   e e e e e e e e e e
         [ 3 ]     [ 3 ]       [ 3 ]     [ 3 ]

                                              5 times
||-----------------------|-----------------------||---------------------|
||-o---------------------|---------------------o-||---------------------|
||-o-2-2-2-2-2-2-2-2-2-2-|-2-2-2-2-2-2-2-2-2-2-o-||-0-0-0-0-0-0-0-0-0-0-|
||-----------------------|-----------------------||---------------------|
     e e e e e e e e e e   e e e e e e e e e e      e e e e e e e e e e
         [ 3 ]     [ 3 ]       [ 3 ]     [ 3 ]          [ 3 ]     [ 3 ]

|---------------------|---------------------|---------------------|
|---------------------|---------------------|---------------------|
|-0-0-0-0-0-0-0-0-0-0-|---------------------|---------------------|
|---------------------|-1-1-1-1-1-1-1-1-1-1-|-1-1-1-1-1-1-1-1-1-1-|
  e e e e e e e e e e   e e e e e e e e e e   e e e e e e e e e e
      [ 3 ]     [ 3 ]       [ 3 ]     [ 3 ]       [ 3 ]     [ 3 ]

|---------------------|---------------------|---------------------|
|---------------------|---------------------|---------------------|
|-1-1-1-1-1-1-1-1-1-1-|-1-1-1-1-1-1-1-1-1-1-|---------------------|
|---------------------|---------------------|-2-2-2-2-2-2-2-2-2-2-|
  e e e e e e e e e e   e e e e e e e e e e   e e e e e e e e e e
      [ 3 ]     [ 3 ]       [ 3 ]     [ 3 ]       [ 3 ]     [ 3 ]

                                                                  5 times
|---------------------||-----------------------|-----------------------||
|---------------------||-o---------------------|---------------------o-||
|---------------------||-o-2-2-2-2-2-2-2-2-2-2-|-2-2-2-2-2-2-2-2-2-2-o-||
|-2-2-2-2-2-2-2-2-2-2-||-----------------------|-----------------------||
  e e e e e e e e e e      e e e e e e e e e e   e e e e e e e e e e
      [ 3 ]     [ 3 ]          [ 3 ]     [ 3 ]       [ 3 ]     [ 3 ]

|---------------------|---------------------|---------------------|
|---------------------|---------------------|---------------------|
|-7---------7---------|-7---------7---------|-7---------7---------|
|---0-0-0-0---0-0-0-0-|---0-0-0-0---0-0-0-0-|---0-0-0-0---0-0-0-0-|
  e e e e e e e e e e   e e e e e e e e e e   e e e e e e e e e e
      [ 3 ]     [ 3 ]       [ 3 ]     [ 3 ]       [ 3 ]     [ 3 ]

                                                             2 times
|---------------||-----------------------|-----------------------||
|---------------||-o---------------------|---------------------o-||
|-7-------------||-o-2-2-2-2-2-2-2-2-2-2-|-2-2-2-2-2-2-2-2-2-2-o-||
|---0-0-0-0-0-3-||-----------------------|-----------------------||
  e e e e e q h      e e e e e e e e e e   e e e e e e e e e e
      [ 3 ] [3]          [ 3 ]     [ 3 ]       [ 3 ]     [ 3 ]


play fig.3, play fig.3 first 2 bars

|-----------------14-|-14-14-14-14-14-14-14-14-14-12----||
|---7-7-7-7---7-7----|-------------------------------14-||
|-0---------0--------|----------------------------------||
|--------------------|----------------------------------||
  e e e e e e e e e    e  e  e  e  e  e  e  e  e  e  e
      [ 3 ]                  [  3  ]  [  3  ]  [  3  ]

Bridge 3 : play fig.4  4 times, play fig.3  4 times

                                         3 times                      rit.
||-------------------|-----------------------||---------------|-----------||
||-o-----------------|---------------------o-||-------------R-|-----R-----||
||-o-----7p0-5-5-5---|-5-5-5-------5-7p5---o-||-----7p0-5-5---|-5-5---5---||
||---0-0-----------0-|-------0-5h7-------7---||-0-0-----------|---------5-||
     e e e e e e e e   e e e e e e e e e e      e e e e e q e   e q e q q
                               [ 3 ] [ 3 ]

160 bpm, straight eight feel
|------|---|--------|----------------||---------------------|
|------|---|--------|----------------||-o-------------------|
|---R--|-R-|----5h7-|-7-7-7-7-7-7-7-||-o--------------------|
|-0----|---|-0------|----------------||---0-0-0-0-3-0-0-5---|
  q h.   w   h..  e   e e e e e e q       e e e e e e e e

             4 times
|--------------||-------||
|------------o-||-------||
|------------o-||-R-----||
|-0-0-0-6--5---||---3-0-||
  e e e q. q      h q q

blitzkrieg

192 bpm             2/4 4/4         2/4     4/4 fig.1
---|--------|---|---|---|---|---|---|--------||---------------------|
---|-----R--|-R-|-R-|-R-|-R-|-R-|-R-|-R------||-o-------------------|
-5-|-5h7----|---|---|---|---|---|---|---/19-||-o-5h7-----7---5h7----|
---|--------|---|---|---|---|---|---|--------||-------0-0---0-------|
 q   e e h.   w   w   h   w   w   w   q  q        e e e e e e e e

                               |1,2,3.    |4.
                               2/4 end fig.1  2/4
|-----------------|------------|---------||-----------|
|-----5-----------|------------|-------o-||-----------|
|---------5h7-----|-2-3/-----0-|-----5-o-||-----------|
|-0-0---0-----0-0-|------0-0---|-0-0-----||-0-0-12----|
  e e e e e e e e   q q  e e q   e e q      e e q

4/4                  |1,2,3.              |4.
||-------------------|-------------------||-----------------||
||-o-----------------|-----------------o-||-----------------||
||-o-----------------|-----------------o-||-------------3p2-||
||---0-0-2-0-0-3-0-0-|-2-0-0-3-0-0-2h3---||-2-0-0-3-0-0-----||
     e e e e e e e e   e e e e e e e e      e e e e e e e e

Verse 1
   fig.2
||-------------------|-----------------|-----------------|
||-o-----------------|-----------------|-----------------|
||-o-----------------|-----------------|-----------------|
||---0-0-2-0-0-3-0-0-|-2-0-0-3-0-0-2h3-|-0-0-2-0-0-3-0-0-|
     e e e e e e e e   e e e e e e e e   e e e e e e e e

                        Pre-chorus
      end fig.2  2 times  fig.3
|-------------------|||---------------|---------------|-------------|
|-----------------o-|||-o-----R-------|---------------|-----R-------|
|-------------3p2-o-|||-o-0-0---3-2-3-|-(3)-3-3-2-3-2-|-0-0---3-2-3-|
|-2-0-0-3-0-0-------|||---------------|---------------|-------------|
  e e e e e e e e         q q e e e e   (q) e e e e q   q q e e e e

                      Chorus
       end fig.3  2 times                                     2/4
|-----------------||                                          |------------|
|---------------o-||  play fig.1  3 times, fig.1 first 3 bars |------------|
|-(3)-3-3-2-3-5-o-||                                          |------------|
|-----------------||                                          |-0-0-12-----|
  (q) e e e e q                                                 e e q

Verse 2 : play fig.2  2 times
Pre-chorus 2 : play fig.3  2 times
Chorus 2 : play fig.1  2 times

Guitar solo
|-----------------|-----|-----|-----------------|-----------------|-----|
|-----------------|  %  |  %  |-----------------|-----------------|  %  |
|-----------------|-----|-----|-----------------|-----------------|-----|
|-2-2-2-2-2-2-2-2-|-----|-----|-2-2-2-2-2-2-0-0-|-2-2-2-2-2-2-2-2-|-----|
  e e e e e e e e               e e e e e e e e   e e e e e e e e

|-----|-----------------|-----------------|-----------------|
|  %  |-----------------|-----------------|-----------------|
|-----|-----------------|-----------------|-----------------|
|-----|-2-2-2-2-2-2-5-5-|-4-4-4-4-4-4-4-4-|-4-4-4-4-4-4-2-2-|
        e e e e e e e e   e e e e e e e e   e e e e e e e e

|-----------------|-----------------|-----------------|-----|-----|
|-----------------|-----------------|-----------------|  %  |  %  |
|-----------------|-----------------|-----------------|-----|-----|
|-4-4-4-4-4-4-4-4-|-4-4-4-2-2-2-2-2-|-4-4-4-4-4-4-4-4-|-----|-----|
  e e e e e e e e   e e e e e e e e   e e e e e e e e

|-----------------|-----------------|-----|-----|-----|-----|-----|-----|
|-----------------|-----------------|  %  |  %  |  %  |  %  |  %  |  %  |
|-----------------|-----------------|-----|-----|-----|-----|-----|-----|
|-4-4-4-4-4-4-5-5-|-6-6-6-6-6-6-6-6-|-----|-----|-----|-----|-----|-----|
  e e e e e e e e   e e e e e e e e

                 half time 96 bpm
|---------------||--------|--------|-----------------|---------|
|---------------||--------|--------|-----------------|---------|
|---------------||------3-|-3--5-7-|---7-7-7-5-5-----|-3--3-5--|
|-6-6-6-6-6-6-6-||-0------|--------|-0-----------7-5-|---------|
  e e e e e e q    h... s   h. e e   q q s s s s e e   h. s e.

|------------------------|-------------|----------------|
|------------------------|-------------|----------------|
|-7----7-7-7-5-5---------|-3---3-3-3-5-|-7----7-7---7-7-|
|----0-----------7-7-5-5-|-------------|-0--0-----7-----|
  e. s q s s s s s s s s   h+s e e s e   q  q s e s e e
     ^ ^
    let ring
                            Tempo I
|--------------------------||-----------------|-------------------|
|--------------------------||-----------------|-------------------|
|-3-3-0-3--0-3-3-3-3-3-5-5-||-7-7-7-7-7-7-7-7-|-7-7-9-9-10-10-9-7-|
|--------------------------||-----------------|-------------------|
  e s s e. s e s s s s s s    e e e e e e e e   e e e e e  e  e e

|---------------------|---------------------|-----------------|
|---------10-10-10-10-|-10-10-9-9-7-7-------|-----------------|
|---------------------|---------------10-10-|-7-7-7-7-7-7-7-9-|
|-8-8-8-8-------------|---------------------|-----------------|
  e e e e e  e  e  e    e  e  e e e e e  e    e e e e e e e e

|---------------------|-------------------------|---------------------|
|-------7-7-9-9-------|-10-10-10-10-10-10-10-10-|-10-10-9-9-7-7-------|
|-10-10---------10-10-|-------------------------|---------------10-10-|
|---------------------|-------------------------|---------------------|
  e  e  e e e e e  e    e  e  e  e  e  e  e  e    e  e  e e e e e  e

|-------------------|------------------|-------------------------|
|-------------------|------------------|-10-10-10-10-10-10-10-10-|
|-7-7-7-9-10-10-7-7-|-7-10-7-7-7-7-7-7-|-------------------------|
|-------------------|------------------|-------------------------|
  e e e e e  e  e e   e e  e e e e e e   e  e  e  e  e  e  e  e

|---------------------|-------7h9-------|------------------|
|-10-10-9-9-7-7-------|-----------------|------------------|
|---------------10-10-|-7-7-7-----7-7-7-|-7-7-7-7-7-7-10-7-|
|---------------------|-----------------|------------------|
  e  e  e e e e e  e    e e e e e e e e   e e e e e e e  e

|-------------------------|-------------------||-----------------|
|-10-10-10-10-10-10-10-10-|-10-10-9-9-7-7-----||-o---------------|
|-------------------------|---------------10/-||-o---7---7-7---7-|
|-------------------------|-------------------||---0---0-----0---|
  e  e  e  e  e  e  e  e    e  e  e e e e q        q e e e e e e

                                                   2 times
|-----------------|-------------|---------------------||
|-----------------|-------------|---------------R---o-||
|-(7)---7-----7-3-|-3-3-3-3-3-3-|-(3)-3-3-3---3---3-o-||
|-----0---0-7-----|-------------|-----------3---------||
  (e) e e e e q e   q e e e q e   (e) e e e e e e e

|---------------|-----------------|---------|-------------------||
|---7-----------|-----------------|---------|-------------------||
|-0---0-0-0-0-0-|-(0)-0-0-0-0-0-0-|---------|-----------2-3-----||
|---------------|-----------------|-3--2--3-|-(3)-0-2-3-----3-2-||
  q e e e e e e   (e) e e e e e q   q. q. q   (e) e e e e e e e

                                                                    2 times
||--------------------|-----------------|---------|---------------------||
||-o------------------|-----------------|---------|-------------------o-||
||-o------------------|-----------------|---------|-----------3-2-----o-||
||----0-0-2-0-0-3-0-0-|-2-0-0-3-0-0-2-3-|-3--2--3-|-(3)-0-2-3-----3-2---||
      e e e e e e e e   e e e e e e e e   q. q. q   (e) e e e e e e e

Free time
|-----------------------||
|----2///X--------R-----||
|----2///Xp0------------||
|-0---------------------||
  h  q.. e q      h.
     /
     /

breadfan

Intro: This riff is played after the guitar plays it 4x

G-------------------------------------------|
D--02202202202222222022022022222------------|
A--------------------------------020--------|
E------------------------------------^3-0---|

Verse:

G------------------------------------------|
D------------------------------------------|
A---7-7---7---7-7---7-----75-5-5-567-------|
E-------0---0-----0----00------------------|

Guitar Solo Backing: These notes are strongly accented

G----------------------------------------------|
D----------------------------------------------|
A----------------------------------------------|
E-3-23---345---35-355555-23333-233333-355555---|

Post solo Riff:

G-------------------------------------------------------|
D-------5--------3--------------------------------------|
A--57-7----35-5-----5-----------------------------------|
E------------------------57-------2223/5----------------|

Note: after playing that 4x play:

E-5-3-5-3-53-0---------------------------------------------|

the Prince

Intro/Guitar Solo:
G---------------------------------------------------|
D---------------------------------------------------|
A---------------------3------------------------3-5--|
E -3-5-5-5-5-5-5-3-0----3-5-5-5-5-5-5-3-0-----------|

G-------------------------------|
D---------7-7-7-7-5-------------|
A----------------------7-3-5----|
E -3-5-5---------------------5—-|

G-----------------------------------|
D-------------7---------------------|
A---------5h7---7-5-5-3----------3--|
E -5-5-5------------------5p3h5-----|

G---------------------------------------------------------|
D---------------------------------------------------------|
A-5-5-3-------3-------------------------------------------|
E---------3-5----5-5-5-5-5-5-5-5-5-3-1-1-1-1-1-1-1-1-1-1--|

G--------------------------------------------|
D--------------------------------------------|
A-5-5-5-5-5-5-5-5-5-5-0-3-3-0-2-3-3-5-5-5-5--|
E  ------------------------------------------|

G--------------------------------------------------------------|
D--------------------------------------------------------------|
A --------------3-5-7-8-8-8-8-8-8-8-8-8-8-5-5-5-5-5-5-5-5-5-5--|
E 5-5-5-5-5-5--------------------------------------------------|

G----------------------------------------------------------------------|
D----------------------------------------------------------------------|
A-0-3-3-0-2-3-3-5-5-5-5-0-3-0-3-0-2-3-3-5-5-5-5-5-0-3-3-0-2-3-3-5-5-5--|
E ---------------------------------------------------------------------|

G----------------------------------------------------------------|
D-------------7-----------------------------------------------5--|
A----------5h7-—7-5-5-3-----------3--------7—5h7---7—5-5-4-3-----|
E -5-5-5-------------------5-3-5----5-5—5------------------------|


G--------------------------------------------------------------------------------|
D----------------------------------7------------------------------------------5--|
A-5-5-3-----------3-----------5h7-----7-5-5-3----------3---------7----5h7---7----|
E --------5p3h5------5-5-5-----------------------5-3-5---5-5---5-----------------|

G-------------------------------------------------------|
D-------------------------------------------------------|
A----------------------5---3----------------------------|
E-5-5-5-5-5-5-5-5 -------5--------------------0-5-(5)/--|

G-------------------------------------------------------|
D-------------------------------------------------------|
A-------------------------------------------------------|
E -0-3-4-5-5—x-5-0-3-0-5-5-5-0-3-0-5-0-5-0-5-0-5-0-0-3--|

G-------------------|
D-------------------|
A-------------------|
E -0-5-3-5-0-5-3-4--|

G-----------------------------------------------------------------|
D-----------------------------------------------------------------|
A-0-0-0-0-0-0-0-2-2-2-2-3-3-3--------------------2-2-2-2-3-3-3-0--|
E -------------------------------1-1-1-1-1-1-1--------------------|

G------------------------------------------------------------|
D------------------------------------------------------------|
A-3-3-3-3-3-3-3-5-5-5-5-6-6-6-6-7-7-7-7-7-0-3-3-3-3-2-2-2-2--|
E -----------------------------------------------------------|

G--------------------------------|
D--------------------------------|
A -------------------------------|
E -5-5-5-------------5-5-5-(5)/--|

G------------------------------------------------------------|
D---------------7--------------------------------------------|
A----------5h7----7-5-5—3----------3-------7------5----------|
E -5-5-5---------------------5-3-5---5-5—5---5h7----7-7-4-3--|

G--------------------------------------------|
D--------------------------------------------|
A-0-3-3-0-2-3-3-5-5-5—0-3-3-0-2-3-3-5-5-5-5--|
E -------------------------------------------|

Stone cold crazy

Intro

G-----|
D-----|
A--(3)|
E-----|


Main Riff:

G---------------|--------------------|
D---------------|--------------------|
A-------------1-|---------1h3-2-3-4-5|
E--1h3-3-3-3-3--|-1h3-3-3------------|

1st Verse at 29sec

G--------------|
D--------------|
A--------------|
E--3--33-333333|

End Of Verse

G-----------------|
D-----------------|
A1h3-3-3-3-3-3-3-3|
E-----------------|

Solo1

G-------------------------|X2    G--4-2------|
D-------------------------|      D-----4-2---|
A--2-2-2-2-2-2-2-2-2-2-2-2|      A--------5-0|
E-------------------------|      E-----------|


Solo 2

G-------------------------|X2 G--4-2------|
D-------------------------|   D-----4-2---|
A--2-2-2-2-2-2-2-2-2-2-2-2|   A--------5-0|
E-------------------------|   E-----------|

Order:

Intro X1
Main Riff X4
1st Verse X1
End Of Verse X1
Main Riff X2
Solo1 X1
Main Riff X2
End Of Verse X1
Solo2 X3
Main Riff X2
End Of Verse X1
Main Riff X2

So what

Intro:
|--------------------------------|----------------------------------|
|-------------Guitar-------------|----------------------------------|
|---------------x4---------------|----------------------------------|
|--------------------------------|14-------------(14)---------------|

|--------------------------------|--------------------------------|
|--------------------------------|--------------------------------|
|--------------------------------|--------------------------------|
|-5-------5---5---5---0---3---5--|-5-------5---5---5---0---3---5--|

|--------------------------------|--------------------------------|
|--------------------------------|--------------------------------|
|--------------------------------|-----------------------------3--|
|-5---0---3---5---5---0---3---5--|-5-------5---5---5-------5------|

Verse 1, 2, 3, 4:
|--------------------------------|--------------------------------|
|*-------------------------------|--------------------------------|
|*5-------5---5---5---5---5---5--|-5---5---5---5---5---5---5---5--|
|--------------------------------|--------------------------------|

|--------------------------------|--------------------------------|
|--------------------------------|--------------------------------|
|-5---5---5---5---5---5---5---5--|-5---5---5---5---5---5---3---3--|
|--------------------------------|--------------------------------|

|--------------------------------|--------------------------------|
|--------------------------------|--------------------------------|
|--------------------------------|--------------------------------|
|-5-------5---5---5---0---3---5--|-5-------5---5---5---0---3---5--|

|--------------------------------|--------------------------------|
|--------------------------------|--------------------------------|
|--------------------------------|-----------------------------3--|
|-5---0---3---5---5---0---3---5--|-5-------5---5---5-------5------|

|--------------------------------|--------------------------------|
|--------------------------------|--------------------------------|
|-5-------5---5---5---5---5---5--|-5---5---5---5---5---5---5---5--|
|--------------------------------|--------------------------------|

|--------------------------------|--------------------------------|
|--------------------------------|--------------------------------|
|-5---5---5---5---5---5---5---5--|-5---5---5---5---5---5---3---3--|
|--------------------------------|--------------------------------|

|--------------------------------|--------------------------------|
|--------------------------------|--------------------------------|
|--------------------------------|--------------------------------|
|-5-------5---5---5---0---3---5--|-5-------5---5---5---0---3---5--|

|--------------------------------|----------------------------------|
|--------------------------------|----------------------------------|
|--------------------------------|----------------------------------|
|-5---0---3---5---5---0---3---5--|-5-------5---5---5---5---5--------|

|--------------------------------|--------------------------------|
|--------------------------------|--------------------------------|
|--------------------------------|--------------------------------|
|-1-------1---1---1---1---1---3--|-6---6---6---6---6---6---6---6--|

|--------------------------------|--------------------------------|
|--------------------------------|--------------------------------|
|--------------------------------|--------------------------------|
|-5---5---5---5---5---0---3---5--|-5---5---5---5---5-------5---3--|

|--------------------------------|--------------------------------|
|--------------------------------|--------------------------------|
|--------------------------------|--------------------------------|
|-1-------1---1---1---1---1---3--|-6---6---6---6---6---6---6---6--|

|--------------------------------|--------------------------------|
|--------------------------------|--------------------------------|
|--------------------------------|--------------------------------|
|-5-------5---5---5---0---3---5--|-5-------5---5---5---0---3---5--|

                                  1. 2. * to Coda
|--------------------------------|--------------------------------|
|--------------------------------|-------------------------------*|
|--------------------------------|---------------------------3/7-*|
|-5---0---3---5---5---0---3---5--|-5-------5---5---5---5---5------|

                                  3.
                                 |--------------------------------|
                                 |--------------------------------|
                                 |-----------------5---7---9---7--|
                                 |-5-------5---5------------------|

Guitar Solo:
|--------------------------------|--------------------------------|
|--------------------------------|*------------------------------*|x 3
|-5-------5---5---5---5---5---5--|*5---5---5---5---5---5---5---5-*|
|--------------------------------|--------------------------------|

|--------------------------------|--------------------------------|
|--------------------------------|--------------------------------|
|--------------------------------|--------------------------------|
|-5-------5---5---5---0---3---5--|-5-------5---5---5---0---3---5--|

|--------------------------------|--------------------------------|
|--------------------------------|--------------------------------|
|--------------------------------|-----------------------------3--|
|-5---0---3---5---5---0---3---5--|-5-------5---5---5-------5------|

|--------------------------------|--------------------------------|
|--------------------------------|-----------------3---3---5---5--|
|-5-------5---5---5---5---5---5--|-5---5---5---5------------------|
|--------------------------------|--------------------------------|

|-------------------------5---5--|-7---7---7---7---7---7------------|
|-3---3---5---5---7---7----------|----------------------------------|
|--------------------------------|----------------------------------|
|--------------------------------|----------------------------------|

|--------------------------------|--------------------------------|
|--------------------------------|--------------------------------|
|--------------------------------|--------------------------------|
|-5-------5---5---5---0---3---5--|-5-------5---5---5---0---3---5--|

|--------------------------------|----------------------------------|
|--------------------------------|----------------------------------|
|--------------------------------|----------------------------------|
|-5---0---3---5---5---0---3---5--|-5-------5---5---5---5---5--------|

|--------------------------------|--------------------------------|
|--------------------------------|--------------------------------|
|--------------------------------|--------------------------------|
|-1-------1---1---1---1---1---3--|-6---6---6---6---6---6---6---6--|

|--------------------------------|--------------------------------|
|--------------------------------|--------------------------------|
|--------------------------------|--------------------------------|
|-5---5---5---5---5---0---3---5--|-5---5---5---5---5---0---3---5--|

|--------------------------------|--------------------------------|
|--------------------------------|--------------------------------|
|--------------------------------|-----------------------------7--|
|-5---0---3---5---5---0---3---5--|-5---5---5---5---5---5---5---0--|


Coda:
|--------------------------------|--------------------------------|
|--------------------------------|--------------------------------|
|--------------------------------|--------------------------------|
|-5---0---3---5------------------|(5)-----------------------------|

|--------------------------------|--------------------------------|
|--------------------------------|--------------------------------|
|--------------------------------|--------------------------------|
|(5)-----------------------------|(5)-----------------------------|

|----------------------------------|
|----------------------------------|
|----------------------------------|
|-5---/--12------------------------| End

killing time

Tune Down Half Step:
1st Part:

G------------------------------------------------------------|
D-7--7--7\---------------------------------------------------|
A-0--0--0----------------------------------------------------|
E-----------5-5-5-5-5-5-5-5-5-3-5-3-3-5-5--5-5-5-5-5-5-5-5-5-|

G-----------------------------------------------------------|
D-----------------------------------------------------------|
A----3----3-------------------------------------------------|
E-3-5--------1-1-1-1-1--3--3---3----------------------------|

2nd Part:
G------------------------------------------------------------|
D------------------------------------------------------------|
A------3----2----1----1--1-1-1-1-3---333333-555-555-555-555\-|
E-5-3-5------------------------------------------------------|

G-----------------------------------------------------------|
D---------------5--5--5-------------------------------------|
A-\1--1-1-1-1-1-3--3--3-------------------------------------|
E-----------------------------------------------------------|

3rd Part:
G-----------------------------------------------------------|
D-----------------------------------------------------------|
A-5--5--5-5-5---1------------------5--5--5-5-5--1-----------|
E---------------------1---0-0------------------------1----1-|

G------------------------------------------------------------|
D------------------------------------------------------------|
A----5--5--5-5-5--1-------------5--5--5-5-5--1------1--------|
E-3------------------1---0-0---------------------3-------3-5-|

4th Part:(Guitar Solo)

G-----------------------------------------------------------|
D-----------------------------------------------------------|
A-------12\--------------------------------------5---5------|
E-5--------5--5--5\0--000000-0003--3-0-000000-000-----0003--|

G-----------------------------------------------------------|
D-----------------------------------------------------------|
A-----------------------------------------------------------|
E-2--1--1--1-1-1---3--3-3-3-3-3-3--5-5-5--5-5-5--5-5-5--5-5-|

G------------------------------------------------------------|
D------------------------------------------------------------|
A------------------------1-----------------------------------|
E-5\1--1--1-1-1--3--3--3---3--3-3---5-------3--5--5--5-------|(5)\

          Overkill
Sorry, I couldn't find any tabs for this song, but you can have a go

Damamge case

Sorry, couldn't find tabs for this either

Stone dead forever

Tune all guitars down 1/2 step
Use a distortion pedal,set the tone and distortion at 12 o clock.

Intro(many times)
G I:------------------------|I
D I:------------------------|I
A I:--5-3-5--3--5-3-5-------|I
E I:------------------------|I

Verse(2x)
G I:-----------------------------------------------------|I
D I:-----------------------------------------------------|I
A I:5-3-5---5-3-5---5-3-5---3-1-3--1---------------------|I
E I:----------------------------------------------5-3-5--|I

Chorus
G I:-------------------------------------------------------------------------------------|I
D I:-------------------------------------------------------------------------------------|I
A I:-------------------------------------------------------------------------------------|I
E I:5-5-5-5-5-5-5-5-5-5-5-5-5--8-8-8-8-8-8-8-8-8-8-8-8-8-8-8--3-3-3-3-3-3-3-3-3-3-3-3-3--|I

Chorus(cont'd)
G I:-------------------------------------------------------------------------------------|I
D I:-------------------------------------------------------------------------------------|I
A I:-------------------------------------------------------------------------------------|I
E I:-0-0-0-0-0-0-0-0-0-0-0-0-0-0--5-5-5-5-5-5-5-5-5-5-5-5-5-5-8-8-8-8-8-8-8-8-8-8-8-8-8--|I

Chorus(cont'd)
G I:----------------------------------|I
D I:----------------------------------|I
A I:----------------------------------|I
E I:5-5-5-5-3-3-2-2-0-0-0-0-----------|I

Bridge
G I:--------------------------------------------------------------------------|I
D I:--------------------------------------------------------------------------|I
A I:0-0-0-0-0-0-0-0-0-0-0-0/3-3-3-3-3-3-3-3-3-3-3-3/5-5-5-5-5-5-5-5-5-5-5-5---|-I
E I:--------------------------------------------------------------------------|I

Bridge(cont'd)
G I:--------------------------------------|I
D I:--------------------------------------|I
A I:8-8-8-8-8-10-10-10-10-10--------------|I
E I:--------------------------------------|I

Too late too late

Sorry, couldn't find tab for this song either

The guys who managed to get tabs done
Helpless- hypadermic@aol.com
The small hours- hypadermic@aol.com
The wait- hypadermic@aol.com
Crassh course in brain surgery- eros fratini
Last caress/green hell- eros fratini
Am I evil?- anonomys
Blitzkrieg- steve gorenberg
Breadfan- peter klein
The prince- jeff gamble
Stone cold crazy- mark craig
So what- eros fratini
Killing time- will
Stone dead forever- anonomys

The guy who tried to put all this shit together
Big tommy p

Sorry...
comments
We did not receive enough feedback on this tab! Please rate:
print report bad tab
1 2 3 4 5
I want to post or [tab]
guest
You may want to rate the tab now too:
select rating
Please do not post tabs as comments. Select "correction" instead!