Oops, an error
Loading. Please wait.

Garage Inc Tab

ver1
ver1

Album

More versions @911Tabs.com
53,624 views 27 this week
8 commentsread comments
1 2 3 4 5
excellent!
x 15
add to favorites launch autoscroll
font size
0
reset
Autoscroll
+/-
esc
set tempo
stop
WARNING: You are trying to view
                                    content from Ultimate-Guitar.com
                                    in an unauthorized application,
                                    which is prohibited.

                                    Please use an official Ultimate
                                    Guitar Tabs application for iPhone,
                                    iPad or Android to access legitimate
                                    chords, guitar, bass, and drum tabs
                                    from Ultimate-Guitar.com database.

                                    Type "ultimate guitar tabs" in Apple
                                    App Store's or Android Market's
                                    search to find the application.
            .-/                                    ~=-._
         .-~ /   ____  ______ __  _    _     _   ____|  ~-._ 
        ~~/  -~||  __||_  __//  || |  | |   | | / __/| .\~~ 
         / . . ||  __| | |  / ' || |__| |__ | || (__ |   \ 
        / / ~| ||____| |_| /_/|_||____|____||_| \___\| |\ \ 
       / /   |-~                                     ~-| \ \ 
      / /__          "The Garage Inc." TAB Book         __\ \ 
     /  .-~                 Compiled by                 ~-.  \ 
    /.-~                    Andrew Bowie                   ~-.\ 
   /~                       Version 2.0                       ~\ 
 
                   Last Updated : 4th December 1998 
          Email for corrections : bowie@yoyo.cc.monash.edu.au or rb@mlode.com
    Web Page for latest version : http://www.mlode.com/~rb/metallica/
 
This book was updated to include the tunes from the Garage Inc. album
which was released in 1998.

This book contains all the covers that Metallica have done over the years. 
They were released in various forms, either on the Creeping Death single, 
as the Garage Days Re-Revisited EP or on other newer singles. Enjoy! 
They are all now on the Garage Inc. album.
 
------------------------------------------------------------------------------ 
-------------------------     MetallicA     ---------------------------------- 
 
Contents.. 
<<The First 11 tabs are from Disc I of Garage Inc.>>
1.  Free Speech For the Dumb	    : Phil Boyle
2.  It's Electric			    : Phil Boyle	
3.  Sabbra Cadabra		    : Phil Boyle
4.  Turn the Page			    : Phil Boyle
5.  Die, Die My Darling		    : Phil Boyle, Brad Ryder
6.  Loverman			    : Phil Boyle
7.  Mercyful Fate			    : Phil Boyle
8.  Astronomy 			    : Phil Boyle, Jon Franco, and Ville Loukonen   
9.  Whiskey in the Jar		    : Phil Boyle, Flavio
10. Tuesday's Gone 		    : Phil Boyle 	
11. The More I See		    : Phil Boyle 

<<The rest of the tabs are on DISC II of Garage Inc.>>
1.  Helpless                      : Unknown :( 
2.  The Small Hours               : RoY (nancy.henry@gbd.com) 
3.  The Wait                      : Legion 
4.  Crash Course In Brain Surgury : Travis Fitch 
5.  Last Caress                   : Unknown :( 
6.  Green Hell                    : Paul Halvorson 
7.  Blitzkrieg                    : Jeff Jacobson and Vassilis Tzerpos 
8.  Am I Evil?                    : Jon Kendrew (am2el@herts.ac.uk) 
9.  Breadfan                      : Tim (tscott@plains.nodak.edu) 
10. The Prince                    : Fredrik Staaf
11. Killing Time                  : Rafael Dylong 
12. Stone Cold Crazy              : Howard Wright (spxhaw@uk.ac.cf.thor) 
13. So What!                      : Rafael Dylong 
14. Overkill			    : Phil Boyle
15. Damage Case			    : Vladimir Lapotkin and Phil Boyle 	
16. Stone Dead Forever		    : Phil Boyle	
17. Too Late Too Late		    : Phil Boyle	
 
---------
Where are the songs found??? 
GARAGE INC.!!
For Disc II:
1-6  = Garage Days Re-Revisited $5.95 EP 
7-8  = Creeping Death single 
9    = Japanese Pressing of "One" 
10   = Japanese Pressing of "...And Justice For All" 
11   = Most "Unforgiven" singles 
12   = Most "Enter Sandman" singles 
13   = "Sad But True" Single.... 
---------
-------------------------     MetallicA     ---------------------------------- 
Free Speech for the Dumb
------------------------
 originally performed by Discharge
 as performed by Metallica on Garage Inc.,
 tab by Phil Boyle; phil@encycmet.com


 Tune all guitars down 1 & 1/2 steps (3 half steps) down
 low to high C#, F#, B, E, G#, c#

 1)
 B---2-2-2-2-2-2-2-2-2-2-2-2-2-2-2-5
 F#--2-2-2-2-2-2-2-2-2-2-2-2-2-2-2-5
 C#--0-0-0-0-0-0-0-0-0-0-0-0-0-0-0-3

 yep, that's it just one riff.

-------------------------     MetallicA     ---------------------------------- 
It's Electric
-------------
 originally performed by Diamond Head
 as performed by Metallica on Garage Inc.,
 tab by Phil Boyle; phil@encycmet.com


 tune all guitars down 1/2 step
 1)
 Db---------------
 Ab--9-7---7------
 Eb------9---9-7-5


 2)
 Gb------------------------------------------------------
 Db----------2-----2-----2-4-4----------2-----2-----2-4-4
 Ab--4-4-----0-----0-----0-2-2--4-4-----0-----0-----0-2-2
 Eb--2-2-2-2---2-2---2-2--------2-2-2-2---2-2---2-2------
        pm..   ...   ...            ...   ...   ...

 3)
 Gb------------------------------
 Db--4-4-4-----9-----------------
 Ab--2-2-2---9-7-9--9-7---7------
 Eb----------7---7------9---9-7-5


 4)
 Gb-------x-x--2----x-x
 Db--2-4--x-x--2-4--x-x
 Ab--2-4--x-x--0-4--x-x
 Eb--0-2--x-x----2--x-x
 "Gonna be a rock and roll star"


 5)
 Db--9-9-9-9-8-8-8-8-7-7-7-7-6-6-6-6
 Ab--9-9-9-9-8-8-8-8-7-7-7-7-6-6-6-6
 Eb--7-7-7-7-6-6-6-6-5-5-5-5-4-4-4-4
 mid-solo


 6)
 Db--4--2--4--2--2-3-4---4
 Ab--2--0--4--2--2-3-4---4
 Eb--------2--0--0-1-2---2
 end of solo

-------------------------     MetallicA     ---------------------------------- 
Sabbra Cadabra
--------------
 originally performed by Black Sabbath
 as performed by Metallica on Garage Inc.,
 tab by Phil Boyle; phil@encycmet.com


 (riffs 8 through 12) are from "A National Acrobat" also by Black Sabbath

 tune all guitars down 1 full step
 1)
 d------------------------------------------------------------
 A------------------------------------------------------------
 F--------7--------------7------------------------------------
 C----7h9---9-9-9~~--7h9---9-9-9~~----7--------------7--------
 G--9--------------9--------------7-9---9-7-5----7-9---9-7-5--
 D--------------------------------------------7~~------------7
 intro


 2)
 F--4---6---7---9----
 C--4---6---7---9---7
 G--2---4---5---7---7
 D------------------5
 played under riff 1)


 3a) James
 F--2--4-4--------------2--4-4----2---2----
 C--2--4-4--------------2--4-4----2-5-2-4-2
 G--0--2-2--------------0--2-2----0-5-0-4-2
 D----------------------------------3---2-0

 3b) Kirk
 d------------------------------------------------------
 A--10-12-12~~12p10----10-12-12~~10-10-10~~-------------
 F------------------11---------------------11-9--11-9---
 C---------------------------------------------------9-9
 G------------------------------------------------------
 D------------------------------------------------------


 4)
 F--2--4-4-----2--4-4--------2-2-----2--4-4
 C--2--4-4-----2--4-4--------2-2-----2--4-4
 G--0--2-2-----0--2-2-----2--0-0-----0--2-2
 D------------------------3----------------
 Feel so good, feel so fine


 5a) Kirk
 d-----0-------------2
 A-----0-------------2
 F--------------------
 C--2--------------4--
 G--2--------------4--
 D--0--------------2--

 5b) James
 F-----9-9\7/9-9~~----11-11\9\7/9/11/16
 C--2--------------4-------------------
 G--2--7-7\5/7-7~~-4--9--9-\7\5/7/9-/14
 D--0--------------2-------------------
 "Someone to love me"

 5c) James at 2:10 (instead of 5b)
 F-----9-9\7/9-9~~----11-11\9\7/9/11/4
 C--2--------------4------------------
 G--2--7-7\5/7-7~~-4--9--9-\7\5/7/9-/2
 D--0--------------2------------------


 6a) Kirk?
 d---------------------------
 A---------------3p0------3p0
 F-----------2--------2------
 C-------------0--------0----
 G------0-2------------------
 D--0-3----------------------
 with wah (this part is really jumbled together)

 6b) James
 F----------------------------------7------------------
 C--9-7-----------9-7-----------------7-9--9-7---------
 G------9-7-----------9-7-------7-9------------9-7-----
 D----------10-9----------10-9---------------------10-9


 7)
 F--4-2-------7-6--4--2------
 C--4-2--4-2--7-6--4--2--4--2
 G--2-0--4-2--5-4--2--0--4--2
 D-------2-0-------------2--0


 8a) James
 F----------------------------------2-0------------
 C---------------------3-2~----------------2~3~2~3~
 G--3h5-5-5--5-3h5-3h5------3h5-5-5-----3----------
 D-------------------------------------------------

 8b) Kirk
 F---------------------2-0----------2-0------------
 C--2h3-3-3--3-2h3-2h3------2h3-3-3-----2--2~3~2~3~
 G-------------------------------------------------
 D-------------------------------------------------


 9)
 F--7-------5----
 C--7---3---5---5
 G--5---3---3---5
 D------1-------3
 "I am the world that hides..."


 10)
 F--3---2--------
 C--3---2---3---5
 G--1---0---3---5
 D----------1---3
 "I've lived 1000 times..."


 11)
 F-------------------------------7--X-X
 C-----------------3-2-----------7--X-X
 G--3h5--5-3h5-3h5-----3-0-3h5---5--X-X
 D----------------------------------X-X
 "You gotta believe me"
 one guitar with wah, one without


 12)
 F---------------------------------------------
 C----------------------------------------7-7-7
 G--5--3--------5--3--------5--7--8--7--7~7-7-7
 D--------3--1--------3--1----------------5-5-5

-------------------------     MetallicA     ---------------------------------- 
Turn the Page
-------------
 originally performed by Bob Seger
 as performed by Metallica on Garage Inc.,
 tab by Phil Boyle; phil@encycmet.com


 tune all guitars down 1/2 step
 1a) James
 eb--0--0-0-0-0-0-0-0-------------0--0-0-0-0-0-0-0
 Bb--0--0-0-0-0-0-0-0-------------0--0-0-0-0-0-0-0
 Gb--0--0-0-0-0-0-0-0-------------0--0-0-0-0-0-0-0
 Db--2--------2------------2------2--------2------
 Ab--2--------------------------------------------
 Eb--0-----------------0-3----0-------------------
 intro (strummed chords mostly repeated on the higher strings))

 1b) Kirk
 eb--/15-14~~------------------------
 Bb----------15-15~---12~------------
 Gb----------------14----12-11~~-----
 Db-----------------------------12-14
 Ab----------------------------------
 Eb----------------------------------


 2a) James
    Emin Dmaj Amaj Emin
 eb--0----2----0-----0
 Bb--0----3----2-----0
 Gb--0----2----2-----0
 Db--2----0----2-----2
 Ab--2---------0-----2
 Eb--0---------------0
 clean verse (strummed chords)
 "On a long and lonely highway"

 2b) Kirk
 eb------------------------------------
 Bb------------------------------------
 Gb------------------/12-11------------
 Db--14-12~~~5-7~~~~~-------12-12~~~7-9
 Ab------------------------------------
 Eb------------------------------------


 3)
 eb--0-----------0---------------------------------------
 Bb--0-----------0----7--7--7-8-8-7----2--2--2-3-3-2--2--
 Gb--0-----------0--9-7--7--7-7-7-7--7-2--2--2-2-2-2--2--
 Db--2--2--2-2-2-2--9-7--7--7-7-7-7--7-2--2--2-2-2-2--2-2
 Ab--2--2--2-2-2-2--7-5--5--5-5-5-5--5-0--0--0-0-0-0--0-2
 Eb--0--0--0-0-0-0--0-----------------------------------0
 Crunch verse
 The heavy chords have quite a bit of decoration (4ths especially).
 but the basic chord progression is the same as the clean verse
 There is the little fill from riff 1) in one of the verses too.


 4a)
 Gb--7---7--7-7--7-7-------------------
 Db--7---7--7-7--7-7----2---2--2-2--2-2
 Ab--5---5--5-5--5-5----2---2--2-2--2-2
 Eb---------------------0---0--0-0--0-0
 distorted
 but here I am,     on the road again 

 4b)
 Gb--7---7--7-7--7-7----2---2--2-2--2-2
 Db--7---7--7-7--7-7----2---2--2-2--2-2
 Ab--5---5--5-5--5-5----0---0--0-0--0-0
 Eb------------------------------------
 here I go,         playing the star again

 4c)
 Gb--5-5-5/7-7-7----
 Db--5-5-5/7-7-7---2
 Ab--3-3-3/5-5-5---2
 Eb----------------0
 there I go,  turn the page


 5)  ^V
 eb---------------         ------------------------
 Bb--7~~----------         -5--5--7--5--7--10--7--9
 Gb--7~~---------- 3 times -5--5--7--5--7--10--7--9
 Db-------------9-         -5--5--7--5--7--10--7--9
 Ab---------5---7-         ------------------------
 Eb-----5-7---7---         ------------------------
       pm....
 with wah
 ...what she said

-------------------------     MetallicA     ---------------------------------- 
Die, Die, Die My Darling
-------------------------
 written by The Misfits
 as performed by Metallica on Garage Inc
 tab by Brad Ryder and Phil Boyle; 


 Tune all guitars down 1/2 step
 1)
 eb------------------------------
 Bb--4--4--4--4--4--4--4--4------
 Gb--4--4--4--4--4--4--4--4--4--3
 Db--4--4--4--4--4--4--4--4--5--4
 Ab--2--2--2--2--2--2--2--2--5--4
 Eb--------------------------3--2
  "Die, die, die my darlin..."


 2a) James
 eb-----------------------------------------------------------
 Bb-------4--4--4--4--4--4--4--4------------------------------
 Gb--1----4--4--4--4--4--4--4--4----1-----4------------------4
 Db--2----4--4--4--4--4--4--4--4----2-----5------------------5
 Ab--2----2--2--2--2--2--2--2--2----2-----5------------------5
 Eb--0------------------------------0-----3--3-3-3-3-3-3-3-3-3
    "Oh, I'll be seeing you again..."       pm-------------|

 2b)
 eb-----------------------------------------------------------
 Bb------4----------------------------------------------------
 Gb--1---4--4--4--4--4--4-4/6\4-----1-----4------------------4
 Db--2---4--4--4--4--4--------------2-----5------------------5
 Ab--2---2--2--2--2--2--2-2/4\2-----2-----5------------------5
 Eb--0------------------------------0-----3--3-3-3-3-3-3-3-3-3


 3)
 eb--------------------------------------
 Bb--4--4--4--4--4--4--4--4-------7--6--4
 Gb--4--4--4--4--4--4--4--4--6----7--6--4
 Db--4--4--4--4--4--4--4--4--5----7--6--4
 Ab--2--2--2--2--2--2--2--2--5----5--4--2
 Eb--------------------------3-----------
  "Don't cry to me oh baby..."


 4a)                       4b)
 eb----------------------   --14
 Bb--12-12-12-12-12-12-12   ----
 Gb----------------------   ----
 Db----------------------   ----
 Ab----------------------   ----
 Eb----------------------   ----
 Riff 4a goes through the entire song until the end where 4b rings out.

-------------------------     MetallicA     ---------------------------------- 
Loverman
----------
 written by Nick Cave and the Bad Seeds
 as performed by Metallica on Garage Inc
 tab by Phil Boyle; phil@encycmet.com


 tune all guitars down 1/2 step.
 1)
 eb--0--1--3
 Bb--1--1--3
 Gb--0--2--4
 Db--2--3--5
 Ab--3------
 Eb---------
 "There's a devil waiting outside your door"
 clean
 the bass chord progression is C F G, there are small guitar parts
 along those lines, and a lot of little fills.


 2)
 Gb--5---10--12
 Db--5---10--12
 Ab--3---8---10
 Eb------------
 "Loverman"
 crunch
 same basic progression, Kirk plays the same (or similar) progression
 with the wah in full force.


 3)
 eb--3h4p3----------1-3--1
 Bb-----------1-3-4-------
 Gb-----------------------
 Db-----------------------
 Ab-----------------------
 Eb-----------------------
 the spelling bee part
 clean

-------------------------     MetallicA     ---------------------------------- 
Mercyful Fate
--------------
 written by Mercyful Fate (medley written by Hetfield and Ulrich)
 as performed by Metallica on Garage Inc
 tab by Phil Boyle; phil@encycmet.com


 tune all guitars down 1/2 step
 1)
 Gb------------------------------------------------------------
 Db------4pX-----4pX-----4pX-----5------4pX-----4pX-----4pX-4-2
 Ab---------------------------------------------------------2-0
 Eb--0-2-----0-2-----0-2-----2~3~---0-2-----0-2-----0-2--------
 intro of "Satan's Fall"
 To get the 4pX part to sound right, I leave my index (1st) finger across
 every string (but not fretting any notes except on the low E) like a regular
 barre chord so it mutes the D string.


 2)
 Gb----------------------
 Db--4-4-5-5--5--5--5-5-4
 Ab--2-2-3-5--5--5--5-5-4
 Eb--------3--3--3--3-3-2
 "Bringing the blood"


 3a)
 Gb--2-------5-----2-----5---7-7~
 Db--2-------5-----2-----5---7-7~
 Ab--0-0-0-0---0-0-0-0-0---0-----
 Eb------------------------------

 3b)
 Gb--2-------5-----2-----5---5-4
 Db--2-------5-----2-----5---5-4
 Ab--0-0-0-0---0-0---0-0---0----
 Eb-----------------------------

 3c)
 Gb--2p0-2p0-5-2---2-----5---7-7~7p5---2-------5-------0-----0----
 Db--2p0-2p0-5-2---2-----5---7-7~7p5---2-------5-----2-----0------
 Ab--0-0-0-0---0-0-0-0-0---0---------7-0-0-0-0---0-3-----2-------2
 Eb------------------------------------------------------------3--
 intro to "Curse of the Pharaohs" (0:40)


 4a)James
 eb-------------------------------------
 Bb-------------------------------------
 Gb------7-5-2-----2-----4-5h7p5h7p5h7p5
 Db------7-5-2-----2-----4--------------
 Ab--0-0-----0-0-0-0-0-0----------------
 Eb-------------------------------------
    pm..       ...   ...

 4b)Kirk
 eb-------------------------------------
 Bb------------------------5h6p5h6p5h6p5
 Gb------7-5-2-----2-----4--------------
 Db------7-5-2-----2-----4--------------
 Ab--0-0-----0-0-0-0-0-0----------------
 Eb-------------------------------------
    pm..       ...   ...


 5)
 Gb----------------------------------------------------------
 Db--4------------------------------------------------4-2-5-7
 Ab--4------------------------------------------------4-2-5-7
 Eb--2--2-2-2--2-2-2--2-2-2--2-2-2--2-2-2--2-2-2--2-2-2-0-3-5
       pm............................................
 "Crying out in Egypt..."


 6)
 Gb-----------------------------2-------------4----------------6
 Db------4-2-5-6----------------2-------------4----------------6
 Ab------4-2-5-6----------------0-0-0--0-0-0--2--2-2-2--2-2-2--4
 Eb--2-2-2-0-3-4--4-4-4--4-4-4----------------------------------
 "Don't touch                 steal          unless            kill"


 7)
 Gb--------2-------------2-----------2---------------2   ----9--8
 Db--4-2-4-2-4-5-4-------2-2---4-2-4-2-4-7-6-------2-2   -2--9--8
 Ab--4-2-4-0-4-3-2-3-2-0-0-2---4-2-4-0-4-5-4-5-4-2-2-0   -2--7--6
 Eb--2-0-2---2-------------0---2-0-2---2-----------0--   -0------
 "You've been hexed                              on you" (2nd time)


 8)
 Gb--------------------
 Db--2-4--4-5--7-4--9-7
 Ab--2-4--4-5--7-4--9-7

 Eb--0-2--2-3--5-2--7-5
 pre solo
  

 9)
 Gb---------------------------4-4-4
 Db---------------------------4-4-4
 Ab--4-4-4-4-4-4-4-4-4-4-4-4--2-2-2
 Eb--------------------------------
    pm......................
 solo riff


 10)
 Gb--7\4--9\4--10\4--9\4       ----------------------
 Db--7\4--9\4--10\4--9\4 twice ---7\4--9\4--10\4--9\4
 Ab--5\2--7\2--8-\2--7\2       ---7\4--9\4--10\4--9\4
 Eb---------------------       ---5\2--7\2--8-\2--7\2


 11)
 Gb--9--7--7-6-5-4------------------------------------------------4-2-5-7
 Db--9--7--7-6-5-4------------------------------------------------4-2-5-7
 Ab--7--5--5-4-3-2--2-2-2--2-2-2--2-2-2--2-2-2--2-2-2--2-2-2--2-2-2-0-3-5
 Eb----------------------------------------------------------------------
                   pm............................................
 right before going back into the verse (riff 5)


 12)
 Gb--5--4--5--7--4--5--3--4
 Db--5--4--5--7--4--5--3--4
 Ab--3--2--3--5--2--3--1--2
 Eb------------------------


 13a)
 eb----------------------------------------------------------
 Bb----------------------------------------------------------
 Gb------------5--------7--7-5-7-5-------------5----------5--
 Db------7p5---5--7p5---7--7-5-7-5-------7p5---5-7p5---5--5-5
 Ab--0-0-----7--------7--------------0-0-----7-------7-5----5
 Eb----------------------------------------------------------

 13b)
 eb--------------------------------------------------------------------------
 Bb--------------------------------------------------------------------------
 Gb------------5--------7--7-5-7-5---7p5---5------------------------------7-7
 Db------7p5---5--7p5---7--7-5-7-5-------7---7p5-7p5---5------------------7-7
 Ab--0-0-----7--------7------------------------------7---7p5-7p5---5------5-5
 Eb--------------------------------------------------------------8---8p5-----
 intro to "A Corpse Without Soul" (3:53)
 It's all one riff, but after the first time, only 13a) is played.


 14)
 eb------------------------------------------------------------
 Bb------------------------------------------------------------
 Gb------------5---------------------------------5----------5--
 Db------7p5---5----7p5------7p5-5---------7p5---5-7p5---5--5-5
 Ab--0-0-----7---7-------0-0-----5-7---0-0-----7-------7-5----5
 Eb------------------------------------------------------------
    pm..                 ...
 "Listen.. yeah yeah.. I'm a corpse"


 15)
 Gb--7---7-5-4-5
 Db--7---7-5-4-5
 Ab--5---5-3-2-3
 Eb-------------
 "He took it on me"


 16)
 eb--------------------------------------------------
 Bb--------------------------------------------------
 Gb------------5--10--12-12~~----------5----------5--
 Db------7p5---5--10--12-12~~----7p5---5-7p5---5--5-5
 Ab--0-0-----7---------------0-0-----7-------7-5--3-5
 Eb-------------------------------------------------3
    pm..                     ...

 17)
 Gb--7-5-4--5-4-2--4-2----2------2
 Db--7-5-4--5-4-2--4-2-5--2-5-4--2
 Ab--5-3-2--3-2-0--2-0-5--0-5-4--0
 Eb--------------------3----3-2---


 18a) Kirk
 eb-----------8----8-7~~~8--12--10~~h12p10h12p10
 Bb--10~~8-10---10------------------------------
 Gb---------------------------------------------
 Db---------------------------------------------
 Ab---------------------------------------------
 Eb---------------------------------------------

 18b) James
 Gb----------------------------------------7--5-7
 Db--7-----7-----7-9-10-7-7-10-9-----9-----7--5-7
 Ab--0-0-0-0-0-0-0-0-0--0-0-0--0-0-0-0-0-0----3-5
 Eb----------------------------------------------
      pm..   ...                 ...   ...
 intro to "Into the Coven" (5:23)
 "Howl like a wolf..."


 19)
 Gb--10-7-7-7--7-8--10-7-7-7--7-8-9-10
 Db--10-7-7-7--7-8--10-7-7-7--7-8-9-10
 Ab--8--5-5-5--5-6--8--5-5-5--5-6-7-8-
 Eb-----------------------------------


 20a)                               20b)
 Gb-------------------------------   -------------
 Db-------------------------------   -------------
 Ab--4-----------------------5-5-4   ----0-2-3-4--
 Eb--2-2-2-2-2-2-2-2-2-2-2-2-3-3-2   --2---------2
      pm....................
 "Yeah come come into my coven"       (after the first coven)


 21) 7:11
 Gb--5-5-5--5-5--5-5-5------
 Db--5-5-5--5-5--5-5-5-5-4-2
 Ab--3-3-3--3-3--3-3-3-5-4-2
 Eb--------------------3-2-0
 intro to "Evil"


 22)
 Gb--9--9/12\9--9/12\9--9/12\9--9/12--7-9-7-9
 Db--9--9/12\9--9/12\9--9/12\9--9/12--7-9-7-9
 Ab--7--7/10\7--7/10\7--7/10\7--7/10--5-7-5-7
 Eb-----------------------------------0-0--0-0
                                     pm.......


 23)
 Gb--4----------------2-4-7-4
 Db--4----------------2-4-7-4
 Ab--2--2-2-2-2-2-2-2-0-2-5-2
 Eb--------------------------
       pm............
 "I was born in a cemetary"


 24)
 Gb-------------------------
 Db-------------------------
 Ab------------------0-2-5-2
 Eb--3-3-3-3-3-3-3-3--------
 "Raised from my grave..."


 25a)
 Gb--------------------------------7-5----------------------------
 Db--4-----------------------------7-5----------------------------
 Ab--4-----------------------------5-3--3-3-3--3-3-3--3-3-3--3-3-3
 Eb--2--2-2-2--2-2-2--2-2-2--2-2-2--------------------------------

 25b)
 Gb--4-2------------------------------4-5-6---------------------
 Db--4-2------------------------------4-5-6---------------------
 Ab--2-0--0-0-0--0-0-0--0-0-0--0-0-0--2-3-4--4-4-4--4-4-4--4-4-4
 Eb-------------------------------------------------------------
 "You know, my only pleasure..."


 26)
 Gb-------------------------------------
 Db--7--7/10\7--7/10\7--7/10\7--5-7-5-7
 Ab--7--7/10\7--7/10\7--7/10\7--5-7-5-7
 Eb--5--5/8-\5--5/8-\5--5/8-\5--3-5-3-5
 mid-solo


 27)
 Gb--------------------------5-------------7--5----------
 Db--7-7-5-7---7--5--5-5---3-5---7-7-5-7---7--5--5-5--3-3
 Ab--7-7-5-7---5--3--5-5---3-3---7-7-5-7---5--3--5-5--3-3
 Eb--5-5-3-5-0-------3-3-0-1-----5-5-3-5-0-------3-3--1-1
                    pm......                     ...  ...
 "And when you're down..." (9:10)


 28a) Kirk
 Gb--------------------7--9--10-----
 Db--3-3-----5---7-7-------------7-5
 Ab--3-3-----3---7-7---5--7--8------
 Eb--1-1---0---0-5-5----------------

 28b) James
 Gb--------------------7--5--3---7-5
 Db--3-3-----5---7-7---7--5--3---7-5
 Ab--3-3-----3---7-7---5--3--1---5-3
 Eb--1-1---0---0-5-5----------------
                      "You gotta say goodbye"

 29)
 Gb--2--5----3----3----3-3---------------------
 Db--2--5--3-3--3-3--3-3-3--8-6-8--8-6-8--8-6-8
 Ab--0--5--3-1--3-1--3-1-1--8-6-8--8-6-8--8-6-8
 Eb-----3--1----1----1------6-4-6--6-4-6--6-4-6
 during the bass part


 30)
 Gb-----------------------------------------------
 Db-------------------------------------------4--2
 Ab--3-3-3-3-3-3-3-3-3-3-3-3-3-3-3-3-3-3-3-3--2--0
 Eb-----------------------------------------------
 solo

 back to riff 1

-------------------------     MetallicA     ---------------------------------- 
Astronomy
----------
 written by the Blue Oyster Cult
 as performed by Metallica on Garage Inc
 tab by Phil Boyle, Jon Franco, and Ville Loukonen; phil@encycmet.com


 tune all guitars down 1/2 step
 drum intro
 1)
 eb--0-0-0-0-0------
 Bb--0-0-0-0-0-0----
 Gb--0-0-0-0-0---2-0
 Db--2---2---2------
 Ab--2--------------
 Eb--0--------------


 2)
 eb--0--2--0--2--0--
 Bb--0--3--1--4--0--
 Gb--0--2--0--4--0--
 Db--2--0--2--4--2--
 Ab--2-----3--2-----
 Eb--0--------------
 Clock strikes twelve


 3)
 eb--0--3--0--2
 Bb--1--3--1--4
 Gb--0--0--0--4
 Db--2--0--2--4
 Ab--3--2--3--2
 Eb-----3------
 Like something on a folding chair?


 4a) James
 eb------------------------------------------------------------
 Bb------------------------------------------------------------
 Gb------------------------------------------------------------
 Db--9-7----7-------9-7----7-------9-7----7-------9-7----7-----
 Ab------10---10-9~~----10---10-7~~----10---10-9~~----10---10-7
 Eb------------------------------------------------------------

 4b) Kirk
 eb------------------------------------------------------------
 Bb--5-----------------------------5---------------------------
 Gb----7-5-7-5-5h7~~5-4----5----5~~--7-5-7-5-5h7~~5-4----5~~7~~
 Db---------------------7----7------------------------7--------
 Ab------------------------------------------------------------
 Eb------------------------------------------------------------


 5)
 Gb--9------9-----9---5-5~-----7--7-7-7-7-7-7-7--9-9
 Db--9------9-----9---5-5~-----7--7-7-7-7-7-7-7--9-9
 Ab--7------7-----7---3-3~-----5--5-5-5-5-5-5-5--7-7
 Eb--0--0-0-0-0-0-0-0------0-0-------------------0-0
       pm..   ...   .      ...    ...   ...
 "Call me casanova"


 6)
 Gb-7-5-7--7-5-7--7-5-7----
 Db-7-5-7--7-5-7--7-5-7----
 Ab-5-3-5--5-3-5--5-3-5----
 Eb------------------------
 "Never warms"


 7)
 eb--19-17----17----------------------------------------------------
 Bb--------20----20-17--12-10----10---------------------------------
 Gb---------------------------12----12-9----------------------------
 Db---------------------------------------9-7----7------------------
 Ab-------------------------------------------10---10-7--2-0---0----
 Eb----------------------------------------------------------3---3-0
 after never warms part


 8a) Kirk
 eb--15---------12------------------------------------12-14-12-14-15-17-19-17
 Bb------13--15---------10-12-----10-12~~~~--12-13-15------------------------
 Gb-----------------12---------12--------------------------------------------
 Db--------------------------------------------------------------------------
 Ab--------------------------------------------------------------------------
 Eb--------------------------------------------------------------------------

 8b) James                                  *****************************
 eb--15------------------------------------------------------------------
 Bb-------------12-------------------------------------------------------
 Gb------12--14---------11-12--------9~~~~~~-----------------------------

 Db-----------------14---------10--9-------------------------------------
 Ab-----------------------------------------7-7-6-6-5-5-4-3-2-2-3-3-4-5-6
 Eb----------------------------------------------------------------------
 *= similar to artificial harmonics, rest finger above the string while 
 picking and sliding down the neck before going into riff 5
 pre solo

-------------------------     MetallicA     ---------------------------------- 
Whiskey in the Jar
------------------
 adapted by Thin Lizzy
 as performed by Metallica on Garage Inc
 tab by Phil Boyle and Flavio; phil@encycmet.com


 tune all guitars down 1 full step
 1a) Kirk
 d--------------------------------------------------------
 A--------------------------------------------------------
 F--4-3---------------4--4-4--4-4--4-4-3------------------
 C--5-4-2--2-2--2-2---5--5-5--5-5--5-5-4--2--2-2--2-2--2-2
 G--5-4-2--2-2--2-2---5--5-5--5-5--5-5-4--2--2-2--2-2--2-2
 D------0--0-0--0-0-----------------------0--0-0--0-0--0-0

 1b) James
 d-------------------------                  --------------
 A----------8---7----------                  --------------
 F--------7---7---7-9/12~~~ three times then --------------
 C-------------------------                  ---5---4------
 G-------------------------                  -5---5---5----
 D-------------------------                  -----------7/3


 2)
 d-----------------------------------------------------------------------
 A------------------------------------------5--5-5--5-5--5-5-------------
 F--4-4--4-4--4-4--4-4--3-------------------5--5-5--5-5--5-5--4--4-4--4-4
 C--5-5--5-5--5-5--5-5--4-2--2-2--2-2--2-2--5--5-5--5-5--5-5--5--5-5--5-5
 G--5-5--5-5--5-5--5-5--4-2--2-2--2-2--2-2--------------------5--5-5--5-5
 D------------------------0--0-0--0-0--0-0-------------------------------
 "As I was walking over"


 3a) James
 d--5--5-5--5-5-4-3--3-3--3-3--3-3       --
 A--7--7-7--7-7-6-5--5-5--5-5--5-5       --        
 F--7--7-7--7-7-6-5--5-5--5-5--5-5 twice -4
 C--7--7-7--7-7-6-5--5-5--5-5--5-5       -5
 G--------------------------------       -5
 D--------------------------------       --

 3b) Kirk (the arpeggio on C is played in time with James' part)
 d--5-5-5-5-5-5-5-5--3----------------       -3
 A--7-7-7-7-8-7-5-7--5-----5---6-----5       -3
 F--7-7-7-7-7-7-7-7--5---5---5---5---- twuce -4
 C--7-7-7-7-7-7-7-7--5-5-----------5--       -5
 G--5-5-5-5-5-5-5-5--3----------------       -5
 D------------------------------------       -3
 "Sha rhem abaduba bla...there's whiskey in the Jar-o"


 4)
 d--3---0---0--3
 A--3---0---1--3
 F--0---0---0--0
 C--0---2---2--0
 G--2---2---3--2
 D--3---0------3
 "Well some men like a-fishin'"

-------------------------     MetallicA     ---------------------------------- 
Tuesday's Gone
---------------
 written by Lynyrd Skynyrd
 as performed by Metallica and friends on Garage Inc
 tab by Phil Boyle; phil@encycmet.com


 Accoustic performance;
 tune all guitars down 1/2 step
 1)
 eb--0--0--2--3---0--0--2
 Bb--2--0--2--2---2--0--3
 Gb--2--1--2--3---2--1--2
 Db--2--2--4--0---2--2--0
 Ab--0--2--4------0--2---
 Eb-----0--2---------0---
 intro and verse
 "Train rolls on, on down the line.  Please take me far, far away."
 Rhythm is strummed following this progression


 2)
 guitar 1                                     guitar 2
 eb-...2-2-2-2--2-2-2-2--2-2-3-2--2-2-3-2    ------------------------------
 Bb-...3-3-3-3--3-3-3-3--3-3-3-3--3-3-3-3    -5-3--5-3--5-3--5-3--2-3-2-0--
 Gb-...2-2-2-2--2-2-2-2--2-2-2-2--2-2-2-2    -----------------------------2
 Db-...0-0-0-0--0-0-0-0--0-0-0-0--0-0-0-0    ------------------------------
 Ab-...----------------------------------    ------------------------------
 Eb-...----------------------------------    ------------------------------
 end of verse


 3)
 eb--0--3--2
 Bb--2--0--3
 Gb--2--0--2
 Db--2--0--0
 Ab--0--2---
 Eb-----3---
 chorus
 "Tuesday's gone with the wind"


 4a)              ^ ^ ^     ^ ^ ^     ^ ^ ^
 eb-------------------------------------------
 Bb--2-3-2-0----------------------------------
 Gb----------2---4-4-4-4~~-4-4-4-----4-4-4----
 Db------------------------------2~~-------4~~
 Ab-------------------------------------------
 Eb-------------------------------------------
 very "bendy"

 4b)          ^  ^ ^ ^     ^ ^ ^     ^ ^ ^ 
 eb----------------------------------------------------
 Bb-------------------------------------------2-3-2-0--
 Gb------2-4-4~-4-4-4-4~~-4-4-4-----4-4-4-------------2
 Db--2-4------------------------2~~-------4~~----------
 Ab----------------------------------------------------
 Eb----------------------------------------------------
 still "bendy"

-------------------------     MetallicA     ---------------------------------- 
The More I See
---------------
 written by Discharge
 as performed by Metallica on Garage Inc
 tab by Phil Boyle; phil@encycmet.com


 tune all guitars down 1 1/2 steps (C# tuning)
 low to high C#, F#, B, E, G#, c#
 bass intro
 1)
 E--------------------------------2~
 B----------------------------------
 F#--2-2-2-2-2-2---2-2-2-2-2-2------
 C#--0-0-0-0-0-0---0-0-0-0-0-0-*----
 *=slide on C# string near the nut


 2)
 B----------------------------
 F#--8-7-8-7-8-7--5-2---------
 C#--6-5-6-5-6-5--3-0--0-0-0-0
 From where I stand I see


 3)
 B-------------------------------------
 F#--8------------------7--------------
 C#--6-6-6-6-6-6-6-6-6--5-5-5-5-5-5-5-5
 The less I believe


 4)
 B---------------------------------------------
 F#--8----------------------2------------------
 C#--6-6-6-6-6-6-6-6-6-6-6--0-0-0-0-0-0-0-0-0-0


-------------------------     MetallicA     ---------------------------------- 
Helpless 
-------- 
 
Rythmn Fig 1.                     Bridge into chorus 
 
                                ||            Hold These chords 
   A B        F#          Repeat|| A B        F# D E F#   D E F# 
e|------------------------------||----------------------------------| 
B|------------------------------||----------------------------------| 
G|-2-4--(4)--------------------*||-2-4--(4)------7-9---11-7-9-------| 
D|-2-4--(4)-----4-----4-----4--*||-2-4--(4)---4--7-9-4-11-7-9-4-----| 
A|-0-2-0h2p0----4-----4-----4---||-0-2-0h2p0--4--5-7-4- 9-5-7-4-----| 
E|------------2-2-0-2-2-0-2-2-0-||------------2------2--------2--2--| 
                                                                 | 
                                                                 | 
                                                 Pick real Fast and alot 
 
By this ( ) I mean hold the B chord with your ring finger and just perform the 
hammer and pull-offs with your index finger. Repeat This rythmn figure until 
you hit the bridge to the chorus. The Bridge into the chorus has a bunch of 
power chords which are held. Listen to the tune and you'll get the picture.... 
 
 Chorus (Lyrics go 'HELPLESS....!') 
 
   Part 1                            Part 2             Part 3 
   A                      repeat 3x| A         G      | A         G   A 
e|---------------------------------|------------------|----------------- 
B|---------------------------------|------------------|----------------- 
G|--------------------------------*|-----------------*|----------------- 
D|------------------7p5---------5-*|-----------5-5-5-*|-----------5-5-7- 
A|----------------------7-6-7-6----|-----------5-5-5--|-----------5-5-7- 
E|--5-5-5-5-5-5-5-5----------------|-5-5-5-5-5-3-3-3--|-5-5-5-5-5-3-3-5- 
 
By this I mean play Part 1 three times, then play Part 2. Then you play Part 1 
three times again and finish the chorus with Part 3. Work with me on this 
one... I'm not sure about the part 1 section... but this is close.... 
 
Now return to ryth. Fig 1 amd play it till you hit the chorus a second 
time... do the chorus again and then play rythmn Fig 1 again until you hit the 
little Newstead bass solo, after which you hit a second bridge. I prefer to 
enter into this section with a jumping, banging pick slide. In other words I 
bounce the pick off the low E, A and D while sliding the edge down the 
fretboard... Anyway it sounds real cool... 
 
Bridge 2 
 
 |<-------Repeat 4x |<------Repeat 4x|<------Repeat 4x|<------Repeat 4x| 
e|------------------|----------------|----------------|----------------| 
B|------------------|----------------|----------------|----------------| 
G|-----------------*|---------------*|---------------*|---------------*| 
D|-----------------*|---------------*|---------------*|---------------*| 
A|----0-2----0h2p0--|---2-4---2h4p2--|---3-5---3h5p3--|---5-7---5h7p5--| 
E|--2------2--------|-4-----4--------|-5-----5--------|-7-----7--------| 
 
 
 |<-------Repeat 2x|<------Repeat 2x| 
e|-----------------|----------------|----------------------------------- 
B|-----------------|----------------|----------------------------------- 
G|----------------*|---------------*|----------------------------------- 
D|----------------*|---------------*|---------------7-9---5-7---3-5----- 
A|----3-5---3h5p3--|---5-7---5h7p5--|---3-5---5-7-9-----7-----5--------- 
E|--5-----5--------|-7-----7--------|-5-----7--------------------------- 
 
            |    | Rythmn Fig 2.         || End ryth. Fig 2 
            |    |                       || 
 End bridge2|    |<----Repeat 3x|        || 
e|----------|    |--------------|--------||-------------------------------- 
B|----------|    |--------------|--------||-------------------------------- 
G|-4---2-4--|    |---4p2---2-4-*|-7---9--||-------------------------------- 
D|-4-5-2-4--|    |---4p2-4-2-4-*|-7-7-9--||-------------------------------- 
A|-2-5-0-2--|    |-------4------|-5-7-7--||-------------------------------- 
E|---3------|    |--------------|---5----||-------------------------------- 
 
 
  Rythmn Fig 3. 
 
 | F#A B D C#A F#A B E     F#A B D C#A F#A B D C#B |<--------Repeat 2x | 
e|-------------------------------------------------|-------------------| 
B|-------------------------------------------------|-------------------| 
G|---2-4-7-6-2---2-4---------2-4-7-6-2---2-4-7-6-4-|6-----------7-9-7-*| 
D|-4-2-4-7-6-2-4-2-4-2-2-2-4-2-4-7-6-2-4-2-4-7-6-4-|6-----------7-9-7-*| 
A|-4-0-2-5-4-0-4-0-2-2-2-2-4-0-2-5-4-0-4-0-2-5-4-2-|4-4-4-4-4-4-5-7-5--| 
E|-2-----------2-----0-0-0-2-----------2-----------|-------------------| 
 
   Rythmn Fig 3a.                                  | 
                                                   | End Ryth. Fig 3 
   C#       D        E       F        F# E C#C B A | 
e|-------------------------------------------------|-------------------- 
B|-------------------------------------------------|-------------------- 
G|-6-sl.\---7-sl.\---9-sl.\--10-sl.\--11-9-6-5-4-2-|-------------------- 
D|-6-sl.\---7-sl.\---9-sl.\--10-sl.\--11-9-6-5-4-2-|-------------------- 
A|-4-sl.\---5-sl.\---7-sl.\-- 8-sl.\-- 9-7-4-3-2-0-|-------------------- 
E|-------------------------------------------------|-------------------- 
 
Ok, Lots of explaining to do... first of all the bridge: play each section 
marked for repetition and then proceed to the next bar... do not go back to 
the beginning of the bridge each time... I just was lazy and didn't want to 
write it all up... listen to the song and then try to figure it out...The 
bridge ends with four power chords: B, G, A, B. Then the song heads into 
rythmn figure 2. 
 
Rythmn Fig. 2 is played FAST! Repeat it a bunch of times until you hit the 
second set of lyrics. Then break into Rythmn Fig 3 followed by Rythmn Fig 3a. 
After the lyrics then back to Rythmn Fig. 2. This entire thing is repeated 
twice (I think.... Check out the song). 
 
Now we head towards the guitar solo. Rythmn fig 2 is played once and followed 
by rythmn Figure 1.  Ryth. Fig 1 repeats a bunch of times and the intro to 
the solo starts with an E power chord on 0th fret. Rythmn Fig 1. is played 
behind the solo until near the end of the solo the Rythmn changes to rythmn 
figure 4. 
 
  Rythmn Fig 4. 
 
 |<-----repeat 3x|             |<---------repeat 2x | 
e|---------------|-------------|--------------------|------------------- 
B|---------------|-------------|--------------------|------------------- 
G|----2-4-------*|---2-4-7-6-4-|-6-----------7-9-7-*|------------------- 
D|--4-2-4-2-2-2-*|-4-2-4-7-6-4-|-6-----------7-9-7-*|------------------- 
A|--4-0-2-2-2-2--|-4-0-2-5-4-2-|-4-4-4-4-4-4-5-7-5--|------------------- 
E|--2-----0-0-0--|-2-----------|--------------------|------------------- 
 
Now finish the solo off with Rythmn Fig. 3a.... 
 
The lead for the solo is basically a blues based Hammet solo in F#. 
Most of it is played on 14th fret, and Kirk does his standard drop down to F# 
on the 2nd fret. 
 
Well I'm almost done.... Now the song finishes with Rythmn Figure 1 being 
played a couple of times and then a slowed down, slightly varied version 
ends the song.... 
 
-------------------------     MetallicA     ---------------------------------- 
The Small Hours 
--------------- 
   Tough timing listen to song 
 
 INTRO: 
 E-|---0|------0---------0-----|--|--------0-------0--------0-|--| 
 B-|----|--6--------6---------6|--|---4--------4--------4-----|--| 
 G-|-8--|8---8----8---8----8---|x2|-7---7----7---7----7---7---|x2| 
 D-|----|----------------------|--|---------------------------|--| 
 A-|----|----------------------|--|---------------------------|--| 
 E-|----|----------------------|--|---------------------------|--| 
 
     Main Riff 
 E-|----------------------|--|---------|------------------------| 
 B-|----------------------|--|---------|------------------------| 
 G-|----------------------|--|---------|repeat-a-bunch-of-times-| 
 D-|----------------------|x3|---------|------------------------| 
 A-|-2-2--4/5\4/5--2-2--5-|--|-5-4--4-3|------------------------| 
 E-|-0-0--2/3\2/3--0-0--3-|--|-3-2--2-1|------------------------| 
 
     during verse play main riff 4 times then: 
 E-|-----------------------| 
 B-|-----------------------| 
 G-|-----------------------| 
 D-|-5---------3-----------| 
 A-|-5---------3-----------| 
 E-|-5---------3-----------| 
     then main riff 2x 
 
 E-|---------------------------------------| 
 B-|---------------------------------------| 
 G-|---------------------------------------| 
 D-|---------------------------------------| 
 A-|-0-0-0------0--3--------0-----0------3-| 
 E-|-0-0-0---5-----------------5-------5-3-| 
 
 
 E-|-------------------------------------------------------| 
 B-|-------------------------------------------------------| 
 G-|-----------------------------------------7------7----7-| 
 D-|-----------------------------------------7------7----7-| 
 A-|-0--0--0-------0--3-------0-----0--------5------5----5-| 
 E-|-0--0--0----5----------------5-------5-----------------| 
 
     Play intro with: 
 E-|-------------------| 
 B-|-------------------| 
 G-|-------------------| 
 D-|-1-----------1-1---| 
 A-|-1-----------1-1---| 
 E-|-1-----------1-1---| 
 
     Rythem for the Solo 
 E-|-----------------------------------------------------------| 
 B-|-----------------------------------------------------------| 
 G-|-----------------------------------------------------------| 
 D-|-----------------------------------------------------------| 
 A-|-------------------------------------------6------------8--| 
 E-|-0---0-0-0----0-0-0----0-0-0---0-0-0---0-0-6-----0--0-0-8--| 
 
 
 E-|-------------------------------------------------------------------| 
 B-|-------------------------------------------------------------------| 
 G-|-------------------------------------------------------------------| 
 D-|-------------------------------------------------------------------| 
 A-|-----------------------------------------------6-------------------| 
 E-|-0---0-0-0----0-0-0----0-0-0-----0-0-0-----0-0-6-------0--6--5--3--| 
 
     After the solo play this 
 E-|-------------------------------------------------------------| 
 B-|-------------------------------------------------------------| 
 G-|-------------------------------------------------------------| 
 D-|-------------------------------------------------------------| 
 A-|----------------------------------------------6------------8-| 
 E-|-0--0-0-0---0-0-0-----0-0-0-----0-0-0-----0-0-6-----0--0-0-8-| 
 
 
 E-|----------------------------------------------------------| 
 B-|----------------------------------------------------------| 
 G-|----------------------------------------------------------| 
 D-|----------------------------------------------------------| 
 A-|----------------------------------------7-------------9---| 
 E-|-0---0-0-0--0-0-0----0-0-0--0-0-0---0-0-7-----0---0-0-9---| 
 
 
 E-|-----------------------------------------------------------| 
 B-|-----------------------------------------------------------| 
 G-|-----------------------------------------------------------| 
 D-|-----------------------------------------------------------| 
 A-|-----------------------------------------8--------------10-| 
 E-|-0---0-0-0--0-0-0----0-0-0---0-0-0---0-0-8------0---0-0-10-| 
 
     Then end with intro; and this 
 E-|-------------------------| 
 B-|-------------------------| 
 G-|-------------------------| 
 D-|-1------1-1----0-------0-| 
 A-|-1------1-1----0-------0-| 
 E-|-1------1-1----0-------0-| 
 
RoY 
 
-------------------------     MetallicA     ---------------------------------- 
The Wait 
-------- 
Key:                   |              >            >> 
o'. = dotted half     / = quarter    / = eighth   /  = 16th 
 
Intro: 
 
 
          |         |     >     >>  >     >>  >     >>  >     >>  >> >> >> >> 
    o'.  /    o'.  /     /     /   /     /   /     /   /     /   /  /  /  / 
-----------|----------|------------------------------------------------------| 
-----------|----------|------------------------------------------------------| 
-----------|----------|*--------------------------------------------------0-*| 
---------3-|-------3--|*-2-----x---2-----x---2-----x---2-----x---------3----*| 
-----------|----------|--2-----x---2-----x---2-----x---2-----x------3--------| 
<2>p0------|--0-------|--0-----x---2-----x---2-----x---2-----x---1-----------| 
 ^\                                                 P.M. ^^^^^^^^^^ 
    \ 
 
 
Main: 
    >>    >> >> >> >    >> >    >> >    >> >  >> >> >> >>    >> >> >> >> > 
   /     /  /  /  /    /  /    /  /    /  /  /  /  /  /     /  /  /  /  / 
------|--------------------------------------------------|------------------ 
------|--------------------------------------------------|------------------ 
------|*----------------------------------------------0--|------------------ 
---2--|*-2--x-----2----x--2----x--2----x--2--------3-----|--x--2--x-----2--- 
---2--|--2--x-----2----x--2----x--2----x--2-----3--------|--x--2--x-----2--- 
---0--|--0--x--3--0----x--0----x--0----x--0--1-----------|--x--0--x--3--0--- 
                                         P.M.^^^^^^^^^^^^ 
 
    >> >> >> >> >> >> >> >> >> >> >> 
   /  /  /  /  /  /  /  /  /  /  / 
-------------------------------------| 
-------------------------------------|     repeat several times. 
------------------------------------*| 
---x--2--x--2--x--2--3--3--3--3--3--*| 
---x--2--x--2--x--2--3--3--3--3--3---| 
---x--0--x--0--x--0--1--1--1--1--1---| 
                 P.M.^^^^^^^^^^^^^ 
 
|Chorus (Gtr. 1) -- part 1: 
|---------------------------------------------------------------------| 
|---------------------------------------------------------------------| 
|---2----------------4----------------5----------------10--------\----| 
|---2----------------4----------------5----------------10--------\----| 
|---0----------------2----------------3----------------8---------\----| 
|---------------------------------------------------------------------| 
|                                                                     | 
|Chorus (Gtr. 2) -- part 1:                                           | 
|---------------------------------------------------------------------| 
|---------------------------------------------------------------------| 
|---2----------------4----------------5-------------------------------| 
|---2----------------4----------------5----------------3--------------| 
|---0----0--0-----0--2----2--2--0--2--3----3--3--2--0--3--------------| 
|--------------3---------------------------------------1--------------| 
     P.M.^^^^^^^^^^   P.M.^^^^^^^^^^   P.M.^^^^^^^^^^ 
 
|Gtr 1 -- part 2: 
|---------------------------------------------------------------------| 
|---------------------------------------------------------------------| 
|---2---------------4---------------5---------------------------------| 
|---2---------------4---------------5-----------------3---------------| 
|---0---------------2---------------3-----------------3---------------| 
|-----------------------------------------------------1---------------| 
| 
|Gtr. 2: 
 
|Both Gtrs -- part 3: 
|---------------------------------------------------------------------| 
|---------------------------------------------------------------------| 
|---2---------------4---------------5------------------10------\------| 
|---2---------------4---------------5------------------10------\------| 
|---0---------------2---------------3------------------8-------\------| 
|---------------------------------------------------------------------| 
 
Pre-solo: 
|--------------------------------------------------------------------------| 
|--------------------------------------------------------------------------| 
|*---10-\--9----------------------10-\--9------14-\-13--------10-\--9------| 
|*-----------------10-\--9-------------------------------------------------| 
|----8--\--7----------------------8--\--7------12-\-11--------8--\--7------| 
|------------------8--\--7-------------------------------------------------| 
 _____________________________________     ________________________________ 
 1.                                    \  / 2.                              \ 
-----------------------------------------|-----------------------------------| 
-----------------------------------------|-----------------------------------| 
---10-\--9-------14-\-13-------17-\-16--*|--14-\-13-----17-\-16-----22-\-21--| 
----------------------------------------*|-----------------------------------| 
---8--\--7-------12-\-11-------15-\-14---|--12-\-11-----15-\-14-----20-\-19--| 
-----------------------------------------|-----------------------------------| 
 
Solo: 
 
   1.25   1.25 <-- bend up this much   1.25    1.25 
------------------------------------------------------------15-\-------- 
---15^----15^------12-\----------------15^-----15^----------15-\-------- 
-------------------12-\------------------------------------------------- 
------------------------------------------------------------------------ 
------------------------------------------------------------------------ 
------------------------------------------------------------------------ 
 
Still working on the second solo.... 
 
Play with lots of muting and downpicking throughout.  Kill those strings! ;) 
 
-Legion 
 
-------------------------     MetallicA     ---------------------------------- 
Crash Course In Brain Surgury 
----------------------------- 
Transcribed by Travis Fitch 
 
An excellent song, so I've tried to include as much information as possible 
below (the guitar solo is missing, but I am working on that, I won't post it 
for a while, but if you e-mail me on the above address, I could get it to 
you within a day or 2 of recieving your message, might just motivate me a tad 
bit more) The TAB might seem a little difficult to understand at first, but I 
sugget that you print it out and read through a couple of times, just to get 
a feel for the song and the way the TAB is written out (sorry if there are 
any mistakes present, which knowing the way I type, there probably are). 
You'll have to listen to the song again anyway, to get a feel for the timing, 
anyway I've had enough for now, so any fixes, mistakes, comments et cetera, 
don't be afraid to let me know 
 
Enjoy 
GaT.. 
 
The song is in 4/4 at around 185 - 190 bpm 
 
"Drop D" tuning (low to high: D A D G B E) 
 
 Bass and drums (4 bars) 
           Gtrs 1 & 2 w/heavy distorsion 
Intro 
|---------|--------------------------|-----------------------| 
|---------|--------------------------|-----------------------| 
|---------|--------------------------|-----------------------| 
|---------|--------------------------|-----------------------| 
|---------|--------------------3--4--|--5--------------------| 
|---------|--0--1--2--5--6--7--------|-----5--6--7--5--6--7--| 
 
|--------------------------|-----------------------|-------------| 
|--------------------------|-----------------------|-------------| 
|--------------------------|--------------------2--|-------------| 
|--------------------------|--------------------2--|-------------| 
|--------------------3--4--|--5-----------------0--|-------------| 
|--0--1--2--5--6--7--------|-----5--6--7--5--6-----|-------------| 
 
                                                   (x4) 
|---------------||-------------------------------------| 
|---------------||-------------------------------------| 
|---------------||*-----------------------------------*| 
|---------------||*--h--------------------------------*| 
|---------------||--/2--------2--------2-----------2---| 
|---------------||---2/-------2--------2-----------2---| 
 
 
|-----------------|-----------------------| 
|-----------------|-----------------------| 
|-----------------|-----------------------| 
|--2--0-----------|-----------------------| 
|-----------2--0--|------~~~-----0--1-----| 
|-----------------|--5--2--------0--1-----| 
 
                                    (x4) 
||--------------------------------------||-----------------| 
||--------------------------------------||-----------------| 
||*------------------------------------*||-----------------| 
||*--h---------------------------------*||--2--0-----------| 
||--/2--------2--------2------------2---||-----------2--0--| 
||---2/-------2--------2------------2---||-----------------| 
 
 
|-----------------------------------|------------------------------------| 
|-----------------------------------|------------------------------------| 
|-----------------------------------|------------------------------------| 
|-----------------------------------|------------------------------------| 
|------------~~~--------0-----------|--1---------------------------------| 
|--------5--2-----------0-----------|--1-----------------------x--x--17--| 
 
 
                                (x4) 
||----------------------------------|| 
||----------------------------------|| 
||*--------------------------------*|| 
||*--h-----------------------------*|| 
||--/2--------2--------2--------2---|| 
||---2/-------2--------2--------2---|| 
 
 
             Start of verses 1 & 2 (see below) 
|----------||----------------------------------------| 
|----------||----------------------------------------| 
|----------||*---------------------------------------| 
|----------||*--h------------------------------------| 
|----------||--/2------------2--------2--------2-----| 
|----------||---2/-----------2--------2--------2-----| 
 
|--------------------------------|----------------------------------| 
|--------------------------------|----------------------------------| 
|--------------------------------|----------------------------------| 
|--h-----------------------------|--h-------------------------------| 
|-/2--------2--------2--------2--|-/2--------2----------2--------2--| 
|--2/-------2--------2--------2--|--2/-------2----------2--------2--| 
 
 
 
|--------------------------------|----------------------------------| 
|--------------------------------|----------------------------------| 
|--------------------------------|----------------------------------| 
|--h-----------------------------|--h-------------------------------| 
|-/2--------2--------2--------2--|-/2--------2--------2--------2----| 
|--2/-------2--------2--------2--|--2/-------2--------2--------2----| 
 
 
 
|--------------------------------|--------------------------------| 
|--------------------------------|--------------------------------| 
|--------------------------------|--------------------------------| 
|--h-----------------------------|--h-----------------------------| 
|-/2--------2--------2--------2--|-/2--------2--------2--------2--| 
|--2/-------2--------2--------2--|--2/-------2--------2--------2--| 
 
|--------------------------------|----------------------------------| 
|--------------------------------|----------------------------------| 
|--------------------------------|----------------------------------| 
|--h-----------------------------|--h-------------------------------| 
|-/2--------2--------2--------2--|-/2--------2--------2----------2--| 
|--2/-------2--------2--------2--|--2/-------2--------2----------2--| 
 
 
 
|--------------------------------|--------------------------------| 
|--------------------------------|--------------------------------| 
|--------------------------------|--------------------------------| 
|--h-----------------------------|--h-----------------------------| 
|-/2--------2--------2--------2--|-/2--------2--------2--------2--| 
|--2/-------2--------2--------2--|--2/-------2--------2--------2--| 
 
|--------------------------------| 
|--------------------------------| 
|--------------------------------| 
|--h-----------------------------| 
|-/2--------2--------2--------2--| 
|--2/-------2--------2--------2--| 
 
|-------------------------------------| 
|-------------------------------------| 
|-------------------------------------| 
|-----h-------------------------------| 
|---3-/-5--------5--------5--------5--| 
|---3-/-5--------5--------5--------5--| 
 
|-------------------------------------|--------------------------------------| 
|-------------------------------------|--------------------------------------| 
|-------------------------------------|--------------------------------------| 
|-----h-------------------------------|------h-------------------------------| 
|---3-/-5--------5--------5--------5--|----3-/-5--------5--------5--------5--| 
|---3-/-5--------5--------5--------5--|----3-/-5--------5--------5--------5--| 
 
|-------------|-------------|------------------------------------------------| 
|-------------|-------------|------------------------------------------------| 
|-------------|-------------|------------------------------------------------| 
|-------------|-------------|------------------------------------------------| 
|--3--0-------|-------------|------------------------------------------------| 
|--3--0-------|--12---------|--12---------12--------12--12--12--12-----12\---| 
 
|--------------------------------|-----------------------------------| 
|--------------------------------|-----------------------------------| 
|--------------------------------|-----------------------------------| 
|--h-----------------------------|--h--------------------------------| 
|-/2--------2--------2--------2--|-/2-----------2--------2--------2--| 
|--2/-------2--------2--------2--|--2/----------2--------2--------2--| 
 
|--------------------------------|-----------------------------------|| 
|--------------------------------|-----------------------------------|| 
|--------------------------------|----------------------------------*|| 
|--h-----------------------------|--h-------------------------------*|| 
|-/2--------2--------2--------2--|-/2--------2----------2--------2---|| 
|--2/-------2--------2--------2--|--2/-------2----------2--------2---|| 
 
 Interlude 
|-----------------------|-----------------------| 
|-----------------------|-----------------------| 
|-----------------------|-----------------------| 
|-----2--0--------------|-----------------------| 
|--------------2--0-----|---------~~~-----0--1--| 
|-----------------------|-----5--2--------0--1--| 
 
                                    (x4) 
||--------------------------------------| 
||--------------------------------------| 
||*------------------------------------*| 
||*--h---------------------------------*| 
||--/2------------2--------2--------2---| 
||---2/-----------2--------2--------2---| 
 
|--------------------------|--------------|-----------------|--------------| 
|--------------------------|--------------|-----------------|--------------| 
|--------------------------|--------------|-----------------|--------------| 
|--2-----0-----------------|--------------|-----------------|--------------| 
|--------------2-----0-----|---------~~~--|--0--------------|--1-----------| 
|--------------------------|--5-----2-----|--0--------------|--1-----------| 
 
|--------------------|-----------------|----------------------| 
|--------------------|-----------------|----------------------| 
|--------------------|-----------------|----------------------| 
|--------------------|-----------------|----------------------| 
|--2-----------------|-----------------|--2-------------------| 
|--2-----------------|-----------------|--2-------------------| 
 
 
 
|-----------------|--------------------|-----------------| 
|-----------------|--------------------|-----------------| 
|-----------------|--------------------|-----------------| 
|-----------------|--------------------|-----------------| 
|-----------------|--0-----2-----------|-----------------| 
|-----------------|--0-----2-----------|-----------------| 
 
|-------------------------|---------------| 
|-------------------------|---------------| 
|-------------------------|---------------| 
|-------------------------|---------------| 
|--2--2-------------------|--2/-----------| 
|--2--2-------------------|--2/-----------| 
 
 Guitar Solo 
|-------------------------------------|--------------------------------------| 
|-------------------------------------|--------------------------------------| 
|-------------------------------------|--------------------------------------| 
|-----h-------------------------------|------h-------------------------------| 
|---3-/-5--------5--------5--------5--|----3-/-5--------5--------5--------5--| 
|---3-/-5--------5--------5--------5--|----3-/-5--------5--------5--------5--| 
 
|-------------------------------------|--------------------------------------| 
|-------------------------------------|--------------------------------------| 
|-------------------------------------|--------------------------------------| 
|-----h-------------------------------|------h-------------------------------| 
|---3-/-5--------5--------5--------5--|----3-/-5--------5--------5--------5--| 
|---3-/-5--------5--------5--------5--|----3-/-5--------5--------5--------5--| 
 
|-------------------------------------|--------------------------------------| 
|-------------------------------------|--------------------------------------| 
|-------------------------------------|--------------------------------------| 
|-----h-------------------------------|------h-------------------------------| 
|---3-/-5--------5--------5--------5--|----3-/-5--------5--------5--------5--| 
|---3-/-5--------5--------5--------5--|----3-/-5--------5--------5--------5--| 
 
|-------------------------------------|--------------------------------------| 
|-------------------------------------|--------------------------------------| 
|-------------------------------------|--------------------------------------| 
|-----h-------------------------------|------h-------------------------------| 
|---3-/-5--------5--------5--------5--|----3-/-5--------5--------5--------5--| 
|---3-/-5--------5--------5--------5--|----3-/-5--------5--------5--------5--| 
 
|--------------------|--------------------| 
|--------------------|--------------------| 
|------~~~-----------|--------------------| 
|--5--3---------~~~--|--------------------| 
|-----------5--3-----|------~~~------~~~--| 
|--------------------|--0--5-----0--1-----| 
 
|--------------------------------|--------------------------------| 
|--------------------------------|--------------------------------| 
|--------------------------------|--------------------------------| 
|--h-----------------------------|--h-----------------------------| 
|-/2--------2--------2--------2--|-/2--------2--------2--------2--| 
|--2/-------2--------2--------2--|--2/-------2--------2--------2--| 
 
|--------------------------------|--------------------------------| 
|--------------------------------|--------------------------------| 
|--------------------------------|--------------------------------| 
|--h-----------------------------|--h-----------------------------| 
|-/2--------2--------2--------2--|-/2--------2--------2--------2--| 
|--2/-------2--------2--------2--|--2/-------2--------2--------2--| 
 
 
|--------------------------------|--------------------------------| 
|--------------------------------|--------------------------------| 
|--------------------------------|--------------------------------| 
|--h-----------------------------|--h-----------------------------| 
|-/2--------2--------2--------2--|-/2--------2--------2--------2--| 
|--2/-------2--------2--------2--|--2/-------2--------2--------2--| 
 
|--------------------------------|--------------------------------| 
|--------------------------------|--------------------------------| 
|--------------------------------|--------------------------------| 
|--h-----------------------------|--h-----------------------------| 
|-/2--------2--------2--------2--|-/2--------2--------2--------2--| 
|--2/-------2--------2--------2--|--2/-------2--------2--------2--| 
 
|-----------------------|--------------------------------|-------------------| 
|-----------------------|--------------------------------|-------------------| 
|-----------------------|--------------------------------|-------------------| 
|-----2--0--------------|--------------------------------|-------------------| 
|--------------2--0-----|---------~~~~~~--------0--------|-------------------| 
|-----------------------|--5-----2--------------0--------|-------------------| 
 
  Bass Solo 
||--------------------------------| 
||--------------------------------| 
||--------------------------------| 
||--------------------------------| 
||---0----------------------------| 
||---0----------------------------| 
 
 
|-------------------------------------|-------------------------------------| 
|-------------------------------------|-------------------------------------| 
|-------------------------------------|-------------------------------------| 
|--------------5-------------------0--|--------------5-------------------0--| 
|--5-----7-------------0-----2--------|--5-----7-------------0-----2--------| 
|-------------------------------------|-------------------------------------| 
 
 
 Verse 3 
|--------------------------------|--------------------------------| 
|--------------------------------|--------------------------------| 
|--------------------------------|--------------------------------| 
|--h-----------------------------|--h-----------------------------| 
|-/2--------2--------2--------2--|-/2--------2--------2--------2--| 
|--2/-------2--------2--------2--|--2/-------2--------2--------2--| 
 
|--------------------------------|--------------------------------| 
|--------------------------------|--------------------------------| 
|--------------------------------|--------------------------------| 
|--h-----------------------------|--h-----------------------------| 
|-/2--------2--------2--------2--|-/2--------2--------2--------2--| 
|--2/-------2--------2--------2--|--2/-------2--------2--------2--| 
 
|-----------------|--------------------| 
|-----------------|--------------------| 
|-----------------|--------------------| 
|--2--0-----------|--------------------| 
|-----------2--0--|------~~~----0---1--| 
|-----------------|--5--2-------0---1--| 
 
|--------------------------------|--------------------------------| 
|--------------------------------|--------------------------------| 
|--------------------------------|--------------------------------| 
|--h-----------------------------|--h-----------------------------| 
|-/2--------2--------2--------2--|-/2--------2--------2--------2--| 
|--2/-------2--------2--------2--|--2/-------2--------2--------2--| 
 
 
|-------------------------------|---------------------------------| 
|-------------------------------|---------------------------------| 
|-------------------------------|---------------------------------| 
|----h--------------------------|---------------------------------| 
|-/2-------2--------2--------2--|-0--2-------2--------2--------2--| 
|--2/------2--------2--------2--|-0--2-------2--------2--------2--| 
 
|----------------|-----------|------------|-----------|--------------------|| 
|----------------|-----------|------------|-----------|--------------------|| 
|----------------|-----------|------------|-----------|--------------------|| 
|--2--0----------|------~~~--|------------|-----------|--------------------|| 
|----------2--0--|--5--2-----|--0---------|--1--------|--2--2--------------|| 
|----------------|-----------|--0---------|--1--------|--2--2-------(2)\---|| 
 
Verse 1 
Look inside and you will see the words are cutting deep inside my brain. 
Thunder burning, quickly burning. 
Knife of words is driv'n me insane. 
Insane! 
Yeah! 
 
Verse 2 
Raven black is on my back. 
He showed me how to neutralise the knife 
Show to me, in surgery, the art of fighting words to conquer life. 
Conquer life! 
Yeah! 
 
Verse 3 
Now the wicked lance of fear is drivn' from my heady mountain brain. 
Crash course in brain surgery has stopped the bloddy knife of words again. 
Yeah!   Yeah!   Yeah! 
 
Also when ever you come across Figure A as depicted below, it should be 
replaced with Figure 1A (below) 
 
Figure A 
|-------------------------------| 
|-------------------------------| 
|-------------------------------| 
|----h--------------------------| 
|-/2-------2--------2--------2--| 
|--2/------2--------2--------2--| 
 
Figure 1A 
|----------------------------------| 
|----------------------------------| 
|----------------------------------| 
|---h------------------------------| 
|-0-/-2-------2--------2--------2--| 
|-0-/-2-------2--------2--------2--| 
 
-------------------------     MetallicA     ---------------------------------- 
Last Caress 
----------- 
 
   C                     F G  C                     F   G 
E|--------------------------------------------------------| 
B|--------------------------------------------------------| 
G|-5--------------------------5---------------------------| 
D|-5--------------------------5---------------------10-12-| 
A|-3---------------------3-5--3---------------------8--10-| 
E|-----------------------1-3------------------------------| 
 
   Doesn't matter much to me ... as long as .............. 
  F                 D                C    C  ................ 
|------------------------------------------------------------- 
|------------------------------------------------------------- 
|------------------------------------------------------------- 
|-10----------------7----------------5----5-5-5-5-5-5-5-5-5-5- 
|-8-----------------5----------------3----3-3-3-3-3-3-3-3-3-3- 
|------------------------------------------------------------- 
  F   G  C   C . . . . . . . . .       F  G  G 
|----------------------------------------------- 
|----------------------------------------------- 
|----------------------------------------------- 
|-10-12--5---5-5-5-5-5-5-5-5-5-5---------12-12-- 
|-8--10--3---3-3-3-3-3-3-3-3-3-3---6h7h8s10-10-- 
|----------------------------------------------- 
 
I got something to say 
  C  C . . . . . . . .    F  G   C  C . . . . . . . . .   F  G 
|-------------------------------------------------------------- 
|-------------------------------------------------------------- 
|-------------------------------------------------------------- 
|-5--5-5-5-5-5-5-5-5-5-5--10-12--5--5-5-5-5-5-5-5-5-5-5---10-12 
|-3--3-3-3-3-3-3-3-3-3-3--8--10--3--3-3-3-3-3-3-3-3-3-3---8--10 
|-------------------------------------------------------------- 
 
Doesn't matter much to me as long as....................... 
  F  F         D D            C C               B/C B/C 
|---------------------------------------------------------------- 
|---------------------------------------------------------------- 
|---------------------------------------------------------------- 
|-10-10--------7-7------------5-5---------------4s5-4s5---------- 
|-8--8---------5-5------------3-3---------------2s3-2s3---------- 
|----------------------------------------------------------------- 
 
  c/o 
 
  F  F          D D         D  E . . . . . . . .    D  C 
|----------------------------------------------------------- 
|----------------------------------------------------------- 
|----------------------------------------------------------- 
|-10-10---------7-7---------7--9-9-9-9-9-9-9-9-9----7--5---- 
|-8--8----------5-5---------5--7-7-7-7-7-7-7-7-7----5--3---- 
|----------------------------------------------------------- 
 
  Cause we   get    one last caress 
|------------------------------------------------------------------ 
|------------------------------------------------------------------ 
|------------------------------------------------------------------ 
|-10-10------7-7--------------5--5-5-5-5-5-5-5-5-5-5---------12-12- 
|-8--8-------5-5--------------3--3-3-3-3-3-3-3-3-3-3---6h7h8s10-10- 
|------------------------------------------------------------------ 
 
|------------------------------------------------------------------- 
|------------------------------------------------------------------- 
|------------------------------------------------------------------- 
|-5--5-5-5-5-5-5-5-5-5-5--10-12--5--5-5-5-5-5-5-5-5-5-5--10-12------ 
|-3--3-3-3-3-3-3-3-3-3-3--8--10--3--3-3-3-3-3-3-3-3-3-3--8--10------ 
|------------------------------------------------------------------- 
 
|-------------------------------------- 
|--------------------------------------  Back to c/o and repeat till 
|--------------------------------------  strumming hand hurts or 
|-10-10----7-7-------5-5-----4s5-4s5---  pick breaks or whichever comes 
|-8--8-----5-5-------3-3-----2s3-2s3---  first........... 
|-------------------------------------- 
 
The whole song is played using power chords and I prefer to use only two 
strings for speed . All of it is played with downstrokes ( which , by the 
way is almost impossible ) and I take no responsibility for timing. 
The hammer and sliding part is how it sounds to me , but if you have a 
better idea , go ahead and correct me . 
 
-------------------------     MetallicA     ---------------------------------- 
Green Hell 
---------- 
Tabbed by Paul Halvorson 
 
I have included lyrics at the end with where to play each riff in the lyrics. 
Also a couple of notes...I don't know if they play chords of just the notes. 
I wrote it the way I thought it sounded. There is full tabulature info at the 
end of this tab, too, if you don't understand how the rythms are written. Well, 
that's all. Have fun! 
 
Very Fast! 
  Riff #1 
      s  s  s  s  s  s  s  s  s  s  s  s  s  s  s  s  s  s  s  s  s  s 
||----------------------------------------------------------------------|| 
||----------------------------------------------------------------------|| 
||*--------------------------------------------------------------------*|| 
||*--------------------------------------------------------------------*|| 
||----------------------------------------------------------------------|| 
||---3--3--3--3--3--3--3--3--3--3--3--3--3--3--3--3--3--3--3--3--3--3---|| 
 
 
   Riff #2 
      s  s  s  s  s  s  s  s     e  e     e  e 
||-----------------------------------------------|| 
||-----------------------------------------------|| 
||*---------------------------------------------*|| 
||*---------------------------------------1-----*|| 
||-------------------------------1-----------3---|| 
||----3--3--3--3--3--3--3--3--------3------------|| 
 
 
 Riff #3 
|---------------------------| 
|---------------------------| 
|---5--5--5--5--5--5--5--5--| 
|---5--5--5--5--5--5--5--5--| 
|---3--3--3--3--3--3--3--3--| 
|---------------------------| 
 
 
Riff #4                     Riff #5 
-------------------------|---------------------------| 
-------------------------|---------------------------| 
-------------------------|---------------------------| 
-5--5--5--5--5--5--5--5--|---2--2--2--2--2--2--2--2--| 
-5--5--5--5--5--5--5--5--|---2--2--2--2--2--2--2--2--| 
-3--3--3--3--3--3--3--3--|---0--0--0--0--0--0--0--0--| 
 
***LYRICS*** 
 
Riff #1 
Here in this place lies the key to your death 
Touch it, see it 
Here in this place is the means to your end 
Touch it, feel it 
Green hell 
 
Riff #2 
You did your best as someone could 
I bet you never knew you would 
Did you run away from it? 
I bet you thought you were really good 
 
Riff#4 
We're gonna burn in hell 
Green Hell Green Hell 
Riff #5 
Like every hell but kind of green 
Green Hell Green Hell 
Riff #4 
Try let me get back up there 
Green Hell Green Hell 
Riff #5 
Feel it burning in your cereal 
Green Hell Green Hell 
Riff #4 
Throw our fuckin' friends inside 
Green Hell Green Hell 
Riff #5 
Gotta fuckin' pay and you must stay 
Green Hell Green Hell 
Riff #4 
Cannot forget about the best 
Green Hell Green Hell 
Riff #5 
Hell is reigning in your blood 
Green Hell Green Hell 
Riff #3 
Gotta burn it all 
Green hell 
 
Riff #2 
You did your best as someone could 
I bet you never knew you would 
And did you run away from me 
I bet you think they were really good 
 
Riff #1 
Here in this place lies the key to your death 
Touch it, see it 
Here in this place sister won't let it in 
Touch it, feel it 
Green hell 
 
Riff #2 
You did your best as someone could 
I bet you'd never knew you would 
Did you run away from it? 
I bet you thought you were really good 
You've come to this as someone told 
I bet you'd never knew you would 
Riff #3 
???Gonna bring??? 
Green hell 
 
-------------------------     MetallicA     ---------------------------------- 
Blitzkrieg 
---------- 
Transcribed by Jeff Jacobson 
Tabbed by Vassilis Tzerpos 
 
This time the explanations come first. 
 
s=slide                             ^=bend 
ss=slide backwards many frets       r=release bend 
p=pull-off                          []=artificial harmonic 
h=hammer-on                         x=dumped string 
 
Timing is exact with 8th = 2'-'s except for the solo where 8th = 4'-'s. 
The song is in 4/4 but has some measures of 2/4, so some measures 
seem shorter than the others. Beware of fret numbers like 12121212. 
They don't mean you have to have a very long guitar. They represent 
four 16th notes played on the 12th fret. In such cases always take 
digits in pairs.Finally, all power chords used are the lower ones 
you can have. 
 
Now the song itself: 
 
----|----------------|----------------|----------------|--------| 
----|----------------|----------------|----------------|--------| 
----|----------------|----------------|----------------|--------| 
7---|7s9-----9---7s9-|----9---7s9-----|----------------|----7---| 
5---|5s7-----7---5s7-|----7---5s7-----|9---10------7---|----5---| 
----|----0-0---0-----|0-0---0-----0-0-|7---8---0-0-5---|0-0-----| 
 
----------------|----------------|----------------|--------| 
----------------|----------------|----------------|--------| Repeat 
----------------|----------------|----------------|--------| this 
7s9-----9---7s9-|----9---7s9-----|----------------|----7---| line 
5s7-----7---5s7-|----7---5s7-----|9---10------7---|----5---| 4 times 
----0-0---0-----|0-0---0-----0-0-|7---8---0-0-5---|0-0-----| 
 
----------------|----------------|----------------|--------| 
----------------|----------------|----------------|--------| 
----------------|----------------|----------------|--------| 
7s9-----9---7s9-|----9---7s9-----|----------------|--------| 
5s7-----7---5s7-|----7---5s7-----|9---10------7---|--------| 
----0-0---0-----|0-0---0-----0-0-|7---8---0-0-5---|0-0-12ss| 
 
$ 
----------------|----------------| 
----------------|----------------| Repeat 
----------------|----------------| this 
----------------|----------------| line 
----------------|----------------| 3 times 
0-0-2-0-0-3-0-0-|2-0-0-3-0-0-2s3-| 
 
----------------|----------------| 
----------------|----------------| 
----------------|----------------| 
----------------|------------5s4-| 
----------------|------------3s2-| 
0-0-2-0-0-3-0-0-|2-0-0-3-0-0-----| 
 
1.Let us have peace, let us have life, let us escape the cruel night 
2.Save us from fate, save us from hate, save ourselves before it's too late 
----------------|----------------|----------------|----------------| 
----------------|----------------|----------------|----------------| 
----------------|----------------|----------------|----------------| 
----------------|----------------|----------------|------------5s4-| 
----------------|----------------|----------------|------------3s2-| 
0-0-2-0-0-3-0-0-|2-0-0-3-0-0-2s3-|0-0-2-0-0-3-0-0-|2-0-0-3-0-0-----| 
 
Let us have time, let the sun shine, let us beware the deadly sign 
Come to our need, hear our plea, save ourselves before the earth bleeds 
----------------|----------------|----------------|----------------| 
----------------|----------------|----------------|----------------| 
----------------|----------------|----------------|----------------| 
----------------|----------------|----------------|------------5s4-| 
----------------|----------------|----------------|------------3s2-| 
0-0-2-0-0-3-0-0-|2-0-0-3-0-0-2s3-|0-0-2-0-0-3-0-0-|2-0-0-3-0-0-----| 
 
                 The day is coming        Armageddon's near 
                 The day is dawning       The time is near 
----------------|----------------|----------------|----------------| 
----------------|----------------|----------------|----------------| 
----------------|----------------|----------------|----------------| 
2---2---x-5s4-5-|--------4s5-4---|2---2---x-5s4-5-|--------4s5-7---| 
0---0---x-3s2-3-|----3-3-2s3-2---|0---0---x-3s2-3-|----3-3-2s3-5---| 
----------------|----------------|----------------|----------------| 
 
                 Inferno coming             Can we survive   the blitz 
                 Aliens coming              Can we survive   the blitz 
----------------|----------------|----------------|----------------| 
----------------|----------------|----------------|----------------| 
----------------|----------------|----------------|----------------| 
2---2---x-5s4-5-|--------4s5-4---|2---2---x-5s4-5-|--------4s5-7---| 
0---0---x-3s2-3-|----3-3-2s3-2---|0---0---x-3s2-3-|----3-3-2s3-5---| 
----------------|----------------|----------------|----------------| 
 
krieg 
krieg 
----------------|----------------|----------------|--------| 1st time 2nd time 
----------------|----------------|----------------|--------| Repeat   Repeat 
----------------|----------------|----------------|--------| this     2 times 
7s9-----9---7s9-|----9---7s9-----|----------------|----7---| line     and skip 
5s7-----7---5s7-|----7---5s7-----|9---10------7---|----5---| 3 times  to CODA 
----0-0---0-----|0-0---0-----0-0-|7---8---0-0-5---|0-0-----| 
 
----------------|----------------|----------------|--------| 
----------------|----------------|----------------|--------| Goto 
----------------|----------------|----------------|--------| $ 
7s9-----9---7s9-|----9---7s9-----|----------------|--------| al CODA 
5s7-----7---5s7-|----7---5s7-----|9---10------7---|----9---| 
----0-0---0-----|0-0---0-----0-0-|7---8---0-0-5---|0-0-7ss-| 
 
CODA (solo) 
 
For the solo the backing guitar plays power chords which are indicated 
above the solo line in single line "tab". Simultaneous guitars have joined 
bars. The timing is now different in order to be able to transcribe it 
correctly. 8ths = 4'-'s. 
Triads are indicated like this: ___3___ or ___ ___ 
                                              3 
 
F#--F#--F#--F#--F#--F#--F#--F#--|F#--F#--F#--F#--F#--F#--F#--F#--| 
                                |                                | 
--------------------------------|------------------------___3___-| 
--------------------------------|----------------___3___-2-----2-| 
--------------------------------|--------2-----2-4--2--4----4----| 
------------------------2-----2-|4---2-4-----4-------------------| 
--------------2-4---2-4-----4---|--------------------------------| 
2-2-2-2-5-2-5-----5-------------|--------------------------------| 
 
F#--F#--F#--F#--F#--F#--F#--F#--|F#--F#--F#--F#--F#--F#--F#--F#--| 
                                |                                | 
--------2-----2-5p2-----------5-|2-------------------------------| 
5-2-5-----5-2-------5-2-2-2-2---|2-------------------------------| 
----------------------2-2-2-2---|----4---2-------2---4^------2---| 
--------------------------------|------------5-------------------| 
--------------------------------|--------------------------------| 
--------------------------------|--------------------------------| 
 
F#--F#--F#--F#--F#--F#--F#--F#--|F#--F#--F#--F#--F#--F#--F#--F#--| 
                                |                                | 
--------------------------------|----------------_3_-----___3___-| 
5^--------r-^-----------5---3---|2-------2---3---232-----2--4----| 
--------------------------------|----4---------------4------4--2-| 
--------------------------------|--------------------------------| 
--------------------------------|--------------------------------| 
--------------------------------|--------------------------------| 
 
F#--F#--F#--F#--F#--F#--F#--F#--|F#--F#--F#--F#--F#--F#--F#--F#--| 
                                |                                | 
--------------------------------|------------------------------4-| 
___3___-___3___-----------------|----------------------------7---| 
4p-2----2-----------------------|--------------------------------| 
------4----4--2-4p2-----2---4---|--------------------------------| 
--------------------4-----------|4p2-----2---4---2---------------| 
--------------------------------|----4-------------------2-------| 
 
G#--G#--G#--G#--G#--G#--G#--G#--|G#--G#--G#--G#--G#--G#--G#--G#--| 
                                |                                | 
7p-4----4-------___3___-___3___-|--------------------------------| 
------7----7--4-7p-4----4-------|___3___-___3___-----------------| 
___ ___-___ ___-------6----6--4-|6p-4----4-------___3___-___3___-| 
---3-------3--------------------|------6----6--4-6p-4----4-------| 
--------------------------------|----------------------6----6--4-| 
--------------------------------|--------------------------------| 
 
G#--G#--G#--G#--G#--G#--G#--G#--|G#--G#--G#--G#--G#--G#--G#--G#--| 
                                |                                | 
--------------------------------|--------------------------------| 
--------------------------------|--------------------------------| 
--------------------------------|--------4-------------------4---| 
___3___-___3___-----------------|4-h-6-------6-------6p4---------| 
6p-4----4-----------4-s-6-------|------------------------6-------| 
------7----7--4-7---------------|--------------------------------| 
 
G#--G#--G#--G#--G#--G#--G#--G#--|G#--G#--G#--G#--G#--G#--G#--G#--| 
                                |                                | 
--------------------------------|--------------------------------| 
--------------------------------|--------------------------------| 
6-6-6-6-7-7-7-7s9-9-9-9-7-7-7s9-|9-9-9-9-111111111313131311111113| 
--------------------------------|--------------------------------| 
--------------------------------|--------------------------------| 
--------------------------------|--------------------------------| 
 
G#--G#--G#--G#--G#--G#--G#--G#--|G#--G#--G#--G#--G#--G#--G#--G#--| 
                                |                                | 
--------------------------------|--------------------------------| 
--------------------------------|------------16--19^-------------| 
131313131414141416161616141416--|1816----18--------------16-ss---| 
--------------------------------|----16------------------16-ss---| 
--------------------------------|--------------------------------| 
--------------------------------|--------------------------------| 
 
Bb--Bb--Bb--Bb--Bb--Bb--Bb--Bb--|Bb--Bb--Bb--Bb--Bb--Bb--Bb--Bb--| 
                                |                                | 
--------------------------------|--------------------------------| 
--------------------------------|--------------------------------| 
--------------------------------|--------------------------------| 
--------------------------------|----------------6-------6---7---| 
----------------4-------4---5---|----6---8-----------8-----------| 
6-------6-----------6-----------|--------------------------------| 
 
Bb--Bb--Bb--Bb--Bb--Bb--Bb--Bb--|Bb--Bb--Bb--Bb--Bb--Bb--Bb--Bb--| 
                                |                                | 
--------------------------------|----6-----------------------13--| 
--------------------------------|--------9p6-----6-------14------| 
----------------6-------6---8^--|------------8-----6-------------| 
----8---8-----------8-----------|--------------------8-----------| 
--------------------------------|--------------------------------| 
--------------------------------|--------------------------------| 
 
Bb--Bb--Bb--Bb--Bb--Bb--Bb--Bb--|Bb--Bb--Bb--Bb--Bb--Bb--Bb--Bb--| 
                                |                                | 
18-13---------------------------|--------------------------------| 
------14--------14-ss-----------|___3___-------------------------| 
___-____15--------------14-ss---|8p-6----___3___-----------------| 
---3----------------------------|------8-6--8--------------------| 
--------------------------------|--------------6-----------------| 
--------------------------------|----------------9---------------| 
 
Bb--Bb--Bb--Bb--Bb--Bb--Bb--Bb--|Bb--Bb--Bb--Bb--Bb--Bb--Bb------| 
                                |                                | 
--------------------------------|--------------------------------| 
--------------------------------|--------------------------------| 
---------------------------[6]--|--------^---r-----------^--ss---| 
--------------------6---8-------|--------------------------------| 
--------4---6---8---------------|--------------------------------| 
4---6---------------------------|--------------------------------| 
 
Now comes the tricky part where you have to use delay effect, 
harmonics and a lot of tremolo part. I'll just notate only where 
you should fret. Harmonics = <12>. From now on to the end of the song 
timing is again 8th = 2'-'s. Backing guitar continues. Tempo slows down. 
 
E---------------|C---------------|E---------------|C---------------| 
                |                |                |                | 
----------------|-<12>-----------|----------x-x-x-|----------------| 
----------------|----------------|----------------|----------------| 
9---------------|--------------9-|----------------|<12>------------| 
----------------|----------------|----------------|----------------| 
----------------|----------------|----------------|----------------| 
----------------|----------------|----------------|----------------| 
 
E---------------|C---------------|E---------------|C---------------| 
                |                |                |                | 
----------------|----------------|----------------|----------------| 
----------------|----------------|----------------|----------------| 
9----------<12>-|----------------|-<5>------------|<5>---------0---| 
----------------|----------------|----------------|----------------| 
----------------|----------------|----------------|----------------| 
----------------|----------------|----------------|----------------| 
 
Back to the original tempo, and for a while we have three guitars 
playing at the same time. Backing guitar plays single notes. 
 
E-E-E-E-E-E-E-E-|E-E-E-E-E-E-E-E-|C-C-C-C-C-C-C-C-|C-C-B-B-A-A-G-G-| 
                |                |                |                | 
121212--12121212|12--12121212--12|121212--12121212|12--12121212--12| 
121212--12121212|12--12121212--12|121212--12121212|12--12121212--12| 
9-9-9---9-9-9-9-|9---9-9-9-9---9-|9-9-9---9-9-9-9-|9---9-9-9-9---9-| 
----------------|----------------|----------------|----------------| Repeat 
----------------|----------------|----------------|----------------| all 
----------------|----------------|----------------|----------------| three 
                |                |                |                | guitars 
7-----10----7---|--10----7---10--|7-----10----1212|--10----7---10--| 4 times 
----------------|----------------|----------------|----------------| 
4-----7-----4---|--7-----4---7---|4-----7-----9-9-|--7-----4---7---| 
----------------|----------------|----------------|----------------| 
----------------|----------------|----------------|----------------| 
----------------|----------------|----------------|----------------| 
 
----------------|----------------|----------------|----------------| 
----------------|----------------|--------------5-|----6---6-5-----| Repeat 
----------------|----------------|--------------5-|----5---5-5-----| this 
9---11--119---9-|----11--119---5-|5-5-7---3-2---5-|----5---5-5-----| line 
7---7---7-7---7-|----7---7-7---3-|3-3-3-x-3-3-3-3-|3-3-3-3-3-3-3-3-| 2 times 
0---0-0-0-0-0-0-|0-0-0-0-0-0-0---|----------------|----------------| 
 
----------------|----------------|----------------|----------------| 
----------------|----3---3-2-----|----------------|----------------| 
2---------------|----2---2-2-----|----------------|----------------| 
2---0-2-0-2---2-|----2---2-2-----|----------------|----------------| 
0-----0---0-0-0-|0-0---0-----0---|----------------|--------3p2-----| 
----------------|--------------0-|3-----2-----3---|--0-2-3-----3-2-| 
 
----------------|----------------|----------------|----------------| 
----------------|----------------|----------------|----------------| Repeat 
----------------|----------------|----------------|----------------| this 
----------------|----------------|----------------|----------------| line 
----------------|----------------|----------------|--------3p2-----| 2 times 
0-0-2-0-2-3-0-0-|2-0-0-3-0-0-2-3-|3-----2-----3---|--0-2-3-----3-2-| 
 
---------------19-19---19-19-24-24-24---24-19---------------------| 
------------------------------------------------------------------| 
------------------------------------------------------------------| 
------------------------------------------------------------------| 
2-----------------------------------------------------------------| 
0--------------------------------------------------x-ss-----------| 
 
The last notes are tapped on the notated frets while dumping the strings. 
 
-------------------------     MetallicA     ---------------------------------- 
Am I Evil? 
---------- 
From Jon Kendrew (am2el@herts.ac.uk) ['93/'94] 
 
Gtr 1 : Distorted 
 
        |   |   |   |     |   |   |   |    |   |     |   | 
 
||---||-----------------|----------------|---------------------| 
||-4-||-----------------|----------------|---------------------| 
||---||-9-----------7-9-|-10----------12-|-9---9-9-9-9---9-9-9-| 
||-4-||-9-----------7-9-|-10----------12-|-9---9-9-9-9---9-9-9-| 
||---||-7-----------5-7-|-8-----------10-|-7---7-7-7-7---7-7-7-| 
||---||-----------------|----------------|---------------------| 
 
   |   |     |     |       |   |     |   |       |   |     |     | 
 
 |-----------------------|---------------------|-----------------------| 
 |-----------------------|---------------------|-----------------------| 
 |-9---9-9-9-7-7-7-7-7-7-|-9---9-9-9-9---9-9-9-|-9---9-9-9-7-7-7-7-7-7-| 
 |-9---9-9-9-7-7-7-7-7-7-|-9---9-9-9-9---9-9-9-|-9---9-9-9-7-7-7-7-7-7-| 
 |-7---7-7-7-5-5-5-5-5-5-|-7---7-7-7-7---7-7-7-|-7---7-7-7-5-5-5-5-5-5-| 
 |-----------------------|---------------------|-----------------------| 
                                               | 
                                               | 
                                               | Gtr 2 : Distorted 
                                               | ( Trem Strum ) 
                                               |-----------------------| 
                                               |-----------------------| 
                                               |-----------------------| 
                                               |-14-\------------------| 
                                               |-14-\------------------| 
                                               |-12-\------------------| 
 
 
Gtr 1 doubles Gtr 2 
 
  |   |     |   |       |   |     |     |       |   |     |   | 
 
|---------------------|-----------------------|---------------------| 
|---------------------|-----------------------|---------------------| 
|*--------------------|-----------------------|---------------------| 
|-2-------------------|-----------9-9-9-9-9-9-|-8-------------------| 
|*2-------------------|-----------9-9-9-9-9-9-|-8-------------------| 
|-0-------------------|-----------7-7-7-7-7-7-|-6-------------------| 
 
 
  |   |     |     |       |   |     |   |       |   |     |     | 
 
|-----------------------|---------------------|-----------------------| 
|-----------------------|---------------------|-----------------------| 
|----------------------*|---------------------|-----------------------| 
|-----------3-3-3-3-3-3-|-2-------------------|-----------9-9-9-9-9-9-| 
|-----------3-3-3-3-3-3*|-2-------------------|-----------9-9-9-9-9-9-| 
|-----------1-1-1-1-1-1-|-0-------------------|-----------7-7-7-7-7-7-| 
 
  |   |     |   |       |   |     |        |          |   |     |   | 
 
|---------------------|-----------------------------|---------------------| 
|---------------------|-----------------------------|---------------------| 
|---------------------|-----------10-10-10-10-10-10-|-9-------------------| 
|-8-------------------|-----------10-10-10-10-10-10-|-9-------------------| 
|-8-------------------|-----------8--8--8--8--8--8--|-7-------------------| 
|-6-------------------|-----------------------------|--------------------- 
 
  |   |     |     |       |   |     |   |       |   |     |     | 
 
|-----------------------|---------------------|-----------------------| 
|-----------------------|---------------------|-----------------------| 
|-----------------------|---------------------|-----------------------| 
|-----------9-9-9-9-9-9-|-8-------------------|-----------3-3-3-3-3-3-| 
|-----------9-9-9-9-9-9-|-8-------------------|-----------3-3-3-3-3-3-| 
|-----------7-7-7-7-7-7-|-6-------------------|-----------1-1-1-1-1-1-| 
 
  |   |     |   |       |   |     |     |       |    |     |   | 
 
|---------------------|-----------------------|----------------------| 
|---------------------|-----------------------|----------------------| 
|---------------------|-----------------------|*---------------------| 
|-2-------------------|-----------7-7-7-7-7-7-|-/9---9-9-9-9---9-9-9-| 
|-2-------------------|-----------5-5-5-5-5-5-|*/7---7-7-7-7---7-7-7-| 
|-0-------------------|-----------------------|----------------------| 
 
                        Gtr 1 : Grad rit. 
 
  |   |     |     |       |   |   |   |      |   |   |   | 
        (Repeat 3 times) 
                                  ~~             ~~      ~~ 
|-----------------------|------------------|-------------------| 
|-----------------------|------------------|-------------------| 
|----------------------*|------------------|-------------10----| 
|-9---9-9-9-7-7-7-7-7-7-|------------------|-----9---8---------| 
|-7---7-7-7-5-5-5-5-5-5*|-------------8----|-7-----------------| 
|-----------------------|-0---7---6--------|-------------------| 
 
  ~~ 
|------------------------------------| 
|------------------------------------| 
|-9---10---/12---/14-----/16---------| 
|------------------------------------| 
|------------------------------------| 
|------------------------------------| 
 
Gtr 2 : Intro solo. (See comments at end) 
 
   HH  HH  HH  HH  HH  HH  HH  HH    HH  HH  HH  HH  HH  HH  HH  HH 
|---------------------------------|---------------------------------| 
|-058-058-058-058-058-058-058-058-|-047-047-047-047-047-047-047-047-| 
|---------------------------------|---------------------------------| 
|---------------------------------|---------------------------------| 
|---------------------------------|---------------------------------| 
|---------------------------------|---------------------------------| 
 
                                                        (Hold last note..) 
   HH  HH  HH  HH  HH   HH   HH  HH    HH  HH  HH  HH  HH  HH  HH 
|-----------------------------------|---------------------------------| 
|-058-058-058-058-0710-0710-058-058-|-047-047-047-047-047-047-047-----| 
|-----------------------------------|---------------------------------| 
|-----------------------------------|---------------------------------| 
|-----------------------------------|---------------------------------| 
|-----------------------------------|---------------------------------| 
 
  A   A   A   A   A   A Wh~~~~~~ 
|-------------------------------| 
|-------------------------------| 
|-------------------------------| 
|-----5-------------------------| 
|-5-----------5-------7---------| 
|---------5-------7-------------| 
 
"One, Two"              (Repeat Main Riff 8 times before verse) 
 
                      PM---|  PM-|  PM---| 
 
                    |   |   |  |    |   |   |  | 
Main Riff :       |------------------------------| 
                  |------------------------------| 
                  |*----------------------------*| 
                  |---------------2---------3--2-| 
                  |*2-2-2-2-5-2-2-0-2-2-2---1--0*| 
                  |-0-0-0-0-3-0-0---0-0-0--------| 
 
(Main Riff with verse 1) 
 
Verse 1 : (Lyrics) 
 
                My mother was a witch, she was burned alive. 
                Thankless little bitch, for the tears i've cried. 
                Take her down now, don't want to see her face. 
                All blistered and burned, can't hide my disgrace. 
 
                      PM---|  PM-|  PM---| 
 
                    |   |   |  |    |   |   |  | 
Pre-Chorus riff : |------------------------------| 
                  |------------------------------| 
                  |*----------------------------*| 
                  |---------7-----9---------10-9-| 
                  |*7-7-7-7-5-7-7-7-7-7-7---8--7*| 
                  |-5-5-5-5---5-5---5-5-5--------| 
 
(Pre-Chorus riff x 4 with Pre-Chorus) 
 
Pre-Chorus : (Lyrics) 
 
                Twenty-seven, every one is nice, 
                Gotta see 'em, make 'em pay the price, 
                See the bodies out on the ice, 
                Take my time....... 
 
(Main Riff x 4 with Chorus) 
 
Chorus : (Lyrics) 
 
                Am I Evil? 
                Yes I am, 
                Am I Evil? 
                I am that, yes I am.... 
 
                        *******Main Riff x 2******* 
 
(Main Riff x 8 with verse 2) 
 
Verse 2 : (Lyrics) 
 
                As i watched my mother die, I lost my head, 
                Revenge now I sought, to break with my bread, 
                Taking no chances, you come with me, 
                I split you to the bone, help set you free. 
 
(Pre-chorus riff x 4 with pre-chorus) 
 
(Main Riff x 4 with chorus) 
 
Bridge : 
 
                |------------------|------------------------------| 
                |------------------|------------------------------| 
                |*9-----7-----5---*|------------------------------| 
                |-9-----7-----5----|---------------2---------3--2-| 
                |*7-----5-----3---*|-2-2-2-2-5-2-2-0-2-2-2---1--0*| 
                |------------------|-0-0-0-0-3-0-0---0-0-0--------| 
 
               (Repeat 3 times) 
 
        . |   |   |   |      |   |     |  |       |   |   |   | 
                                                    ~~~~~~~~~~~ 
        |------------------|--------------------|------------------| 
        |------------------|--------------------|------------------| 
        |*9-----7-----5---*|-9-----11-----12----|------------------| 
        |-9-----7-----5----|-9-----11-----12----|------------------| 
        |*7-----5-----3---*|-7-----9------10----|--/7--------------| 
        |------------------|--------------------|------------------| 
 
Double Time feel : 
                                      _______________________________________ 
Fast Riff 1:                          |1. 
 
  |   |   |   |      |   |   |   |      |   |   |   |      |   |   |   | 
 
     PM-|    PM-|       PM-|               PM-|    PM--|      PM-| 
|------------------|------------------|------------------|------------------| 
|------------------|------------------|------------------|------------------| 
|*-----------------|------------------|------------------|-----------------*| 
|------------------|-------------7----|------------------|---------5--------| 
|*7--7777-7--7777--|-7--7777-5---5----|-7--7777-7--7777--|-7--7777-3---5---*| 
|-5--5555-5--5555--|-5--5555-3--------|-5--5555-5--5555--|-5--5555-----3----| 
 
_____________________________________ 
|2.                                     Fast Riff 2 : (Note : Lyrics) 
 
  |   |   |   |      |   |   |   |      |   |   |   |     |   |   |   | 
 
     PM-|    PM--|                      PM------------------------| 
|------------------|-----------------||-----------------|-----------------| 
|------------------|-----------------||-----------------|-----------------| 
|------------------|-----------------||*----------------|-----------------| 
|------------------|-----------------||-----------------|------------7----| 
|-7--7777-7--7777--|-----------------||*2--2222-2-2222--|-2--2222-2--5----| 
|-5--5555-5--5555--|-555-555-555-532-||-0--0000-0-0000--|-0--0000-0-------| 
                   |   Triplets      | 
 
  |   |   |   |     |   |   |   | 
 
  PM-------------------------| 
|-----------------|-----------------| 
|-----------------|-----------------| 
|-----------------|----------------*|    Repeat whole sequence again. 
|-----------------|------------7-7--| 
|-2--2222-2-2222--|-2--2222-2--5-5-*| 
|-0--0000-0-0000--|-0--0000-0-------| 
 
(With Fast Riff 2 [First repeat]) 
 
Lyrics : 
 
(With Fast Riff 2 [Second repeat]) 
 
Lyrics : 
 
                *******Then Fast Riff 1 x 1******* 
 
  |   |   |   |      |   |   |   |      |   |   |   | 
 
|------------------|------------------|------------------| 
|------------------|------------------|------------------| 
|------------------|------------------|------------------| 
|-2----------------|------------------|-5-------7--------| 
|-2----------------|------------------|-5-------7--------| 
|-0----------------|------------------|-3-------5--------| 
 
GUITAR SOLO: 
 
 
For the solo, the rhythm follows the following 'feel': 
 
          X       X         X       X 
        |-X--XXXX-X-XXXX--|-X--XXXX-X-XXXX--| 
 
        Chord changes are noted above tab lines, and are 2 or 3 fingered power 
chords, depending on what you feel like. For the 'XX' notes, strike the 
full chord, on the others just play the lowest note (Usually the E string) 
 
  B5 
 
  |  |||| |  | |||    |    | ||| |   | || | 
  @  @@@@ @  @ @@@    @    @ @@@ @   @ @@ @ 
      (Full)    P 
|-----------7-------|----------------11-12--| 
|------------10-7-7/|/12-----------12-------| 
|-9^^^^^^^^^--------|-----------------------| 
|-------------------|-----------------------| 
|-------------------|-----------------------| 
|-------------------|-----------------------| 
 
  |       |  |  |  |     |     |  |  |  |    |    |||| |   |||| 
  @       @  @  @  @     @     @  @  @  @    @    @@@@ @   @@@@ 
    H  P       H  H        P  P     P  P 
|-11-12-11---11-12-14-14-14-12-11-12-11----|-----------------7---| 
|---------12----------------------------12-|-10---------/7-------| 
|------------------------------------------|---------------------| 
|------------------------------------------|---------------------| 
|------------------------------------------|---------------------| 
|------------------------------------------|---------------------| 
 
  |  ||||  |     |   | |  |     |    | || | |     |||| 
  @  @@@@  @     @   @ @  @     @    @ @@ @ @     @@@@ 
            H P                   P       P   P 
|-10-9--7--7-9-7-----7--------|--------------------------| 
|----------------10----10-7---|-10-7---7-----------------| 
|-----------------------------|------9---9-7-9-7---7---7-| 
|-----------------------------|------------------9-------| 
|-----------------------------|--------------------------| 
|-----------------------------|--------------------------| 
 
  |    ||  | | |    | | | |     |    ||  | | |    | | | | 
  @    @@  @ @ @    @ @ @ @     @    @@  @ @ @    @ @ @ @ 
 (Full)                        (Full) 
|-----7-----------------------|-----7-----------------------| 
|-----7-10-7---7--------------|-----7-10-7---7--------------| 
|-9^^--------9---9-7-7------7-|-9^^--------9---9-7-7------7-| 
|-----------------------------|-----------------------------| 
|-----------------------------|-----------------------------| 
|-----------------------------|-----------------------------| 
 
  |    ||  | | |    | | | |      |      | | | |   |   | | | | 
  @    @@  @ @ @    @ @ @ @      @      @ @ @ @   @   @ @ @ @ 
 (Full) 
|-----7-----------------------|-/19--/20---/22---/24----------| 
|-----7-10-7---7--------------|-------------------------------| 
|-9^^--------9---9-7-7------7-|-------------------------------| 
|-----------------------------|-------------------------------| 
|-----------------------------|-------------------------------| 
|-----------------------------|-------------------------------| 
 
  E5 
  |      | |  |  |  |      | |  |  |    |      | |  |  |  |      | |  |  | 
  @      @ @  @  @  @      @ @  @  @    @      @ @  @  @  @      @ @  @  @ 
    P  P              P  P                P  P              P  P 
|-15-14-12----12-14-15-14-12----12-14-|-15-14-12----12-14-15-14-12----12-14-| 
|----------15----------------15-------|----------15----------------15-------| 
|-------------------------------------|-------------------------------------| 
|-------------------------------------|-------------------------------------| 
|-------------------------------------|-------------------------------------| 
|-------------------------------------|-------------------------------------| 
 
  |     | | | |  |     | | | |     |     | | | |  |     | | | | 
  @     @ @ @ @  @     @ @ @ @     @     @ @ @ @  @     @ @ @ @ 
 
|-15---14---12--------12---------|--------------------------------| 
|----------------15--------15----|-14---12---14-------------------| 
|--------------------------------|----------------12======--------| 
|--------------------------------|--------------------------------| 
|--------------------------------|--------------------------------| 
|--------------------------------|--------------------------------| 
 
  B5 
  |  | | | | |   | | | |    |    | | | |  |   | | | | 
  @  @ @ @ @ @   @ @ @ @    @    @ @ @ @  @   @ @ @ @ 
 (Full) P     P      P        P      P     P     P 
|------7-0-0-9-0-0-10-0-0-|-12-0-0-10-0-0-9-0-0-7-0-0-| 
|----7--------------------|---------------------------| 
|-9^----------------------|---------------------------| 
|-------------------------|---------------------------| 
|-------------------------|---------------------------| 
|-------------------------|---------------------------| 
 
  |    | | | | |   | | | |      |   | | | | |   | | | | 
  @    @ @ @ @ @   @ @ @ @      @   @ @ @ @ @   @ @ @ @ 
 
|-10---9---7--------7---------|----------------------------| 
|--------------10-------10----|-9---7---9------------------| 
|-----------------------------|-------------7======\-------| 
|-----------------------------|----------------------------| 
|-----------------------------|----------------------------| 
|-----------------------------|----------------------------| 
 
  |  |||| |  ||||   |  |||| |  ||||   |  |||| |  ||||   |  |||| |  |||| 
  @  @@@@ @  @@@@   @  @@@@ @  @@@@   @  @@@@ @  @@@@   @  @@@@ @  @@@@ 
   HH  HH  HH  HH    HH  HH  HH  HH    HH  HH  HH  HH    HH  HH  HH  HH 
|-----------------|-----------------|-----------------|-047-047-047-047-| 
|-047-047-047-047-|-058-058-058-058-|-047-047-047-047-|-----------------| 
|-----------------|-----------------|-----------------|-----------------| 
|-----------------|-----------------|-----------------|-----------------| 
|-----------------|-----------------|-----------------|-----------------| 
|-----------------|-----------------|-----------------|-----------------| 
                                      A5 
  |  |||| |  ||||   |  |||| |  ||||   |   ||||  |   |||| 
  @  @@@@ @  @@@@   @  @@@@ @  @@@@   @   @@@@  @   @@@@ 
   HH  HH  HH  HH    HH  HH  HH  HH   T PP T PP T PP T PP 
|-058-058-058-058-|-047-047-047-047-|-1285-1285-1285-1285-| 
|-----------------|-----------------|---------------------| 
|-----------------|-----------------|*-------------------*| 
|-----------------|-----------------|---------------------| 
|-----------------|-----------------|*-------------------*| 
|-----------------|-----------------|---------------------| 
 
  F5                    A#5                   F#5 
  |   ||||  |   ||||    |   ||||  |   ||||    |   ||||  |   |||| 
  @   @@@@  @   @@@@    @   @@@@  @   @@@@    @   @@@@  @   @@@@ 
  T PP T PP T PP T PP   T PP T PP T PP T PP   T PP T PP T PP T PP 
|-1385-1385-1385-1385-|-1396-1396-1396-1396-|-1496-1496-1496-1496-| 
|---------------------|---------------------|---------------------| 
|*-------------------*|*-------------------*|---------------------| 
|---------------------|---------------------|---------------------| 
|*-------------------*|*-------------------*|---------------------| 
|---------------------|---------------------|---------------------| 
 
  B5 
  |    || | | |    || | |   |  |||| |  ||||   |  |||| |  |||| 
  @    @@ @ @ @    @@ @ @   @  @@@@ @  @@@@   @  @@@@ @  @@@@ 
  T P P T P P T P P T P P    HH  HH  HH  HH    HH  HH  HH  HH 
|-14107-14107-14107-14107-|-047-----047-----|-047-----047-----| 
|-------------------------|-----047-----047-|-----047-----047-| 
|*-----------------------*|-----------------|-----------------| 
|-------------------------|-----------------|-----------------| 
|*-----------------------*|-----------------|-----------------| 
|-------------------------|-----------------|-----------------| 
 
  |  |||| |  ||||   |  |||| |  ||||   |  |||| |  ||||   |  |||| |  |||| 
  @  @@@@ @  @@@@   @  @@@@ @  @@@@   @  @@@@ @  @@@@   @  @@@@ @  @@@@ 
   HH  HH  HH  HH    HH  HH  HH  HH    HH  HH  HH  HH    HH  HH  HH  HH 
|-----------------|-----------------|-----------------|-----------------| 
|-047-----047-----|-047-----047-----|-----------------|-----------------| 
|-----047-----047-|-----047-----047-|-047-----047-----|-047-----047-----| 
|-----------------|-----------------|-----047-----047-|-----047-----047-| 
|-----------------|-----------------|-----------------|-----------------| 
|-----------------|-----------------|-----------------|-----------------| 
 
  |  |||| |  ||||   |  |||| |  ||||     |      | | |  |   |      | | |  | 
  @  @@@@ @  @@@@   @  @@@@ @  @@@@     @      @ @ @  @   @      @ @ @  @ 
   HH  HH  HH  HH                         P  P     P  P     P  P     P  P 
|-----------------|-------------------|-------------------------------------| 
|-----------------|----------------12-|-1514-0-0-1715-0-0-1514-0-0-1715-0-0-| 
|-----------------|-------------/14---|-------------------------------------| 
|-047-----047-----|-------------------|-------------------------------------| 
|-----047-----047-|-------------------|-------------------------------------| 
|-----------------|-7\----------------|-------------------------------------| 
 
  |      | | |  |   |      | | |  |     |        |  | | |    |    ||| | 
  @      @ @ @  @   @      @ @ @  @     @        @  @ @ @    @    @@@ @ 
    P  P    P  P    P  P    P  P 
|-------------------------------------|---------------------------------| 
|-1514-0-0-1715-0-0-1514-0-0-1715-0-0-|-1514-0-1412-0-1210-0-109-0-97-0-| 
|-------------------------------------|---------------------------------| 
|-------------------------------------|---------------------------------| 
|-------------------------------------|---------------------------------| 
|-------------------------------------|---------------------------------| 
 
                      B5 
  |  ||||  |  ||||    |   |||| |    || ||    |    |||| |  |||| 
  @  @@@@  @  @@@@    @   @@@@ @    @@ @@    @    @@@@ @  @@@@ 
                     (Full)      P                     (Full) 
|-------------------|----------------------|------------10^====| 
|-7-----------------|-10^------107---7-----|-------------------| 
|-7-9-7---7---------|--------------9---9-7-|-9-7---7-----------| 
|-------------------|----------------------|-----9-------------| 
|-------------------|----------------------|-------------------| 
|-------------------|----------------------|-------------------| 
 
  |   || || |       || | |    |    || | |  |  | | | |       (END SOLO) 
  @   @@ @@ @       @@ @ @    @    @@ @ @  @  @ @ @ @ 
              H  P    H  P     H P   H P    ~~~~~~~~ 
|-9----12-------------------|--------------------------| 
|-----------10-12-10-8-10-8-|-7-8-7-5-6-5--3========---| 
|---------------------------|--------------------------| 
|---------------------------|--------------------------| 
|---------------------------|--------------------------| 
|---------------------------|--------------------------| 
 
*******Fast Riff 1 x 2 ( Note : Only repeat the first section )******* 
 
On fourth repeat, Gtr 2 plays: 
 
               P 
|------------------| 
|------------------| 
|------------------| 
|-/777-777-777-75--| 
|----------------7-| 
|------------------| 
 
*******Fast Riff 2 x 4******* 
 
*******Fast Riff 1 x 4******* 
 
(Triplet feel - not strict time) 
                             _________________________ 
                             |1,2,3.      |4. 
                              H   H P 
|------------------|----------------------|----------| 
|------------------|----------------------|----------| 
|------------------|---------------------*|----------| 
|-----9---7-7------|-7-7------------------|-7--------| 
|-----7---5-5------|-5-5---------5-7-5---*|-5---7----| 
|-0-0--------------|---------5-7-------7--|-----5----| 
 
    PM---|  PM-|  PM---|       h   h 
              (Repeat 6 times) 
|----------------------------|-----------------| 
|----------------------------|-----------------| 
|*--------------------------*|-----------------| 
|---------------2--------3-2-|-------------2---| 
|*2-2-2-2-5-2-2-0-2-2-2--1-0*|---------5---2---| 
|-0-0-0-0-3-0-0---0-0-0------|-5---5---3---0---|       (END) 
 
NOTES : 
------- 
 
        -   For the intro solo, use the left hand for all taps - The open 
string is picked with the pick, then hammer on with your index finger, 
then little finger for the highest note. This technique is also used in 
the main solo as well. 
 
        -   For the tapping part on the main solo, i find it easier to 
use my middle finger rather than the pick edge (Since it is not too 
fast) 
 
-------------------------     MetallicA     ---------------------------------- 
Breadfan 
-------- 
 
 V               V       V              V 
-------------------------------------------------------------- 
-------------------------------------------------------------- 
-------------------------------------------------------------- 
-------------------------------------------------------------- 
-5/'\7---7---5/'\7---7---5/'\7---7--5/'\7---7---5/'\7---7---7- 
-------------------------------------------------------------- 
 
V           V 
-------------------------------------------------------------- 
-------------------------------------------------------------- 
-------------------------------------------------------------- 
-------------------------------------------------------------- 
-5/'\7---7---5/'\7---7---(5)/'\7---7---7---5------------------ 
-----------------------------------------------6---5---3---0-- 
 
(The "/'\" means a hammer-on/pull-off.  The (5) means a 
quick hammer on -- value of note is minute.  The 'V's above 
the staff mark accented notes.  Notice where the accents 
fall on the first few notes.  I suggest picking light and 
hammering hard on the second 5/'\7 to get that 'polyrhythmic' 
sound.) 
 
..play this umpteen times, and just before the verse, the tail 
of the above goes something like: 
 
-------------------------------------------------------------- 
-------------------------------------------------------------- 
-------------------------------------------------------------- 
-------------------------------------------------------------- 
-----------------(5)/'\7---7---7---5-------------------------- 
---------------------------------------6---5---3---2---2---0-- 
 
During the verse, they play the muted low E string, with E5 
and D5 and Eb5 (with roots on the A string...)  There are two 
parts, and the second differs slightly from the first.  I 
leave my pointer finger barre across the G and D strings when 
playing the E5 and then lift off and hammer on my ring and pinky 
fingers back onto the G and D strings.  The little 'licks' that 
follow these are: 
 
1st time: 
 
--------------------- 
--------------------- 
--------------------- 
----------5---------- 
--5/'\7-------7------ 
--------------------- 
 
2nd time: 
 
--------------------- 
--------------------- 
--------------------- 
----------5---------- 
--5/'\7--------7---5- 
--------------------- 
 
Just before the solo: 
------------------------------------------------------------------- 
------------------------------------------------------------------- 
------------------------------------------------------------------- 
------------------------------------------------------------------- 
--------10----------------------8-----------------------5---------- 
10--12------12~-0---0---8---10------10~--0---0--5---7-------7~----- 
 
------------------------------------------------------------------- 
------------------------------------------------------------------- 
------------------------------------------------------------------- 
------------------------------------------------------------------- 
----------------2-------------------------------------------------- 
-0---0--3---5-------3---4------------------------------------------ 
 
(I'm pretty sure this very last part isn't right, but it's 
close.  Every other time, it changes, but I usually just 
improvise something else....) 
 
Following this are a bunch of chord punches, which, I believe, 
are 'E5's...During the solo, they do a slide from F#5 to G5 and 
a slide from G#5 to A5 and then finish it off with 
A5  G5  A5  G5  A5  G5  E5 and then off into the acoustical part. 
 
I'm positive on the acoustical part, but it mostly goes like: 
 
-------------0---3---0---3/'\0-----------------------1--0---1/'\0-- 
---------0-----------------------0---------------3----------------- 
-------------------------------------0-------2--------------------- 
-----2-----------------------------------0------------------------- 
------------------------------------------------------------------- 
-0----------------------------------------------------------------- 
 
---------- 
---------- 
-2-------- 
-----0---- 
---------- 
---------- 
 
That's about all I can think of, as I don't have the tape here 
with me...Hope this helps... 
 
--tim 
tscott@plains.nodak.edu 
 
-------------------------	MetallicA	---------------------------------
*- The Prince -*

                               *- By Metallica -*
                   *- Originally performed by Diamond Head -*
                       *- Transcribed by Fredrik Staaf -*

 I recently received the Diamond Head version of this song.
 It's actually quite good, but not as good as the Metallica version.
 As usual in my tabs, I leave the timing to you.
 Please let me know what you think of this.
 Send e-mail (gy94frst@timra.se) to get in touch with me.
               
    Rhy. Fig. 1                Play 17 times (solo starts fifth time)
     P.M. -----------------|       P.M.   -----------------|
  ||-----------------------------------------------------------------||
  ||-----------------------------------------------------------------||
  ||*---------------------------------------------------------------*||
  ||*-------------------------5-------------------------------5---7-*||
  ||--5-----------------------3-------5-----------------------3---5--||
  ||--3---5-5---5-5---5-3-0-----------3---5-5---5-5-5-5-3-0----------||

    Guitar solo
  ||--------------|--22^--22^22^--22^22--|---------------------------------||
  ||--------------|----------------------|---------------------------------||
  ||--5--7--8--9--|----------------------|--7p5---5-7p5-9p5-8p5-7p5--------||
  ||--5--7--8--9--|----------------------|--------------------------7p5-7-/||
  ||--------------|----------------------|---------------------------------||
  ||--------------|----------------------|---------------------------------||

  ||-12-12-15p12-12-12-15p12----12-15p12-17p12-15p12----12-15p12-12-12-15p12-||
  ||-------------------------15----------------------15----------------------||
  ||-------------------------------------------------------------------------||
  ||-------------------------------------------------------------------------||
  ||-------------------------------------------------------------------------||
  ||-------------------------------------------------------------------------||

  ||-15p12----12-----|-------5h7h9-------5h7h9p5-----5h7h9-------5h9p5-9p7p5-||
  ||-------15----15^\|-5h7h9-------5h7h9---------7h9-------5h7h9-------------||
  ||-----------------|-------------------------------------------------------||
  ||-----------------|-------------------------------------------------------||
  ||-----------------|-------------------------------------------------------||
  ||-----------------|-------------------------------------------------------||

  ||-9p7p5-------|--------------------|3p1p0--------------------------------||
  ||-------9p7p5-|-9p5-10p5---5-----5-|------3p1p0--------------------------||
  ||-------------|----------7---7-----|------------2p0-----------------0p2p0||
  ||-------------|--------------------|----------------3p2p0----------------||
  ||-------------|--------------------|----------------------3p2p0----------||
  ||-------------|--------------------|----------------------------4p3------||

                                           Hold bend        
            P.M. -----|          ~~~~~ ~~~~~ ~~~~~ ~~~~~ ~~~~        P.M. -|
  ||-------------------------|----------------------------------------------||
  ||-------------------------|----------------------------------------------||
  ||-------------------------|-8-8^--8-8^--8-8^--8-8^--8-8^-8-12---9h12p9-9-||
  ||-2-1-0-------------5-----|----------------------------------------------||
  ||-------3-3p0-3---3-----7-|----------------------------------------------||
  ||-------------------------|----------------------------------------------||

  ||-----------------------|-12-15p12----17p12----15p12----17p12----15p12----||
  ||-----------------17--14|----------12-------12-------12-------12-------15\||
  ||9h12p9----9-12p9-17--14|-------------------------------------------------||
  ||-------10--------------|-------------------------------------------------||
  ||-----------------------|-------------------------------------------------||
  ||-----------------------|-------------------------------------------------||

  ||------------------------------------------------------------------------||
  ||--13-p10--------10h13-p10--------10h13-p10--------10h13p10----10h11h12--||
  ||----------12-p9------------12-p9------------12p9-----------12-----------||
  ||------------------------------------------------------------------------||
  ||------------------------------------------------------------------------||
  ||------------------------------------------------------------------------||

  ||--15p12----17p12----15p12----17p12----15p12-----||
  ||--------12-------12-------12-------12-------12--||
  ||------------------------------------------------||
  ||------------------------------------------------||
  ||------------------------------------------------||
  ||------------------------------------------------||

  ||--17h22p20-17h22p20-17h22p20-17h22p20-17h22p20p17----17-----||
  ||--------------------------------------------------20----20^-||
  ||------------------------------------------------------------||
  ||------------------------------------------------------------||
  ||------------------------------------------------------------||
  ||------------------------------------------------------------||

    Rhy. Fig. 2
    Only 1 guitar first time
        P.M. ---|   -|   P.M. -------|    P.M. ---|   -|       Play 3 times
  ||-----------------------------------------------------------------------||
  ||-----------------------------------------------------------------------||
  ||*-2-2-2------5-----7-7-5----------5-2-2-2------5-----7-7-5----------5^*||
  ||*-2-2-2------5-----7-7-5----------5-2-2-2------5-----7-7-5------------*||
  ||--0-0-0--5-7----7---------5-7-5-7---0-0-0--5-7----7-----------7p5h7----||
  ||-----------------------------------------------------------------------||

    Rhy. Fig. 3
        P.M. ---|   -|   P.M. -------|    P.M. ---|   -|    
  ||--------------------------------------------------------------------||
  ||--------------------------------------------------------------------||
  ||--2-2-2------5-----7-7-5----------5-2-2-2------5-----7-7-5--/8-7-5--||
  ||--2-2-2------5-----7-7-5----------5-2-2-2------5-----7-7-5--/8-7-5--||
  ||--0-0-0--5-7----7---------5-7-5-7---0-0-0--5-7----7-----------------||
  ||--------------------------------------------------------------------||
  
    Repeat Rhy. Fig. 2 once
    Repeat Rhy. Fig. 3 once

    Rhy. Fig. 4 (next 2 bars)
               P.M. ---| P.M. -----|
  ||-------------|---------------------------------|-------------||
  ||-------------|---------------------------------|-------------||
  ||------5------|---------------------------------|-------------||
  ||--2---3---7--|--------5-----------5---7-7-7-7--|--2-------7--||
  ||--0-------5--|--0-3---3---0-3-3---3---5-5-5-5--|--0---3---5--||
  ||-------------|---------------------------------|------1------||

 P.M. ---| P.M. -----|           P.M. ---| P.M. -----|
  ||-----------------------------------------------------------------||
  ||-----------------------------------------------------------------||
  ||-----------------------------------------------------------------||
  ||--------5-----------5---7-7-7-7---------5-----------5---7-7-7-7--||
  ||--0-3---3---0-3-3---3---5-5-5-5---0-3---3---0-3-3---3---5-5-5-5--||
  ||-----------------------------------------------------------------||

    Rhy. Fig. 5
        P.M. ---|   -|   P.M. -------|    P.M. ---|   -|
  ||---------------------------------------------------------------||
  ||---------------------------------------------------------------||
  ||--2-2-2------5-----7-7-5----------5-2-2-2------5-----7-7--6-5--||
  ||--2-2-2------5-----7-7-5----------5-2-2-2------5-----7-7--6-5--||
  ||--0-0-0--5-7----7---------5-7-5-7---0-0-0--5-7----7------------||
  ||---------------------------------------------------------------||

    Repeat Rhy. Fig. 2 once
    Repeat Rhy. Fig. 3 once
    Repeat Rhy. Fig. 2 once
    Repeat Rhy. Fig. 3 once
    Repeat Rhy. Fig. 4 once
    Repeat Rhy. Fig. 2 twice

    Note in parantheses is only played fourth time
     P.M. -------|   P.M. -------|   P.M. -------| Play 4 times
  ||-----------------------------------------------------------||
  ||-----------------------------------------------------------||
  ||*---------------------------------------------------------*||
  ||*-------------7---------------5---------------7---7-----5-*||
  ||--5/7---------7---5/7---------5---5/7---------7---5-----3--||
  ||--3/5-5-5---5-----3/5-5-5---5-----3/5-5-5(5)5--------------||

    Gtr. 2 only plays notes in parantheses first time
        P.M. ---|   -|   P.M. ------|     P.M. ---|   -|     -----------|
  ||----------------------------------------------------------------------||
  ||-------------------3-3------------------------------------------------||
  ||*-2-2-2----------------5------------2-2-2------------2-0-------------*||
  ||*--------0-2-5--0---------0--0-2-5---------0-2-5--0------2-1-0-------*||
  ||-(7\)----------------------------------------------------------4-3-2--||
  ||-(5\)-----------------------------------------------------------------||

    Gtr. 1
      P.M. ---|   -|   P.M. ------|     P.M. ---|   -|
  ||------------------------------------------------------------------------||
  ||------------------3-3---------------------------------------------------||
  ||-2-2-2----------------5------------2-2-2------------2---0h2-------------||
  ||-------0-2-5--0---------0--0-2-5---------0-2-5--0-----------2-1-0-------||
  ||------------------------------------------------------------------3-2-1-||
  ||------------------------------------------------------------------------||
  | Gtr. 2                                                                   |
  ||------------------------------------------------------------------------||
  ||------------------------------------------------------------------------||
  ||-5-5-------------------------------5-5----------------------------------||
  ||------------------------------------------------------------------------||
  ||------------------------------------------------------------------------||
  ||------------------------------------------------------------------------||

    Gtr. 1                                  Gtr. 3 enters second time
  ||-----------------------------------------------------------------||
  ||-----------------------------------------------------------------||
  ||*-2-------4---5-----------4---5--------------------------/5---4-*||
  ||*-----------------3-----------------------0---1---2-------------*||
  ||----------------------------------3------------------------------||
  ||-----------------------------------------------------------------||
  | Gtr. 2                                                            |
  ||-----------------------------------------------------------------||
  ||-----------------------------------------------------------------||
  ||*---------------------------------------------------------------*||
  ||*-2-------------------------------5-----------------------------*||
  ||--0---------------3---------------3---------------2--------------||
  ||------------------1-------------------------------0--------------||
  | Gtr. 3                                                            |
  ||-----------------------------------------------------------------||
  ||---------------------------------------------------------/5---3--||
  ||-----------------------------------------------------------------||
  ||-----------------------------------------------------------------||
  ||-----------------------------------------------------------------||
  ||-----------------------------------------------------------------||

    Gtr. 1
  ||-----------------------------------------------------------------||
  ||-----------------------------------------------------------------||
  ||*-2-------4---5-----------4---5--------------------------/5---4-*||
  ||*-----------------3-----------------------0---1---2-------------*||
  ||----------------------------------3------------------------------||
  ||-----------------------------------------------------------------||
  | Gtr. 2                                                            |
  ||-----------------------------------------------------------------||
  ||-----------------------------------------------------------------||
  ||*---------------------------------------------------------------*||
  ||*-2-------------------------------5-----------------------------*||
  ||--0---------------3---------------3---------------2--------------||
  ||------------------1-------------------------------0--------------||
  | Gtr. 3                                                            |
  ||-----------------------------------------------------------------||
  ||----------3---5-----------3---5--------------------------/5---3--||
  ||*-5---------------2---------------0-----------0---1-------------*||
  ||*-----------------------------------------4---------------------*||
  ||-----------------------------------------------------------------||
  ||-----------------------------------------------------------------||

 P.M. -----------------------------|
  ||---------------------------------||
  ||---------------------------------||
  ||---------------------------------||
  ||--7-7---------5-5---------2-2-2--||
  ||--------5-5---------3-3----------||
  ||---------------------------------||

    Gtr. 1
        P.M. ---|   -|   P.M. -------|    P.M. ---|   -|
  ||-----------------------------------------------------------------------||
  ||-----------------------------------------------------------------------||
  ||--2-2-2------5-----7-7-5----------5-2-2-2------5-----7-7-5----------5^-||
  ||--2-2-2------5-----7-7-5----------5-2-2-2------5-----7-7-5-------------||
  ||--0-0-0--5-7----7---------5-7-5-7---0-0-0--5-7----7-----------7p5h7----||
  ||-----------------------------------------------------------------------||
  | Gtr. 2                                                                  |
  ||-----------------------------------------------------------------------||
  ||-----------------------------------------------------------------------||
  ||-----------------------------------------------------------------------||
  ||-----------------------------------------------------------------------||
  ||--7-7-7--\--------------------------7-7-7--\---------------------------||
  ||--5-5-5--\--------------------------5-5-5--\---------------------------||

    Repeat Rhy. Fig. 5 once
    Repeat Rhy. Fig. 2 once
    Repeat Rhy. Fig. 3 once
    Repeat Rhy. Fig. 2 once
    Repeat Rhy. Fig. 3 once
    Repeat Rhy. Fig. 4 once

               P.M. ---| P.M. -----|
  ||-------------|---------------------------------|-------------||
  ||-------------|---------------------------------|-------------||
  ||------5------|---------------------------------|-------------||
  ||--2---3---7--|--------5-----------5---7-7-7-7--|--2-------7--||
  ||--0-------5--|--0-3---3---0-3-3---3---5-5-5-5--|--0---3---5--||
  ||-------------|---------------------------------|------1------||

 P.M. ---| P.M. -----|           P.M. ---| P.M. -----|
  ||-----------------------------------------------------------------||
  ||-----------------------------------------------------------------||
  ||*---------------------------------------------------------------*||
  ||*-------5-----------5---7-7-7-7---------5-----------5---7-7-7-7-*||
  ||--0-3---3---0-3-3---3---5-5-5-5---0-3---3---0-3-3---3---5-5-5-5--||
  ||-----------------------------------------------------------------||


-------------------------     MetallicA     ---------------------------------- 
Killing Time 
------------ 
fRom: Rafael Dylong [October '95] 
 
 
   INTRO 
   gtr.1 
eb:-------------------------------------------------| 
Bb:-------------------------------------------------| 
Gb:-------------------------------------------------| 
Db:-------------------------------------------------| 
Ab:-12-12-12-12-12-12-12-12-12-12-12-12-12-12-12-12-| 
Eb:-------------------------------------------------| 
 
eb:---------------------------------------------------| 
Bb:---------------------------------------------------| 
Gb:---------------------------------------------------| 
Db:---------------------------------------------------| 
Ab:-12\11-11-11-11-11-11-11-11-11\10-10-10-10-10-10\9-| 
Eb:---------------------------------------------------| 
 
eb:---------------------------------|---------|----------------------| 
Bb:---------------------------------|---------|----------------------| 
Gb:---------------------------------|---------|----------------------| 
Db:---------------------------------|---------|-------------------5--| 
Ab:-9-9\8-8-8\7-7-7\6-6-6\5-5-5\4-4-|-4\3-3-3-|-------------------3--| 
Eb:---------------------------------|---------|-5-5-5-5-5-5-5-5-5----| 
 
eb:----------|----------------------|---------|----------------------| 
Bb:----------|----------------------|---------|----------------------| 
Gb:----------|----------------------|---------|----------------------| 
Db:----------|-------------------7--|---------|-------------------5--| 
Ab:----------|-------------------5--|---------|-------------------3--| 
Eb:----------|-5-5-5-5-5-5-5-5-5----|---------|-5-5-5-5-5-5-5-5-5----| 
 
eb:----------|----------------------|---------|------------------------| 
Bb:----------|----------------------|---------|------------------------| 
Gb:----------|----------------------|---------|------------------------| 
Db:----------|-------------------7--|---------|---12-10--------12--14--| 
Ab:----------|-------------------5--|---------|----------12-10-10--12--| 
Eb:----------|-5-5-5-5-5-5-5-5-5----|---------|------------------------| 
 
eb:------------------------|------------------------|--------------------| 
Bb:------------------------|------------------------|--------------------| 
Gb:------------------------|------------------------|--------------------| 
Db:---12-10--------12--14--|---12-10--------12--14--|---12-10--14-14-14--| 
Ab:----------12-10-10--12--|----------12-10-10--12--|----------12-12-12--| 
Eb:------------------------|------------------------|--------------------| 
 
    gtr.1 
    & gtr.2 
eb:------------------------|-----------------------|------------------------| 
Bb:------------------------|-----------------------|------------------------| 
Gb:------------------------|-----------------------|------------------------| 
Db:--12-10---------12--14--|--12-10----------------|--12-10---------12--14--| 
Ab:--12-10--12-10--10--12--|--12-10--12-10--10-----|--12-10--12-10--10--12--| 
Eb:------------------------|-----------------8-----|------------------------| 
 
eb:-----------------------|------------------------------------------| 
Bb:-----------------------|------------------------------------------| 
Gb:-----------------------|------------------------------------------| 
Db:--12-10----------------|-10------12-12-12-------------------------| 
Ab:--12-10--12-10---10----|--8------10-10-10-------------------------| 
Eb:------------------8----|------------------------------------------| 
 
   1 VERSE 
eb:-------------------------|-----------------------|------------------------| 
Bb:-------------------------|-----------------------|------------------------| 
Gb:-------------------------|-----------------------|------------------------| 
Db:---12-10---------12--14--|--12-10----------------|--12-10---------12--14--| 
Ab:---12-10--12-10--10--12--|--12-10--12-10--10-----|--12-10--12-10--10--12--| 
Eb:-------------------------|-----------------8-----|------------------------| 
 
eb:-----------------------|----------------|--------------------------| 
Bb:-----------------------|----------------|--------------------------| 
Gb:-----------------------|----------------|--------------------------| 
Db:--12-10----------------|----------------|--------------------------| 
Ab:--12-10--12-10--10\9---|--8-----10------|--XX12--XX12--XX12--XX12--| 
Eb:-----------------8\7---|--6------8------|--XX10--XX10--XX10--XX10--| 
 
eb:-----------------| 
Bb:-----------------| 
Gb:-----------------| 
Db:-----------------| 
Ab:--8----10-10-10--| 
Eb:--6-----8--8--8--| 
 
   2 VERSE 
eb:-------------------------|-----------------------|------------------------| 
Bb:-------------------------|-----------------------|------------------------| 
Gb:-------------------------|-----------------------|------------------------| 
Db:---12-10---------12--14--|--12-10----------------|--12-10---------12--14--| 
Ab:---12-10--12-10--10--12--|--12-10--12-10--10-----|--12-10--12-10--10--12--| 
Eb:-------------------------|-----------------8-----|------------------------| 
 
eb:-----------------------|----------------|----------------------| 
Bb:-----------------------|----------------|----------------------| 
Gb:-----------------------|----------------|----------------------| 
Db:--12-10----------------|----------------|---------------10-----| 
Ab:--12-10--12-10--10\9---|--8-----10------|--12--12-----8--8-10--| 
Eb:-----------------8\7---|--6------8------|--10--10-----6-----8--| 
 
eb:----------------------|----------------------|-------------------| 
Bb:----------------------|----------------------|-------------------| 
Gb:----------------------|----------------------|-------------------| 
Db:---------------10-12--|---------------10-----|-------------------| 
Ab:--12--12-----8--8-10--|--12--12-----8--8-10--|--12--12-----8--5--| 
Eb:--10--10-----6--------|--10--10-----6-----8--|--10--10-----6--3--| 
 
eb:----------------| 
Bb:----------------| 
Gb:----------------| 
Db:----------------| 
Ab:----------------| 
Eb:----------------| 
 
   3 VERSE 
eb:-------------------------|-----------------------|------------------------| 
Bb:-------------------------|-----------------------|------------------------| 
Gb:-------------------------|-----------------------|------------------------| 
Db:---12-10---------12--14--|--12-10----------------|--12-10---------12--14--| 
Ab:---12-10--12-10--10--12--|--12-10--12-10--10-----|--12-10--12-10--10--12--| 
Eb:-------------------------|-----------------8-----|------------------------| 
 
eb:-----------------------|----------------|--------------------------| 
Bb:-----------------------|----------------|--------------------------| 
Gb:-----------------------|----------------|--------------------------| 
Db:--12-10----------------|----------------|--------------------------| 
Ab:--12-10--12-10--10\9---|--8-----10------|--XX12--XX12--XX12--XX12--| 
Eb:-----------------8\7---|--6------8------|--XX10--XX10--XX10--XX10--| 
 
eb:-----------------| 
Bb:-----------------| 
Gb:-----------------| 
Db:-----------------| 
Ab:--8----10-10-10--| 
Eb:--6-----8--8--8--| 
 
   4 VERSE 
eb:-------------------------|-----------------------|------------------------| 
Bb:-------------------------|-----------------------|------------------------| 
Gb:-------------------------|-----------------------|------------------------| 
Db:---12-10---------12--14--|--12-10----------------|--12-10---------12--14--| 
Ab:---12-10--12-10--10--12--|--12-10--12-10--10-----|--12-10--12-10--10--12--| 
Eb:-------------------------|-----------------8-----|------------------------| 
 
eb:-----------------------|----------------|----------------------| 
Bb:-----------------------|----------------|----------------------| 
Gb:-----------------------|----------------|----------------------| 
Db:--12-10----------------|----------------|---------------10-----| 
Ab:--12-10--12-10--10\9---|--8-----10------|--12--12-----8--8-10--| 
Eb:-----------------8\7---|--6------8------|--10--10-----6-----8--| 
 
eb:----------------------|----------------------|-------------------| 
Bb:----------------------|----------------------|-------------------| 
Gb:----------------------|----------------------|-------------------| 
Db:---------------10-12--|---------------10-----|-------------------| 
Ab:--12--12-----8--8-10--|--12--12-----8--8-10--|--12--12-----8--5--| 
Eb:--10--10-----6--------|--10--10-----6-----8--|--10--10-----6--3--| 
 
   SOLO/gtr.1/ 
  >r.2 rhytm 
eb:----------------|------------------|----------------|---------------| 
Bb:----------------|------------------|----------------|---------------| 
Gb:----------------|------------------|----------------|---------------| 
Db:----------------|------------------|----------------|---------------| 
Ab:----------------|------------7-----|--7-------7-----|--7-----7-7-7--| 
Eb:----------------|------------5-----|--5-------5-----|--5-----5-5-5--| 
 
eb:---------------|---------------|---------------|---------------| 
Bb:---------------|---------------|---------------|---------------| 
Gb:---------------|---------------|---------------|---------------| 
Db:--2-----2------|--2-----2-7-7--|--2-----2------|--2-----2------| 
Ab:--2-----2-5-5--|--2-----2-5-5--|--2-----2-5-5--|--2-----2-5-5--| 
Eb:--0-----0-3-3--|--0-----0------|--0-----0-3-3--|--0-----0-3-3--| 
 
eb:---------------|-----------------|--------------| 
Bb:---------------|-----------------|--------------| 
Gb:---------------|-----------------|--------------| 
Db:---------------|-----------------|--------------| 
Ab:--3-----5------|-XX7-XX7-XX7-XX7-|--3----5-5-5--| 
Eb:--1-----3------|-XX5-XX5-XX5-XX5-|--1----3-3-3--| 
 
   5 VERSE 
eb:-------------------------|-----------------------|------------------------| 
Bb:-------------------------|-----------------------|------------------------| 
Gb:-------------------------|-----------------------|------------------------| 
Db:---12-10---------12--14--|--12-10----------------|--12-10---------12--14--| 
Ab:---12-10--12-10--10--12--|--12-10--12-10--10-----|--12-10--12-10--10--12--| 
Eb:-------------------------|-----------------8-----|------------------------| 
 
eb:-----------------------|----------------|--------------------------| 
Bb:-----------------------|----------------|--------------------------| 
Gb:-----------------------|----------------|--------------------------| 
Db:--12-10----------------|----------------|--------------------------| 
Ab:--12-10--12-10--10\9---|--8-----10------|--XX12--XX12--XX12--XX12--| 
Eb:-----------------8\7---|--6------8------|--XX10--XX10--XX10--XX10--| 
 
eb:-----------------| 
Bb:-----------------| 
Gb:-----------------| 
Db:-----------------| 
Ab:--8----10-10-10--| 
Eb:--6-----8--8--8--| 
 
   6 VERSE 
eb:-------------------------|-----------------------|------------------------| 
Bb:-------------------------|-----------------------|------------------------| 
Gb:-------------------------|-----------------------|------------------------| 
Db:---12-10---------12--14--|--12-10----------------|--12-10---------12--14--| 
Ab:---12-10--12-10--10--12--|--12-10--12-10--10-----|--12-10--12-10--10--12--| 
Eb:-------------------------|-----------------8-----|------------------------| 
 
eb:-----------------------|----------------|----------------------| 
Bb:-----------------------|----------------|----------------------| 
Gb:-----------------------|----------------|----------------------| 
Db:--12-10----------------|----------------|---------------10-----| 
Ab:--12-10--12-10--10\9---|--8-----10------|--12--12-----8--8-10--| 
Eb:-----------------8\7---|--6------8------|--10--10-----6-----8--| 
 
eb:----------------------|----------------------|-------------------| 
Bb:----------------------|----------------------|-------------------| 
Gb:----------------------|----------------------|-------------------| 
Db:---------------10-12--|---------------10-----|-------------------| 
Ab:--12--12-----8--8-10--|--12--12-----8--8-10--|--12--12-----8--5--| 
Eb:--10--10-----6--------|--10--10-----6-----8--|--10--10-----6--3--| 
 
eb:-------------|--------------|------------------|| 
Bb:-------------|--------------|------------------|| 
Gb:-------------|--------------|------------------|| 
Db:-------------|--------------|------------------|| 
Ab:-------------|--5-----------|--5----7--7--7----|| 
Eb:-------------|--3-----------|--3----5--5--5----||. 
 
-------------------------     MetallicA     ---------------------------------- 
Stone Cold Crazy (Queen version, but the same) 
---------------- 
Tabbed by Howard Wright (spxhaw@uk.ac.cf.thor) 
 
Main riff: 
 
As usual h=hammer on, p=pull off 
 
E-- 
B-- 
G-- 
D-----------------2-------------4---4--------------- } 
A---4---4-4-4-4-4-0-----4---4-4-0h2-2--2--1--2--3--4 } Play twice 
E---0h2-2-2-2-2-2-------0h2-2-2--------------------- } 
 
E- 
B- 
G- 
D--2h4-4-4-4p2---2-------------4---4--------------- } 
A--------------4-0-----4---4-4-0h2-2--2--1--2--3--4 } Twice 
E----------------------0h2-2-2--------------------- } 
 
Verse 1: 
-------- 
(No more guitar as the singing starts..) 
 
Guitar comes in with a B power chord (x244xx) as Freddie sings 
 
'crazy' for the first time (BEFORE the harmony vocals on 'Stone 
 
cold crazy') 
 
Then back to the main riff as before 
 
Verse 2 same as Verse 1 
 
Now, after the harmony vocals on 'Stone cold crazy' : 
A power chord (x022xx), then Bb power chord (x133xx) leads into 
the guitar break which is all over the Bb chord 
 
(Half way through there is a little downward bit : 
 
E 
B 
G--3--1------------ 
D--------3--2--1--- 
A-----------------4- 
E 
 
   ...then back to Bb for the rest of the solo) 
 
After the solo, the main riff again , another verse, another 
chorus over a B power chord, then it ends with: 
 
E--x--x--x--x-- 
B--x--x--x--x-- 
G--x--x--x--x-- 
D--x--x--x--x--4- 
A--x--x--x--x--4- 
E--x--x--x--x--2- 
 
(attack the muted strings for the xs) 
 
-------------------------     MetallicA     ---------------------------------- 
So What! 
-------- 
Rafael Dylong 
 
               Gtr1 
||------------||-----------|-----------|---------|-----------| 
||------------||-----------|-----------|---------|-----------| 
||------------||-----------|-----------|---------|-----------| 
||------------||-5\7-7-7-7-|-5\7-7-7-7-|-5-7-5-7-|-5\7-7-7-7-| 
||------------||-5\7-7-7-7-|-5\7-7-7-7-|-5-7-5-7-|-5\7-7-7-7-| 
||------------||-3\5-5-5-5-|-3\5-5-5-5-|-3-5-3-5-|-3\5-5-5-5-| 
 
 Gtr1&2 
|-----------|-----------|---------|-----------| 
|-----------|-----------|---------|-----------| 
|-----------|-----------|---------|-----------| 
|-5\7-7-7-7-|-5\7-7-7-7-|-5-7-5-7-|-5\7-7-7-7-| 
|-5\7-7-7-7-|-5\7-7-7-7-|-5-7-5-7-|-5\7-7-7-7-| 
|-3\5-5-5-5-|-3\5-5-5-5-|-3-5-3-5-|-3\5-5-5-5-| 
 
|----------|----------|----------|----------|           \ 
|----------|----------|----------|----------|            \ 
|-5\7777777|-77777777-|-77777777-|-77777777-|            | 
|-5\7777777|-77777777-|-77777777-|-77777777-|            | 
|-3\5555555|-55555555-|-55555555-|-55555555-|            | 
|----------|----------|----------|----------|            | 
                                                         | 
                                                         | 
|-----------|-----------|---------|-----------|          | 
|-----------|-----------|---------|-----------|          | 
|-----------|-----------|---------|-----------|          | 
|-5\7-7-7-7-|-5\7-7-7-7-|-5-7-5-7-|-5\7-7-7-7-|          | 
|-5\7-7-7-7-|-5\7-7-7-7-|-5-7-5-7-|-5\7-7-7-7-|          | 
|-3\5-5-5-5-|-3\5-5-5-5-|-3-5-3-5-|-3\5-5-5-5-|          | 
                                                         | 
                                                         | 
|----------|----------|----------|----------|            | 
|----------|----------|----------|----------|            | 
|-5\7777777|-77777777-|-77777777-|-77777777-|            | 
|-5\7777777|-77777777-|-77777777-|-77777777-|            | 
|-3\5555555|-55555555-|-55555555-|-55555555-|            | 
|----------|----------|----------|----------|            \    3 times 
                                                          \ 
                                                           >  1&2&3 Verse 
|-----------|-----------|---------|-----------|           / 
|-----------|-----------|---------|-----------|          / 
|-----------|-----------|---------|-----------|          | 
|-5\7-7-7-7-|-5\7-7-7-7-|-5-7-5-7-|-5\7-7-7-7-|          | 
|-5\7-7-7-7-|-5\7-7-7-7-|-5-7-5-7-|-5\7-7-7-7-|          | 
|-3\5-5-5-5-|-3\5-5-5-5-|-3-5-3-5-|-3\5-5-5-5-|          | 
                                                         | 
 Gtr1                                                    | 
|----------|----------|-----------|-----------|          | 
|----------|----------|-----------|-----------|          | 
|----------|-----2----|-----------|-----------|          | 
|-----2----|---2---2--|-5\7-7-7-7-|-5\7-7-7-7-|          | 
|---2---2--|-1--------|-5\7-7-7-7-|-5\7-7-7-7-|          | 
|-1--------|----------|-3\5-5-5-5-|-3\5-5-5-5-|          | 
|          |          |           |           |          | 
|Gtr2      |          |           |           |          | 
|----------|-6--------|-----------|-----------|          | 
|-----6----|---6------|-----------|-----------|          | 
|---5---5--|-----3----|-----------|-----------|          | 
|-3--------|-------3--|-----------|-----------|          | 
|----------|----------|-----------|-----------|          | 
|----------|----------|-----------|-----------|          | 
                                                         | 
                                                         | 
 Gtr1                                                    | 
|----------|----------|-----------|-----------|          | 
|----------|----------|-----------|-----------|          | 
|----------|-----2----|-----------|-----------|          | 
|-----2----|---2---2--|-5\7-7-7-7-|-5\7-7-7-7-|          | 
|---2---2--|-1--------|-5\7-7-7-7-|-5\7-7-7-7-|          | 
|-1--------|----------|-3\5-5-5-5-|-3\5-5-5-5-|          | 
|          |          |           |           |          | 
|Gtr2      |          |           |           |          | 
|----------|-6--------|-----------|-----------|          | 
|-----6----|---6------|-----------|-----------|          | 
|---5---5--|-----3----|-----------|-----------|          | 
|-3--------|-------3--|-----------|-----------|          | 
|----------|----------|-----------|-----------|          | 
|----------|----------|-----------|-----------|          | 
                                                         | 
|---------|-----------|                                  | 
|---------|-----------|                                  | 
|---------|-----------|                                  | 
|-5-7-5-7-|-5\7-7-7-7-|                                  | 
|-5-7-5-7-|-5\7-7-7-7-|                                  / 
|-3-5-3-5-|-3\5-5-5-5-|                                 / 
 
 Gtr1 
|----------|----------|----------|----------|           \ 
|----------|----------|----------|----------|            \ 
|-5\7777777|-77777777-|-77777777-|-77777777-|            | 
|-5\7777777|-77777777-|-77777777-|-77777777-|            | 
|-3\5555555|-55555555-|-55555555-|-55555555-|            | 
|----------|----------|----------|----------|            | 
                                                         | 
                                                         | 
|-----------|-----------|---------|-----------|          | 
|-----------|-----------|---------|-----------|          | 
|-----------|-----------|---------|-----------|          | 
|-5\7-7-7-7-|-5\7-7-7-7-|-5-7-5-7-|-5\7-7-7-7-|          | 
|-5\7-7-7-7-|-5\7-7-7-7-|-5-7-5-7-|-5\7-7-7-7-|          | 
|-3\5-5-5-5-|-3\5-5-5-5-|-3-5-3-5-|-3\5-5-5-5-|          | 
                                                         | 
                                                         | 
|----------|----------|----------|----------|            | 
|----------|----------|----------|----------|            | 
|-5\7777777|-77777777-|-77777777-|-77777777-|            | 
|-5\7777777|-77777777-|-77777777-|-77777777-|            |    JAMES H. 
|-3\5555555|-55555555-|-55555555-|-55555555-|            \     playes. 
|----------|----------|----------|----------|             \   rhytm gtr. 
                                                           >     &&& 
                                                          /   MR.HAMMETT 
|-----------|-----------|---------|-----------|          /       the 
|-----------|-----------|---------|-----------|          |      solo 
|-----------|-----------|---------|-----------|          | 
|-5\7-7-7-7-|-5\7-7-7-7-|-5-7-5-7-|-5\7-7-7-7-|          | 
|-5\7-7-7-7-|-5\7-7-7-7-|-5-7-5-7-|-5\7-7-7-7-|          | 
|-3\5-5-5-5-|-3\5-5-5-5-|-3-5-3-5-|-3\5-5-5-5-|          | 
                                                         | 
                                                         | 
|----------|----------|-----------|-----------|          | 
|----------|----------|-----------|-----------|          | 
|----------|-----2----|-----------|-----------|          | 
|-----2----|---2---2--|-5\7-7-7-7-|-5\7-7-7-7-|          | 
|---2---2--|-1--------|-5\7-7-7-7-|-5\7-7-7-7-|          | 
|-1--------|----------|-3\5-5-5-5-|-3\5-5-5-5-|          | 
                                                         | 
                                                         | 
|----------|----------|-----------|-----------|          | 
|----------|----------|-----------|-----------|          | 
|----------|-----2----|-----------|-----------|          | 
|-----2----|---2---2--|-5\7-7-7-7-|-5\7-7-7-7-|          | 
|---2---2--|-1--------|-5\7-7-7-7-|-5\7-7-7-7-|          | 
|-1--------|----------|-3\5-5-5-5-|-3\5-5-5-5-|          | 
                                                         | 
|---------|-----------|                                  | 
|---------|-----------|                                  | 
|---------|-----------|                                  | 
|-5-7-5-7-|-5\7-7-7-7-|                                  | 
|-5-7-5-7-|-5\7-7-7-7-|                                  / 
|-3-5-3-5-|-3\5-5-5-5-|                                 / 
 
 Gtr1&2                                                 \ 
|----------|----------|----------|----------|            \ 
|----------|----------|----------|----------|            | 
|-5\7777777|-77777777-|-77777777-|-77777777-|            | 
|-5\7777777|-77777777-|-77777777-|-77777777-|            | 
|-3\5555555|-55555555-|-55555555-|-55555555-|            | 
|----------|----------|----------|----------|            | 
                                                         | 
                                                         | 
|-----------|-----------|---------|-----------|          | 
|-----------|-----------|---------|-----------|          | 
|-----------|-----------|---------|-----------|          | 
|-5\7-7-7-7-|-5\7-7-7-7-|-5-7-5-7-|-5\7-7-7-7-|          | 
|-5\7-7-7-7-|-5\7-7-7-7-|-5-7-5-7-|-5\7-7-7-7-|          | 
|-3\5-5-5-5-|-3\5-5-5-5-|-3-5-3-5-|-3\5-5-5-5-|          | 
                                                         | 
                                                         | 
|----------|----------|----------|----------|            | 
|----------|----------|----------|----------|            | 
|-5\7777777|-77777777-|-77777777-|-77777777-|            | 
|-5\7777777|-77777777-|-77777777-|-77777777-|            | 
|-3\5555555|-55555555-|-55555555-|-55555555-|            | 
|----------|----------|----------|----------|            \ 
                                                          \ 
                                                           >   4 Verse 
|-----------|-----------|---------|-----------|           / 
|-----------|-----------|---------|-----------|          / 
|-----------|-----------|---------|-----------|          | 
|-5\7-7-7-7-|-5\7-7-7-7-|-5-7-5-7-|-5\7-7-7-7-|          | 
|-5\7-7-7-7-|-5\7-7-7-7-|-5-7-5-7-|-5\7-7-7-7-|          | 
|-3\5-5-5-5-|-3\5-5-5-5-|-3-5-3-5-|-3\5-5-5-5-|          | 
                                                         | 
 Gtr1                                                    | 
|----------|----------|-----------|-----------|          | 
|----------|----------|-----------|-----------|          | 
|----------|-----2----|-----------|-----------|          | 
|-----2----|---2---2--|-5\7-7-7-7-|-5\7-7-7-7-|          | 
|---2---2--|-1--------|-5\7-7-7-7-|-5\7-7-7-7-|          | 
|-1--------|----------|-3\5-5-5-5-|-3\5-5-5-5-|          | 
|          |          |           |           |          | 
|Gtr2      |          |           |           |          | 
|----------|-6--------|-----------|-----------|          | 
|-----6----|---6------|-----------|-----------|          | 
|---5---5--|-----3----|-----------|-----------|          | 
|-3--------|-------3--|-----------|-----------|          | 
|----------|----------|-----------|-----------|          | 
|----------|----------|-----------|-----------|          | 
                                                         | 
                                                         | 
 Gtr1                                                    | 
|----------|----------|-----------|-----------|          | 
|----------|----------|-----------|-----------|          | 
|----------|-----2----|-----------|-----------|          | 
|-----2----|---2---2--|-5\7-7-7-7-|-5\7-7-7-7-|          | 
|---2---2--|-1--------|-5\7-7-7-7-|-5\7-7-7-7-|          | 
|-1--------|----------|-3\5-5-5-5-|-3\5-5-5-5-|          | 
|          |          |           |           |          | 
|Gtr2      |          |           |           |          | 
|----------|-6--------|-----------|-----------|          | 
|-----6----|---6------|-----------|-----------|          | 
|---5---5--|-----3----|-----------|-----------|          | 
|-3--------|-------3--|-----------|-----------|          | 
|----------|----------|-----------|-----------|          / 
|----------|----------|-----------|-----------|         / 
 
 
|---------|---------|-----------------|----|| 
|---------|---------|-----------------|----|| 
|---------|---------|-----------------|----|| 
|-5-7-5-7-|-5-7-5-7-|-----------------|-7\-|| 
|-5-7-5-7-|-5-7-5-7-|-----------------|-7\-|| 
|-3-5-3-5-|-3-5-3-5-|-----------------|-5\-||. 
 
------ Metallica ------
"Overkill"
written by: Kilmster, Clarke, Taylor
as performed by Metallica
on the Until It Sleeps single
tab by Phil Boyle; ibzrg470@apk.net


tune all guitars down 1/2 step
Db-----9-9-9--9-9-9-9--9-9-9--9-9-9-9
Ab-----7-7-7--7-7-7-7--7-7-7--7-7-7-7
Eb--///0-0-0--0-0-0-0--0-0-0--0-0-0-0
drum and bass intro into this

Gb--7--9/7--9/7--9/7-------------
Db--5--7/5--7/5--7/5--7/5--7/5--5
Ab--------------------5/3--5/3--3
Eb-------------------------------
verse

Gb------7--------7/9------7--------7/9
Db------5--------5/7------5--------5/7
Ab------------------------------------
Eb--0-0----0-0-0------0-0----0-0-0----
  pm...    .....      ...    .....
more verse

Gb---------------2
Db-----4-2-4-----0
Ab--4--2-0-2--4---
Eb--2---------2---
"Overkill"

Db-----4--5--5-4-5-4--
Ab--2--2--3--3-2-3-2-2
Eb--0----------------0
end riff (after 2nd double bass intro)

------ Metallica ------
"Damage Case"
written by Motorhead
as performed Metallica at Lemmy's 50th B-day party
tab by Vladimir Lapotkin and Phil Boyle; ibzrg470@apk.net


tune all guitars down 1/2 step
Gb----7---7---7---9---7---7---7---9
Db----5---5---5---7---5---5---5---7
Ab---------------------------------
Eb--0---0---0---0---0---0---0---0--
   pm   .   .   .   .   .   .   .
intro

Gb------------------------------7-7
Db------------------------------5-5
Ab--7p5-7p5-7p5-7p5-7p5-7p5-7p5----
Eb--0-0-0-0-0-0-0-0-0-0-0-0-0-0----
"Hey Babe don't act so scared..."
main verse

Gb-------------------------------------
Db----4-----7----4-----7----4-----7---2
Ab--2-2--5--5--2-2--5--5--2-2--5--5---2
Eb-------3----------3----------3------0
   pm          .          .
"And I can tell by your face..."

Gb----------------------
Db--4----------------2-4
Ab--2--5---4-2-4-0-4-0-2
Eb-----3---2-0-2-0-2----
          pm........
"Move over for a damage case!"

(key change after solo #1)
Gb-------------------------------------
Db--2-2-----------------------------2-2
Ab--0-0-4---4---4---4---4---4---4---0-0
Eb------2p0-2p0-2p0-2p0-2p0-2p0-2p0----
"Hey babe, don't turn away"

Gb----------4----------4----------4--6
Db----6--2--2----6--2--2----6--2--2--6
Ab--4-4--0-----4-4--0-----4-4--0-----4
Eb------------------------------------
   pm          .          .
"And I can tell by your face"

Gb--------------------------------
Db--6-6-6-6-4-4-4-4--4-2-4-2-4-5-6
Ab--4-4-4-4-2-2-2-2--2-0-2-0-2-3-4
Eb--------------------------------
"Move over for a damage case"

------ Metallica ------
"Stone Dead Forever"
written by: Kilmster, Clarke, Taylor
as performed by Metallica
on the Hero of the Day single, Garage Inc.
tab by Phil Boyle; ibzrg470@apk.net


tune all guitars down 1/2 step

bass intro
Gb--9---7---5-------2---9
Db--9---7---5---5---2---9
Ab--7---5---3---5---0---7
Eb--0-----------3-------0
guitar intro

Gb--9---9--9---9--9---9-----2--9---9--9---9--9---9--5--4
Db--9---9--9---9--9---9--5--2--9---9--9---9--9---9--5--4
Ab--7-7-7--7-7-7--7-7-7--5--0--7-7-7--7-7-7--7-7-7--3--2
Eb-----------------------3------------------------------
     pm      .      .            .      .      .
Can't you see me

Gb---------------------------------------
Db----5---5---5---5---7---7---7---7--5--4
Ab----5---5---5---5---7---7---7---7--5--4
Eb--7---7---7---7---9---9---9---9----3--2

Gb---------------------------------------------
Db----5---5---5---5---7---7---7---7--5--4--3--2
Ab----5---5---5---5---7---7---7---7--5--4--3--2
Eb--7---7---7---7---9---9---9---9----3--2--1--0
Right there on your own.............Stone Dead Forever!!!

Gb--------2--5--7
Db--2--5--2--5--7  twice then to intro riff
Ab--2--5--0--3--5
Eb--0--3---------
solo riff 

------ Metallica ------
"Too Late Too Late"
written by Kilmster, Clarke, Taylor
as performed by Metallica on the Hero of the Day single, Garage Inc.
tab by Phil Boyle; ibzrg470@apk.net


tune all guitars down 1/2 step
Gb----------7------------
Db--5h7-7-7---7-7--------
Ab--0-0-0-0-------0-5-6-7
Eb-----------------------
  pm.......       .......
opening riff (play it a few times and see if it seems familiar
on the fancan Lars was talking about a Motorhead rip-off here it is)

Gb-----------------------------
Db--5h7-7-7-7-7-7-7-7-7--------
Ab--0-0-0-0-0-0-0-0-0-0-0-5-6-7
Eb-----------------------------
  pm...........................
"I see that nothing's changed,

Gb--9-9--7--4--2
Db--9-9--7--4--2
Ab--7-7--5--2--0
Eb--------------
"What do I have to loose"

Gb----------4-----------
Db--2h4-4-4---4--0-2-3-4
Ab--2-2-2-2-------------
Eb----------------------
  pm.......      .......
comments
print report bad tab
8 comments total. Showing first comments.
0 reply
I forget wrote on May 25 2002, 12:00 am

Perfection...pure genious!

0 reply
Iceman86 wrote on November 3 2004, 12:00 am

hmmm last time i listened 2 whiskey in the jar there was a solo in it??? u 4get bout that?

0 reply
TheMutts wrote on January 28 2005, 12:00 am

a nicely structured piece of tablature, impressive and everything like that.. but there are a lot of mistakes... to much to list

I want to post or [tab]
guest
You may want to rate the tab now too:
select rating
Please do not post tabs as comments. Select "correction" instead!