Oops, an error
Loading. Please wait.

Garage Inc Tab

ver2
ver2

Album

More versions @911Tabs.com
9,541 views 6 this week
no commentswrite comment
1 2 3 4 5
excellent!
x 4
add to favorites launch autoscroll
font size
0
reset
Autoscroll
+/-
esc
set tempo
stop
Contributor
WARNING: You are trying to view
                                    content from Ultimate-Guitar.com
                                    in an unauthorized application,
                                    which is prohibited.

                                    Please use an official Ultimate
                                    Guitar Tabs application for iPhone,
                                    iPad or Android to access legitimate
                                    chords, guitar, bass, and drum tabs
                                    from Ultimate-Guitar.com database.

                                    Type "ultimate guitar tabs" in Apple
                                    App Store's or Android Market's
                                    search to find the application.
GARAGE INC.
1.Free Speech For The Dumb
2.It's Electric
3.Sabbra Cadabra
4.Turn The Page
5.Die,Die My Darling
6.Loverman
7.Mercyful Fate
8.Astronomy
9.Whiskey In The Jar
10.Tuesday's Gone
11.The More I See
12.Helpless
13.The Small Hours
14.The Wait
15.Crash Course In Brain Surgery
16.Last Caress
17.Green Hell
18.Am I Evil?
19.Blitzkrieg
20.Breadfan
21.The Prince
22.Stone Cold Crazy
23.So What
24.Killing Time
25.Overkill
26.Damage Case
27.Stone Dead Forever
28.Too Late Too Late



1.Free Speech For The Dumb

Rhythum(guitar 1)
e------------------------------------------------------------------
B------------------------------------------------------------------
G------------------------------------------------------------------
D------------------------------------------------------------------
A--2-----------------------5---------------------------------------
E--0-0-0-0-0-0-0-0-0-0-0-0-3---------------------------------------
Pm   - - - - - - - - - - -

Rhythum(guitar 2)
e------------------------------------------------------------------
B------------------------------------------------------------------
G------------------------------------------------------------------
D--9-----------------------12--------------------------------------
A--7-----------------------10--------------------------------------
E----0-0-0-0-0-0-0-0-0-0-0-----------------------------------------
Pm   - - - - - - - - - - -

1st Solo(main riff under)
e------------------------------------------------------------------
B-12-15/12-12-15-15/12-15/14/12-15-12-15-14-12-15-12-12-15/14/12-14
G------------------------------------------------------------------
D------------------------------------------------------------------
A------------------------------------------------------------------
E------------------------------------------------------------------

e-------------------------------------19-0-------------------------
B-10-12-9-12/10/8-11-10-8-5-8-5-7/5-2------12/0-0----0-12-0----0-14
G-------------------------------------------------12-0-12-0-12-0-14
D------------------------------------------------------------------
A------------------------------------------------------------------
E------------------------------------------------------------------

e------------------------------------------------------------------
B-14-0-14-0-14-0----0----0----0----12-12-12-12-12-12-0-12----------
G-14-0-14-0-14-0-12-0-12-0-12-0-14------------------------12-14-14-
D------------------------------------------------------------------
A------------------------------------------------------------------
E------------------------------------------------------------------

e--------------------------------------------------------------12--
B-------------------------------------------------0----0-15-15-----
G-12----------12-14-12-14-12-14-0-14-0-14-14-0-14-0-14-0-----------
D----15-12-14------------------------------------------------------
A------------------------------------------------------------------
E------------------------------------------------------------------

e-------15-15-15-12-15-12/7/16-0-15p0-0h14p0-0h15p0-0h7p0h8p7h22p0-
B-15-12-15-15-15---------------------------------------------------
G------------------------------------------------------------------
D------------------------------------------------------------------
A------------------------------------------------------------------
E------------------------------------------------------------------

e-0-0/22h0-0-0-0-0-0-0-12-12-12p0-12-12-12-12-12-12-12p0-12-0-12---
B----------------------12-12-12p0-12-12-12-12-12-12-12p0-12-0-15-15
G-----------------------------------------------------------0------
D------------------------------------------------------------------
A------------------------------------------------------------------
E------------------------------------------------------------------

e-12-12-0----------------------------------------------------------
B----15-0-12-12----12-12-0-------------12--12----------------------
G---------14----14----14-0-------------12--12----------------------
D--------------------------14-14-14-14--------14-12-14-12/14-14-14-
A------------------------------------------------------------------
E------------------------------------------------------------------

e------------------------------------------------------------------
B----------------------------12------------------------------------
G----------------------------12----------------------------14/12---
D-14-14-14-14-14-14-14-14-14----14-14-14-14-14-14-14-14-14-------14
A------------------------------------------------------------------
E------------------------------------------------------------------

e------------------------------------------------------------------
B-------------------------------12-------------------------12-12-0-
G-------------------------------12-------------------------12-12-0-
D-14-14-14-14-14-14-14-14-14-14----14-14-14-14-14-14-14-14---------
A------------------------------------------------------------------
E------------------------------------------------------------------

e------------------------------------------------------------------
B-12-0-12-0-14-0-14-0-16-0-16-0-16-14-0-14-0-14-12-----------------
G-12-0-12-0-14-0-14-0-16-0-16-0-16-14-0-14-0-14-12-11h13-12-12-12--
D------------------------------------------------------------------
A------------------------------------------------------------------
E------------------------------------------------------------------

e------------------------------------------------------------------
B-12-12------------------------------------------------------------
G-12-12-12---------------------------------------------------------
D-----------14-----------------------------------------------------
A--------------14---5----------------------------------------------
E-----------------0-3----------------------------------------------

2nd Solo(main riff under)
e------------------------------------------------------------------
B-7-0-0--------------------------------0-------------------------15
G-------7-0-9-0-12-0-14-0-16-0-14-0-12---9-7-7/9---9-0-12-0-15-15--
D------------------------------------------------0-----------------
A------------------------------------------------------------------
E------------------------------------------------------------------

e-17-16-17-16-15-12/15-------------------------------------------0-
B-17-16-17-------12/15/10h12h13h14-------------------------------0-
G----------------------------------0-14-14-14/16p0-0-14-14-14/16-0-
D------------------------------------------------------------------
A------------------------------------------------------------------
E------------------------------------------------------------------

e-15---------0-15------------0-12-------0-12---------0-------------
B-15-15-15p0-0-15-15-15-15p0-0----12-12-0-12-12-12p0-0----0--------
G------------------------------------------------------14-0-16-0-12
D------------------------------------------------------------------
A------------------------------------------------------------------
E------------------------------------------------------------------

e-------------------------0-0-12-12-12-12-12-12-12-12-12-12-12-15--
B--------------------5/17--------------------12-------12-12----15--
G-0-14-0-11-0-12-0-9-----------------------------------------------
D------------------------------------------------------------------
A------------------------------------------------------------------
E------------------------------------------------------------------

e-12-15-15-12-15-12----12-12----12----12---------------------------
B-------------15----15-15----15----15----12-12----12----12-15-15---
G----------------------------------------14----14----14----14----14
D------------------------------------------------------------------
A------------------------------------------------------------------
E------------------------------------------------------------------

e------------------------------------------------------------------
B-------------------16-16-16-17-17-17-17---------------------------
G-14-14-14-16-16-16-18-18-18-19-19-19-19---------------------------
D------------------------------------------------------------------
A------------------------------------------------------------------
E----------------------------------------2/15----------------------
outro
e------------------------------------------------------------------
B------------------------------------------------------------------
G------------------------------------------------------------------
D------------------------------------------------------------------
A-2-----------------------5-2-5-5-2h3------------------------------
E-0-0-0-0-0-0-0-0-0-0-0-0-3-0-0-0-0h5------------------------------

2.It's Electric

|-------------------------|-------------------------|-----------------------|
|-------------------------|-------------------------|-----------------------|
|-------------------------|-------------2--------0--|----------2----4--4----|
|--4--2----2-----------2--|----4--4--4--2--------0--|----------2----4--4----|
|-------4-----4--2--0--2--|----4--4--4--0--------2--|----------0----2--2----|
|----------------------0--|----2--2--2-----0--0-----|----0--0---------------|
                                  PM..     PM..          PM..


|-----------------------|-----------------------|------------------------|
|-----------------------|-----------------------|------------------------|
|-----------2--------2--|----------2----4--4----|------------2--------2--|
|--4--4--4--2--------2--|----------2----4--4----|--4--4--4---2--------2--|
|--4--4--4--0--------0--|----------0----2--2----|--4--4--4---0--------0--|
|--2--2--2-----0--0-----|----0--0---------------|--2--2--2------0--0-----|
               PM..          PM..                               PM..


|-----------------------|-----------------------|-----------------------|
|-----------------------|-----------------------|-----------------------|
|----------2----4--4----|-----------2--------2--|----------2----4--4----|
|----------2----4--4----|--4--4--4--2--------2--|----------2----4--4----|
|----------0----2--2----|--4--4--4--0--------0--|----------0----2--2----|
|----0--0---------------|--2--2--2-----0--0-----|----0--0---------------|
     PM..                              PM..          PM..


|-----------------|-----------------|-------------|-----------------------|
|-----------------|-----------------|-------------|-----------------------|
|--4----4------4--|-----------------|--4---9---4--|-----------------------|
|--4----4------4--|-----------------|--4---9---4--|--4--2---2----------2--|
|--2----2------2--|--------------2--|--2---7---2--|-------4---4--2--0--2--|
|-----------------|--------2--5-----|-------------|--------------------0--|



|-------------------|--------------------|-------------------|--------------------|
|-------------------|--------------------|-------------------|--------------------|
|----------------2--|--------------------|----------------2--|--------------------|
|----4--X--X--X--2--|-----2--X--X--X--2--|----4--X--X--X--2--|-----2--X--X--X--2--|
|----4--X--X--X--0--|-----2--X--X--X--2--|----4--X--X--X--0--|-----2--X--X--X--2--|
|----2--X--X--X-----|-----0--X--X--X--0--|----2--X--X--X-----|-----0--X--X--X--0--|



|-------------------|-----------------------|-------------------|
|-------------------|-----------------------|-------------------|
|----------------2--|-----------------------|----------------2--|
|----4--X--X--X--2--|----2--X---X--X--X--2--|----4--X--X--X--2--|
|----4--X--X--X--0--|----2--X---X--X--X--2--|----4--X--X--X--0--|
|----2--X--X--X-----|----0--X---X--X--X--0--|----2--X--X--X-----|



|----------------------------|-------------------|-------------------|
|----------------------------|-------------------|-------------------|
|--/4-b6-r4--2--/4-b6-r4-----|----------------2--|-------------------|
|-------------------------2--|----4--X--X--X--2--|----2--X--X--X--2--|
|-------------------------2--|----4--X--X--X--0--|----2--X--X--X--2--|
|-------------------------0--|----2--X--X--X-----|----0--X--X--X--0--|



|-----------------------|----------------------|----------------------|
|-----------------------|----------------------|----------------------|
|--------------------2--|----------------------|-------------------2--|
|----4--X---X--X--X--2--|----2--X---X--X----2--|----4--X---X--X----2--|
|----4--X---X--X--X--0--|----2--X---X--X----2--|----4--X---X--X----0--|
|----2--X---X--X--X-----|----0--X---X--X----0--|----2--X---X--X-------|



|-----------------------|-----------------------|--------------|
|-----------------------|-----------------------|--------------|
|-----------------------|--------------------2--|---------2----|
|----2--X---X--X--X--2--|----4--X---X--X--X--2--|----2----2----|
|----2--X---X--X--X--2--|----4--X---X--X--X--0--|----2----0----|
|----0--X---X--X--X--0--|----2--X---X--X--X-----|----0---------|


Guitar Solo (starts at 1:52 on the CD)

|----------------|--------------------|-----------------------|
|------------/5--|--------/5------/5--|--5--3--2-----2--------|
|----------------|--------------------|-----------4-----4-b6--|
|----------------|--------------------|-----------------------|
|----------------|--------------------|-----------------------|
|----------------|--------------------|-----------------------|



|-------------------------------------|--------------------------------------|
|-------------------------------------|--------------------------------------|
|-(6)--r4-p-2-----2--4--/4b6--r4-p-2--|--4-p-2-----2---------------------17--|
|--------------4----------------------|---------4-----4--(4)/-----14h16------|
|-------------------------------------|--------------------------------------|
|-------------------------------------|--------------------------------------|



|-------------------------|-------------------------|
|-------------------------|-------------------------|
|--16-~---------------17--|--16-~---------------17--|
|------------14-h-16------|------------14-h-16------|
|-------------------------|-------------------------|
|-------------------------|-------------------------|



|---------------------------------------------|--------------16---------------|
|---------------------------------------------|----------------------7h10--0--|
|--16--14------14--16b18-r16-p-14--16p14------|--14--16--14-------------------|
|----------16-----------------------------16--|-------------------------------|
|---------------------------------------------|-------------------------------|
|---------------------------------------------|-------------------------------|



|--10p7-----10p7-----9p6-----9p6-----|--8p5-----8p5-----7p4-----7p4-----|
|--------0--------0-------0-------0--|-------0-------0-------0-------0--|
|------------------------------------|----------------------------------|
|------------------------------------|----------------------------------|
|------------------------------------|----------------------------------|
|------------------------------------|----------------------------------|



|--22p19--0--22p19--0--21p18--0--21p18--0--|--20p17--0--20p17--0--19p16--0--19p16--0--|
|------------------------------------------|------------------------------------------|
|------------------------------------------|------------------------------------------|
|------------------------------------------|------------------------------------------|
|------------------------------------------|------------------------------------------|
|------------------------------------------|------------------------------------------|



|--17p14---------17p14---------17p14---------17p14---------|
|---------17p14---------17p14---------17p14---------17p14--|
|----------------------------------------------------------|
|----------------------------------------------------------|
|----------------------------------------------------------|
|----------------------------------------------------------|



|--17p14---------17p14---------17p14---------17p14---------|
|---------17p14---------17p14---------17p14---------17p14--|
|----------------------------------------------------------|
|----------------------------------------------------------|
|----------------------------------------------------------|
|----------------------------------------------------------|



|--17p14--17p14---------17p14--17p14---------17p14------|
|----------------17p14----------------17p14---------17--|
|-------------------------------------------------------|
|-------------------------------------------------------|
|-------------------------------------------------------|
|-------------------------------------------------------|



|--14--------------------------------------|-----------------------------------------|
|-----14--17--17b19--(19)-r17-p-14---------|---------------------------------17-b21--|
|----------------------------------16--14--|--16-b18-r16-p-14----14--16--14----------|
|------------------------------------------|------------------16---------------------|
|------------------------------------------|-----------------------------------------|
|------------------------------------------|-----------------------------------------|


         T
|------------------------------|--------------------|-------------------14--|
|--(21)--24--------------------|--16------14--------|---------------14--14--|
|------------16--14--------14--|--16------14--------|----------/16----------|
|--------------------16--------|--16------14----16--|----14-----------------|
|------------------------------|--------------------|-----------------------|
|------------------------------|--------------------|-----------------------|


|--(14)-\--------------|
|--(14)-\--------------|
|----------------------|
|----------------------|
|----------------------|
|----------------------|

3.Sabbra Cadabra

Intro

D|-----------||----------------------------|-------------------------|
A|-----------||-o--------------------------|-------------------------|
F|---------7-||--------------------------7-|-------------------------|
C|-----------||-o--9--9---9-~-~------------|-9--9---9-~-~----------7-|
G|-7--8h9----||------------------7--8h9----|---------------7--8h9----|
D|-----------||----------------------------|-------------------------|
 
                             _______________________________
			    |1.				    |
|---------------------------|-------------------------------||
|---------------------------|-----------------------------o-||
|---------------------------|--------------------------7----||
|-------------------------7-|-----------------------------o-||
|-7br-5------------7--8h9---|-7br-5------------7--8h9-------||
|--------7--7-~-~-----------|--------7--7-~-~---------------||

 ___________________________
|2.		             Riff A
|---------------------------|------------------------|
|---------------------------|------------------------|
|-------------------------7-|----------------------7-|
|---------------------------|-9--9---9-~-~-----------|
|-7br-5------------7-8h9----|---------------7-8h9----|
|--------7--7-~-~-----------|------------------------|


|------------------------|---------------------------|---------------------------|
|------------------------|---------------------------|---------------------------|
|------------------------|---------------------------|-------------------------7-|
|-9--9---9-~-~---------7-|-------------------------7-|---------------------------|
|---------------7-8h9----|-7br-5------------7-8h9----|-7br-5------------7-8h9----|
|------------------------|--------7--7-~-~-----------|--------7--7-~-~-----------|


								      (end Riff A)
|------------------------|---------------------------|---------------------------|
|------------------------|---------------------------|---------------------------|
|------------------------|---------------------------|-------------------------7-|
|-9--9---9-~-~---------7-|-------------------------7-|---------------------------|
|---------------7-8h9----|-7br-5------------7-8h9----|-7br-5------------7-8h9----|
|------------------------|--------7--7-~-~-----------|--------7--7-~-~-----------|



  w/wah
|-----------------------------|---------------------|-------------------------|
|-----------------------------|---------------------|-------------------------|
|-----------------------------|---------------------|-------------------------|
|-----------------------------|---------------------|-------------------------|
|-7br-5---------------5-----5-|-7-~-~-~-~-7--7--7br-|(7)----5--7--5--7--5---7/|
|--------7--7-~-~--7-----7----|---------------------|-------------------------|
|
|
|-----------------------------|---------------------|-------------------------|
|-----------------------------|---------------------|-------------------------|
|-----------------------------|---------------------|-------------------------|
|-----------------------------|--------------9------|----------------11----11/|
|-7br-5------------5---7---5--|---------9-----------|----------11-------------|
|--------7--7-~-~-------------|-7----7---------7--7/|9------9-----------9---9/|




|--------------------------|----------------------------|---------------------|
|--------------------------|----7b----------------------|---------------------|
|----7---------------------|----7b----------------------|---------------------|
|-------9--9-~-~-~--9---7--|-9----------9--7--(7)\------|---------------------|
|/9------------------------|-------------------------7/-|-9--7\5--7--5--7---9\|
|--------------------------|----------------------------|---------------------|
|
|
|--------------------------|----------------------------|---------------------|
|--------------------------|----------------------------|---------------------|
|--------------------------|----------------------------|---------------------|
|/12------------12---------|----14------14----14---(14)\|-------9-----9-----9/|
|---------12---------------|------------14----14---(14)\|-------9-------------|
|/10--10------------10--10/|12------12--12----12---(12)\|-7--7-----------7--7/|



|---------------------------------|-------------------10---------|
|---------------------------------|-----------------------12--12-|
|---------------------------------|----7-------4/11--------------|
|---------------------------------|--------9\--------------------|
|-\7--------7---5---7---5-~-~--7/|9-----------------------------|
|---------------------------------|------------------------------|
|
|
|---------------------------------|------------------------------|
|---------------------------------|------------------------------|
|---------------------------------|------------------------------|
|-/11----11--------11-------------|-------------12----12---------|
|------------------11----------11/|12-----------12---------------|
|--/9----------9------------9---9/|10------10-------------10--10-|


                    wah off Riff B
|--------------------------|----------------------|----------------------|
|-12p10--------------------|-10--12----12-~-~-~-~-|-10--12----12-~-~-~-~-|
|--------11--9--7b---------|----------------------|----------------------|
|-----------------------9\-|----------------------|----------------------|
|--------------------------|----------------------|----------------------|
|--------------------------|----------------------|----------------------|
|
|                           Rhy.Fig.1
|--------------------------|----------------------|----------------------|
|--------------------------|----------------------|----------------------|
|--------------------------|----------------------|----------------------|
|------14----14-/16\14--14\|----------------------|----------------------|
|------------14-/16\14--14\|-7--9----9----9--9--9-|-7--9----9----9--9--9-|
|-/12----------------------|-7--7----7----7--7--7-|-7--7----7----7--7--7-|



|-----------------------|---------------------------|
|------------...--------|---.-----------------------|
|-11b-11b-11b---r(11)p9-|-9b-r(9)p7-----------------|
|-----------------------|-----------9--9-~-~-~-(9)/-|
|-----------------------|---------------------------|
|-----------------------|---------------------------|
|                                        (end Riff B)
|                                     (end Rhy.Fig.1)
|-----------------------|---------------------------|
|-----------------------|---------------------------|
|-----------------------|---------------------------|
|-----------------------|---------------------------|
|-7---6---7---6---4---2-|-7---9-----9-----9---7---7-|
|-5---4---5---4---2---0-|-7---7-----7-----7---7---7-|
PM*********



1st, 2nd, and 3rd Verses
%
|----------------------|----------------------|----------------------|
|----------------------|----------------------|----------------------|
|----------------------|----------------------|----------------------|
|----------------------|----------------------|----------------------|
|-7--9----9----9--9--9-|-7--9----9----9--9--9-|-7--7----7----7--7--7-|
|-7--7----7----7--7--7-|-7--7----7----7--7--7-|-5--5----5----5--5--5-|
1.  Feel so good    I    feel so   fine      Love that little lady always
2.3.Feel so happy sinceI met that   girl     when we're makin love it's something
 

|----------------------|----------------------|----------------------|
|----------------------|----------------------|----------------------|
|----------------------|----------------------|----------------------|
|----------------------|----------------------|----------------------|
|-9--9----9----9--7--7-|-7--9----9----9--9--9-|-7--9----9----9--9--9-|
|-7--7----7----7--7--7-|-7--7----7----7--7--7-|-7--7----7----7--7--7-|
1.  on my mind          She gives me lovin ev'ry night and day
2.3.out of this world.  Feels so good to know that she's all mine


|----------------------|----------------------||------------0---------|
|----------------------|----------------------||------------0---------|
|----------------------|----------------------||----------------------|
|----------------------|----------------------||-2----------2---------|
|-7--7----7----7--7--7-|-9--9----9----9--9\---||-2----------2---------|
|-5--5----5----5--5--5-|-7--7----7----7--7\---||-0----------0---------|
1.  Never gonna leave her never going away
2.3.Gonna love that woman till the end of time


|------------------------|-----------2---------|----------------------|
|------------------------|-----------2---------|----------------------|
|------------------------|---------------------|----------------------|
|---------------2----2---|-4---------4---------|-4----4----4----------|
|---------------2----2---|-4---------4---------|-4----4----4----------|
|---------------0----0---|-2---------2---------|-2----2----2----14\---|
1.  Someone to love me                     you know she makes me feel alright
2.3.Someone to live for                       love me till the end of time



|----------------------|----------------------|-----------------------|
|-10--12----12---------|-10--12----12---------|------------...--------|
|----------------------|----------------------|-11b-11b-11b---r(11)p9-|
|----------------------|----------------------|-----------------------|
|----------------------|----------------------|-----------------------|
|----------------------|----------------------|-----------------------|
|
|
|----------------------|----------------------|-----------------------|
|----------------------|----------------------|-----------------------|
|----------------------|----------------------|-----------------------|
|----------------------|----------------------|-----------------------|
|-7--9----9----9--9--9-|-7--9----9----9--9--9-|-7---6---7---6---4---2-|
|-7--7----7----7--7--7-|-7--7----7----7--7--7-|-5---4---5---4---2---0-|
                                             PM *********
1.                                      yeah                     Alright
2.3.                                    yeah




|---------------------------|---------------0----------|
|---...---------------------|---------------0----------|
|-9b---r(9)p7---------------|--------------------------|
|-------------9--9-~-~-(9)\-|--------------------------|
|---------------------------|--------------------------|
|---------------------------|-0------------------------|
|
|
|----------------------------|---------------0----------|
|----------------------------|---------------0----------|
|----------------------------|--------------------------|
|----------------------------|-2-------------2----------|
|-7---9------9-----9---------|-2-------------2----------|
|-7---7------7-----7----10\--|-0-------------0----------|
1.
2.3.Hey,   hey,     hey,      yeah.                  She

                                                   _________________________________
                                3rd time to Coda @|1.
|----------------------------|--------------------|---------------------------------|
|----------------------------|--------------------|---------------------------------|
|-9---9---7---9-----9---(9)\-|--------------------|-/11--11--11--11--14--16---(16)\-|
|----------------------------|-4--------4---------|---------------------------------|
|-7---7---5---7-----7---(7)\-|-4--------4---------|--/9---9---9---9--12--14---(14)\-|
|----------------------------|-2--------2---------|---------------------------------|
1.Someone who needs me                             love me every single night
2.3.makes me feel happy                       It's


 ___________________________________________________________________________
 w/Riff B
 w/Rhy.Fig.1 (2 times)
|---------------------|--------------------|------------|-------------------|
|-14--15----15-~-~-~--|-14--15----15-~-~-~-|------------|-17brp15-----------|
|---------------------|--------------------|------------|---------16-16-~-~-|
|---------------------|--------------------|------------|-------------------|
|---------------------|--------------------|------------|-------------------|
|---------------------|--------------------|------------|-------------------|
                                       yeah


 ___________________________________________________________________________________
        ~~~~                                ~~~~~                           ~~~~~   |
|-----------------------------|-------------------|----------|----------------------||
|-14--15----15----15-15p14----|-14--15----15------|----------|-17brp15------------o-||
|--------------------------16-|-------------------|----------|---------16-16-----\--||
|-----------------------------|-------------------|----------|--------------------o-||
|-----------------------------|-------------------|----------|----------------------||
|-----------------------------|-------------------|----------|----------------------||

 _______________________________  Interlude
|2.                               Riff C
|-------------------------------||---------------|-----------------------|
|-------------------------------||-----------3p0-|----------3p0----------|
|-/11--11---9---9---7---9--(9)\-||---------------|-4-----4---------------|
|-------------------------------||-4----4--------|----4------------------|
|--/9---9---7---7---5---7--(7)\-||-2-------------|------------------0--1-|
|-------------------------------||---------------|---------------2-------|


 w/Riff C (9 times)
|-----------------||---------------|--------------|------------|
|-----------------||-o-------------|--------------|------------|
|-----------------||----4---2------|--------------|-4---2------|
|-----------------||-o----------4--|---2----------|---------4--|
|-----------------||---------------|-------5---4--|------------|
|-----------------||---------------|--------------|------------|


                                 ___________________________________________
                                |1.                                         |
|---------------|---------------|--------------|--------------|-------------||
|---------------|---------------|---------3p2--|--------------|-----------o-||
|---------------|---------------|-----2p1------|--4-----------|-------------||
|----2----------|---------------|--------------|--------------|-----------o-||
|--------5---4--|--2------------|--------------|--------------|-------------||
|---------------|---------------|--------------|--------------|-------------||


 _________________
|2.
|-----------------|---------|------------|------------|-------------|
|----12p10--------|---------|------------|------------|-------------|
|----------11-9-7-|---------|------------|------------|------7---6--|
|-----------------|-9-~-~-~-|-~-~-~-(9)\-|-4--2-------|------5---4--|
|-----------------|---------|------------|-2--0----4--|--2----------|
|-----------------|---------|------------|---------2--|--0----------|


                      Riff D                                             (end Riff D)
                                 ~~~             ~~~                         trill
|---------|---------||------------------------------|--------------------------------||
|---------|---------||-o----------------------------|------------------------------o-||
|---------|---------||------------------------------|--------------------------------||
|--4---2--|---------||-o----------------------3-2---|-----------5br-------2h3-2(3)-o-||
|--2---0--|--4---2--||-----3h5-5-5---5-3h5-3h5------|-3h5-5-5-5-----3----------------||
|---------|--2---0--||------------------------------|-------------------5------------||


 w/Riff D
              ~~~                                  ~~~         trill
||-------------------------------|-----------------------------------||
||-o-----------------------------|---------------------------------o-||
||-------------------------------|-----------------------------------||
||-o------------------------7\5--|------------7br------------------o-||
||---/7h8-8--8----8-7h8-7h8------|-/7h8-8-8-8-----7------7h8--7(8)---||
||-------------------------------|---------------------8-------------||


 Rhy.Fig.2				        (end Rhy.Fig.2)
|---------------------------|-------------------------------|
|---------------------------|-------------------------------|
|---------------------------|-------------------------------|
|--7----7--7---10----10--10-|-------------------------------|
|--5----5--5----8-----8---8-|-10----10--10---12----12---12--|
|---------------------------|--8-----8---8---10----10---10--|
 I am the world that hides the universal secret of all time


 repeat Riff D
 2 measures

 w/Rhy.Fig.2
Destruction of the empty spaces
is my one and only crime

 repeat Riff D
 2 measures

 Rhy.Fig.3                                (end Rhy.Fig.3) w/Riff D
|----------------------------|---------------------------|---------------|
|----------------------------|---------------------------|---------------|
|----------------------------|---------------------------|---------------|
|----------------------------|---------------------------|---------------|
|--8-----8--8---7-----7---7--|-3-----3--3---5-----5---5--|---------------|
|--6-----6--6---5-----5---5--|-1-----1--1---3-----3---3--|---------------|





w/Rhy.Fig.3
The thoughts and images
the unborn child that never was conceived.


 Riff E (2 guitars; 1 w/wah and slight adlib)
|-------------------------------|---------------------------------|
|-------------------------------|-------10\----------------10b----|
|-------------------------------|-------10\----------------10b----|
|--------------------3b---------|-------10\-----------------------|
|-3--5-------3h5-3h5----5--3----|-3--5--------------------------0-|
|---------5-------------------5-|------------/10--10-10-10--------|
                                               PM ********
                                   You  gotta   believe    me

 w/Riff E
Hey!  I'm talkin to you
Well, I know it's hard for you to know the reason why
And I know you'll understand more when it's time to die
I don't believe the life you have will be the only one
You have to let your body sleep to let your soul live on.  Ha ha



        ~~~~ ~~~~        ~~~~ ~~~~~     ~~~~~ ~~~~ 
|----------------------------------|---------------------------------|
|----------------------------------|---------------------------------|
|----------------------------------|---------------------------------|
|----------------------------------|---------------------------------|
|-3h5--5----3----3-----------------|-3/5-----3----3------------------|
|------------------3br(3)----1-----|-----------------3--3br---1----0-|


|----------------------------|-------------------------------------------------||
|----------------------------|-------------------------------------------------||
|----------------------------|-----------------------------------------------7-||
|----------------------------|-------------------------------------------------||
|-3/5--5--5/7--7--7br---5--7-|-5/7---7--7--7--7--7--7--7--7--7--7--7---7h8h9---||
|----------------------------|-------5--5--5--5--5--5--5--5--5--5--5-----------||
                                  PM *******************************


repeat Riff A
                    to Coda%
-|-------------------------||
-|-------------------------||
-|-------------------------||
-|-------------------------||
-|-9\7--5-----7/9--7-------||
-|---------7--7--------10\-||
      Woah!



Coda @

|------------------------------------|
|------------------------------------|
|-/11--11--11--11---14---16----(16)\-|
|------------------------------------|
|--/9---9---9---9---12---14----------|
|------------------------------------|
good to know that she's all mine


 w/Rhy.Fig.1 (2 times)
She's all mine, yeah
Yo, woah, yeah yeah


|-------------------------------------|-----------------------|
|-10--12-----12-~-~-~--12---12p10-----|-10--12-----12-------0-|
|----------------------------------11-|-----------------------|
|-------------------------------------|-----------------------|
|-------------------------------------|-----------------------|
|-------------------------------------|-----------------------|


|-------------------------------|-----------------------|-------------||
|--------------...--------------|-----------------------|-------------||
|-11b--11b--11b---r(11)p9\7--9--|--9brp7----------------|-------------||
|-------------------------------|---------9---9------9--|-------------||
|-------------------------------|-----------------------|-------------||
|-------------------------------|-----------------7-----|-------------||

4.Turn The Page

1a) James
 eb--0--0-0-0-0-0-0-0-------------0--0-0-0-0-0-0-0
 Bb--0--0-0-0-0-0-0-0-------------0--0-0-0-0-0-0-0
 Gb--0--0-0-0-0-0-0-0-------------0--0-0-0-0-0-0-0
 Db--2--------2------------2------2--------2------
 Ab--2--------------------------------------------
 Eb--0-----------------0-3----0-------------------
 intro (strummed chords mostly repeated on the higher strings))

 1b) Kirk
 eb--/15-14~~------------------------
 Bb----------15-15~---12~------------
 Gb----------------14----12-11~~-----
 Db-----------------------------12-14
 Ab----------------------------------
 Eb----------------------------------


 2a) James
    Emin Dmaj Amaj Emin
 eb--0----2----0-----0
 Bb--0----3----2-----0
 Gb--0----2----2-----0
 Db--2----0----2-----2
 Ab--2---------0-----2
 Eb--0---------------0
 clean verse (strummed chords)
 "On a long and lonely highway"

 2b) Kirk
 eb------------------------------------
 Bb------------------------------------
 Gb------------------/12-11------------
 Db--14-12~~~5-7~~~~~-------12-12~~~7-9
 Ab------------------------------------
 Eb------------------------------------


 3)
 eb--0-----------0---------------------------------------
 Bb--0-----------0----7--7--7-8-8-7----2--2--2-3-3-2--2--
 Gb--0-----------0--9-7--7--7-7-7-7--7-2--2--2-2-2-2--2--
 Db--2--2--2-2-2-2--9-7--7--7-7-7-7--7-2--2--2-2-2-2--2-2
 Ab--2--2--2-2-2-2--7-5--5--5-5-5-5--5-0--0--0-0-0-0--0-2
 Eb--0--0--0-0-0-0--0-----------------------------------0
 Crunch verse
 The heavy chords have quite a bit of decoration (4ths especially).
 but the basic chord progression is the same as the clean verse
 There is the little fill from riff 1) in one of the verses too.


 4a)
 Gb--7---7--7-7--7-7-------------------
 Db--7---7--7-7--7-7----2---2--2-2--2-2
 Ab--5---5--5-5--5-5----2---2--2-2--2-2
 Eb---------------------0---0--0-0--0-0
 distorted
 but here I am,     on the road again 

 4b)
 Gb--7---7--7-7--7-7----2---2--2-2--2-2
 Db--7---7--7-7--7-7----2---2--2-2--2-2
 Ab--5---5--5-5--5-5----0---0--0-0--0-0
 Eb------------------------------------
 here I go,         playing the star again

 4c)
 Gb--5-5-5/7-7-7----
 Db--5-5-5/7-7-7---2
 Ab--3-3-3/5-5-5---2
 Eb----------------0
 there I go,  turn the page


 5)  ^V
 eb---------------         ------------------------
 Bb--7~~----------         -5--5--7--5--7--10--7--9
 Gb--7~~---------- 3 times -5--5--7--5--7--10--7--9
 Db-------------9-         -5--5--7--5--7--10--7--9
 Ab---------5---7-         ------------------------
 Eb-----5-7---7---         ------------------------
       pm....
 with wah
 ...what she said

5.Die,Die My Darling

REFRAIN 1
||-------------|------------|----------------|------------------||
||-------------|------------|----------------|------------------||
||o-4--4--4--4-|-4--4--4--4-|----------------|-----------------o|| x3
||o-4--4--4--4-|-4--4--4--4-|-5--5-5-5-5-5-5-|-4-4-4-4-4-4-4-4-o||
||--2--2--2--2-|-2--2--2--2-|-5--5-5-5-5-5-5-|-4-4-4-4-4-4-4-4--||
||-------------|------------|-3--3-3-3-3-3-3-|-2-2-2-2-2-2-2-2--||
 Die, die, die my darling
 Don't utter a single word
 Die, die, die my darling
 Just shut your pretty eyes 
|-0-------|---------|-----------------|-----------------|
|-0-------|---------|-----------------|-----------------|
|-0-------|---------|-4-4-4-4-4-4-4-4-|-4-4-4/6-6\4-4-4-|
|-2-------|---------|-4-4-4-4-4-4-4-4-|-x-x-x/x-x\x-x-x-|
|-2-------|---------|-2-2-2-2-2-2-2-2-|-2-2-2/4-4\2-2-2-|
|-0-------|---------|-----------------|-----------------|
 I'll be seeing you again 
             pm-------------|
|----0-----|-----------------|---------|
|----0-----|-----------------|---------|
|----------|-----------------|---------|
|-2--------|-----------------|---------|
|-2--------|-5-5-5-5-5-5-5-5-|-5-------|
|-0--------|-3-3-3-3-3-3-3-3-|-3-------|
 I'll be seeing you in Hell 

 VERSE 1
  pm------------------ -- - -  -  -|
|-----------------|-----------------|----------------|-----------------|
|-----------------|-----------------|----------------|-----------------|
|-4-4-4-4-4-4-4-4-|-4-4-4-4-4-4-4-4-|----------------|-7-7-7-7-6-6-6-6-|
|-4-4-4-4-4-4-4-4-|-4-4-4-4-4-4-4-4-|-5--5-5-5-5-5-5-|-7-7-7-7-6-6-6-6-|
|-2-2-2-2-2-2-2-2-|-2-2-2-2-2-2-2-2-|-5--5-5-5-5-5-5-|-5-5-5-5-4-4-4-4-|
|-----------------|-----------------|-3--3-3-3-3-3-3-|-----------------|
                                      Don't cry to me oh baby
     pm-------------- -- - -  -  -|
||-----------------|-----------------|----------------|------------------||
||-----------------|-----------------|----------------|------------------||
||o-4--4-4-4-4-4-4-|-4-4-4-4-4-4-4-4-|----------------|-7-7-7-7-6-6-6-6-o|| x5
||o-4--4-4-4-4-4-4-|-4-4-4-4-4-4-4-4-|-5--5-5-5-5-5-5-|-7-7-7-7-6-6-6-6-o||
||--2--2-2-2-2-2-2-|-2-2-2-2-2-2-2-2-|-5--5-5-5-5-5-5-|-5-5-5-5-4-4-4-4--|| 
||-----------------|-----------------|-3--3-3-3-3-3-3-|------------------||
 Your future's in an oblong box
 Don't cry to me oh baby
 Should have seen it a-coming on
 Don't cry to me oh baby 
 I don't know it was in your power
 Don't cry to me oh baby
 Dead-end girl for a dead-end guy
 Don't cry to me oh baby
 And now your life drains on that floor
 Don't cry to me oh baby 

 REFRAIN 2
||-------------|------------|----------------|------------------||
||-------------|------------|----------------|------------------||
||o-4--4--4--4-|-4--4--4--4-|----------------|-----------------o|| 
||o-4--4--4--4-|-4--4--4--4-|-5--5-5-5-5-5-5-|-4-4-4-4-4-4-4-4-o||
||--2--2--2--2-|-2--2--2--2-|-5--5-5-5-5-5-5-|-4-4-4-4-4-4-4-4--||
||-------------|------------|-3--3-3-3-3-3-3-|-2-2-2-2-2-2-2-2--||
 Die, die, die my darling
 Don't utter a single word
 Die, die, die my darling
 Just shut your pretty mouth
|-0-------|---------|-----------------|---------------|
|-0-------|---------|-----------------|---------------|
|-0-------|---------|-4-4-4-4-4-4-4-4-|-4-/6-6-/7-7\x-|
|-2-------|---------|-4-4-4-4-4-4-4-4-|-x-/x-x-/x-x---|
|-2-------|---------|-2-2-2-2-2-2-2-2-|-2-/4-4-/5-5\x-|
|-0-------|---------|-----------------|---------------|
  I'll be seeing you again
             pm-------------------------------|
|----0-----|-----------------|-----------------|
|----0-----|-----------------|-----------------|
|----------|-----------------|-----------------|
|-2--------|-----------------|-----------------|
|-2--------|-5-5-5-5-5-5-5-5-|-5-5-5-5-5-5-5-5-|
|-0--------|-3-3-3-3-3-3-3-3-|-3-3-3-3-3-3-3-3-|
 I'll be seeing you in Hell 
 

 VERSE 2 

 REFRAIN 3
||-------------|------------|----------------|------------------||
||-------------|------------|----------------|------------------||
||o-4--4--4--4-|-4--4--4--4-|----------------|-----------------o|| 
||o-4--4--4--4-|-4--4--4--4-|-5--5-5-5-5-5-5-|-4-4-4-4-4-4-4-4-o||
||--2--2--2--2-|-2--2--2--2-|-5--5-5-5-5-5-5-|-4-4-4-4-4-4-4-4--||
||-------------|------------|-3--3-3-3-3-3-3-|-2-2-2-2-2-2-2-2--||
 Die, die, die my darling
 Don't utter a single word
 Die, die, die my darling
 Just shut your pretty eyes 
|-0-------|---------|-----------------|----------------|
|-0-------|---------|-----------------|----------------|
|-0-------|---------|-4-4-4-4-4-4-4-4-|-4-/6-6/7-7/9-9-|
|-2-------|---------|-4-4-4-4-4-4-4-4-|-x-/x-x/x-x/x-x-|
|-2-------|---------|-2-2-2-2-2-2-2-2-|-2-/4-4/5-5/7-7-|
|-0-------|---------|-----------------|----------------|
  I'll be seeing you again
             pm-------------|
|----0-----|-----------------|---------|
|----0-----|-----------------|---------|
|----------|-----------------|---------|
|-2--------|-----------------|---------|
|-2--------|-5-5-5-5-5-5-5-5-|-5-------|
|-0--------|-3-3-3-3-3-3-3-3-|-3-------|
 I'll be seeing you in Hell 
|------------|------------|------------|---------|--------|
|------------|------------|------------|---------|--------|
|-4--4--4--4-|-4--4--4--4-|-4--4--4--4-|-4-------|--------| 
|-4--4--4--4-|-4--4--4--4-|-4--4--4--4-|-4-------|--------|
|-2--2--2--2-|-2--2--2--2-|-2--2--2--2-|-2-------|--------|
|------------|------------|------------|---------|--------|

6.Loverman

INTRO/VERSE RIFF: - Clean with reverb and/or delay.
-----------------
      Cm  Fm  Gm
eb|---3---1---3---|
Bb|---4---1---3---|
Gb|---5---1---3---|
Db|---5---3---5---|
Ab|---------------|
Eb|---------------|


CHORUS: - Distorted with wah-wah.
-------
     C5  F5  G5
eb|--------------|
Bb|--------------|
Gb|--5---10--12--|
Db|--5---10--12--|
Ab|--3---8---10--|
Eb|--------------|


BRIDGE: - Clean with reverb and/or delay.
-------

eb|--3----------1-3--1--3h4p3-1---------------1-3--1--|
Bb|-------1-3-4-----------------4-3-1---1-3-4---------|
Gb|-----------------------------------3---------------|
Db|---------------------------------------------------|
Ab|---------------------------------------------------|
Eb|---------------------------------------------------|

7.Mercyful Fate

riff 1 
(0:00)                                    

start only                                    1st ending      2nd ending
    |-----|----------------------------------|---------------|--------------------------
    |-----|----------------------------------|---------------|--------------------------
    |-----|----------------------------------|---------------|--------------------------
    |-----|-------4p0---------4p0---------4p0|----------0h5--|--4---2-------------------
    |-----|----------------------------------|------0h2------|--2---0-------------------
    |-15\-|--0--2------2p0--2------2p0--2----|--0h2----------|--------------------------

riff 1a (solo) �played over riff 1-
(0:04)
|-14--14---14--14-----14-----------|-14------------------------------------|
|-17b-17b--17b-17b-------17p14-17b-|----17p14-----14-16p14-----------------|
|----------------------------------|----------16b----------16p14----14-16b-|
|----------------------------------|-----------------------------16--------|
|----------------------------------|---------------------------------------|
|----------------------------------|---------------------------------------|

|------------------------------|-------------------------------|
|-----------14--16--16br--16br-|-16br--------------------------|
|-16p14-----14--16--16br--16br-|-16br--14---------------14--16-|
|-------16---------------------|----------16-~-~-~--16---------|
|------------------------------|-------------------------------|
|------------------------------|-------------------------------|

|--------------------------------------|------------------------------||-------|
|-----.-.-.-.-.-.-.-.-.-.-.-.-.-.-.-.-.|.-.-.-.-.-.-.-.---------------||-------|
|--16b---16-16---16-16---16-16---16-16-|-16-16-16-16-16r14------------||-------|
|--------------------------------------|--------------------16-~-~-~--||-(16)\-|
|--------------------------------------|------------------------------||-------|
|--------------------------------------|------------------------------||-------|

riff 1 (0:14) �They�re walking by the night...�

riff 2
(0.28)
|----------------------------------------------------------------------------------
|----------------------------------------------------------------------------------
|----------------------------------------------------------------------------------
|--4----4-------5------------------------------------------------------------------
|--2----2-------3-------5--5--5--5--5---5--4---------------------------------------
|-----------------------3--3--3--3--3---3--2---------------------------------------
  "Bringing the blood    of a newborn child...."

riff 1 (0:31) �yeaahh...�

riff 2 (0:36) �got to succeed...�


CURSE OF THE PHARAOHS

riff 1 
(0:44)
|-----------------------------
|-----------------------------
|--2-------5-----2-----5---7-7~
|--2-------5-----2-----5---7-7~
|--0-0-0-0---0-0-0-0-0---0-----
|------------------------------

|-----------------------------
|-----------------------------
|--2-------5-----2-----5---5-4
|--2-------5-----2-----5---5-4
|--0-0-0-0---0-0---0-0---0----
|-----------------------------

|--------------------------------------------------------------
|--------------------------------------------------------------
|--2p0-2p0-5-2---2-----5---7-7~7p5---2-------5-------0-----0----
|--2p0-2p0-5-2---2-----5---7-7~7p5---2-------5-----2-----0------
|--0-0-0-0---0-0-0-0-0---0---------7-0-0-0-0---0-3-----2-------2
|------------------------------------------------------------3--

Riff 2 
(0:57)
|-------------------------------------
|-------------------------------------
|------7-5-2-----2-----4-5h7p5h7p5h7p5
|------7-5-2-----2-----4--------------
|--0-0-----0-0-0-0-0-0----------------
|-------------------------------------
   pm..       ...   ...

Riff 3 
(1:01)
|-------------------------------------
|------------------------5h6p5h6p5h6p5
|------7-5-2-----2-----4--------------
|------7-5-2-----2-----4--------------
|--0-0-----0-0-0-0-0-0----------------
|-------------------------------------
   pm..       ...   ...

riff 2 (1:04)

riff 3 (1:08)

riff 4
(1:11)
|----------------------------------------------------------------------------------
|----------------------------------------------------------------------------------
|----------------------------------------------------------------------------------
|----------------------------------------------------------------------------------
|--2--4-4-4--4-4-4--4-4-4--4-4-4--4-4-4--4-4-4-2-5-7-------------------------------
|--0--2-2-2--2-2-2--2-2-2--2-2-2--2-2-2--2-2-2-0-3-5-------------------------------

riff 4a �solo over riff 4-
(0:15)
|---------------------------|-------------------------------|
|---------------------------|--------------.-.-.-.----------|
|---------------------------|--------2--4b-------rp2--------|
|---------------------------|-2--4--------------------4-~-~-|
|--------------------2--4---|-------------------------------|
|-----3-------2--5----------|-------------------------------|

|-------------|------------|---19br(19)p17--19br(19)p17--19br(19)p17-|
|-------------|------------|-----------------------------------------|
|-------------|------------|-----------------------------------------|
|-------(4)\--|------------|-----------------------------------------|
|-------------|------------|-----------------------------------------|
|-------------|------------|-----------------------------------------|

|-19b--19--19--19--19-(19)p17---------|-------------------|-------------------|
|------------------------------19-----|------(19)\--------|-------------------|
|-------------------------------------|-------------------|-------------------|
|-------------------------------------|-------------------|-------------------|
|-------------------------------------|-------------------|-------------------|
|-------------------------------------|-------------------|-------------------|

riff 4 (1:25) �way out over Egypt...�

riff 4b �solo over riff 4-
(1:29)
   AH               AH                AH                 AH
|----------------------------------|------------------------|
|----.-.-.------------.-.-.--------|------------------------|
|--4b----(4)p2--4---4b----(4)p2----|--2---2-----------------|
|--------------------------------4-|---------4p2-----2---4--|
|----------------------------------|--------------4---------|
|----------------------------------|------------------------|

riff 4 (1:32) �where the mummified pharaohs...�

riff 5
(1:39)
|----------------------------------------------------------------------------------
|----------------------------------------------------------------------------------
|----------------------------------------------------------------------------------
|----------------------------------------------------------------------------------
|--6--------------7--------------2--5--7--9-9-9-9-9-9-9--11------------------------
|--4-4-4-4-4-4-4--5-5-5-5-5-5-5--0--3--5--7-7-7-7-7-7-7--9-9-9-9-9-9-9-9-----------
     * * * * * *    * * * * * *             * * * * * *    * * * * * * *

riff 6
(1:46)
|---------------------------------------------------
|---------------------------------------------------
|---------------------------------------------------
|--------2---5-4-------2-----------2---7-6---------2
|--4-2-4-0-4-3-2-3-2-0-0-2---4-2-4-0-4-5-4-5-4-2-2-0
|--2-0-2---2-------------0---2-0-2---2-----------0--

riff 7
(2:03)
|----------------------------------------------------------------------------------
|----------------------------------------------------------------------------------
|----------------------------------------------------------------------------------
|----------------------------2------------4--2-------------------------------------
|--2--4---------4--5---------0--4---------2--0-------------------------------------
|--0--2--x-x-x--2--3--x-x-x-----2--x-x-x-------------------------------------------

riff 8  -solo backing-
(2:18)
|----------------------------------|----------------------------------|
|----------------------------------|----------------------------------|
|----------------------------------|----------------------4---4---4---|
|----------------------------------|-6--6--6--6--6--6-----4---4---4---|
|-4-4-4-4-4-4-4-4-4-4-4-4-4-4-4-4--|-4--4--4--4--4--4--0--2---2---2---|
|----------------------------------|----------------------------------|
PM*******************************

riff 8a �solo played over riff 8-
(2:18)
|----------------------------------|--------9-------------|-----------------------------|
|----------------------------------|-9--------12p9----9---|---------------9b------------|
|-------------------9h10-----------|-9--11b--------11---9-|---------------9b------------|
|-11p9-11--11-11-11------11--11-11-|----------------------|-/11--11-11-11----11-11-11-11|
|----------------------------------|----------------------|-----------------------------|
|----------------------------------|----------------------|-----------------------------|

|--------------------------------------|--------------------------------|
|-----11--------11p9-------------------|--------------9-------------9---|
|-11--11--9-11--11p9----9-~-~-9--10-10-|-11p9----9--9----11p9----9----9-|
|--------------------11----------------|------11--------------11--------|
|--------------------------------------|--------------------------------|
|--------------------------------------|--------------------------------|

|-----------------9---------------------------|---------------------------|
|---------------9---12p9---------------14(17)-|-------------------(14)h17-|
|-11p9----9-11b----------11p9----9b-----------|---------------------------|
|------11---------------------11----11--------|---------------------------|
|---------------------------------------------|---------------------------|
|---------------------------------------------|---------------------------|

|-------------.-.-.-.-.------|-----------------------------------|
|--------(17)b---------r--16-|-----------------------------------|
|-------------------------16-|---------------h16p14h16p14h16-----|
|-------------------------16-|-----------------------------------|
|----------------------------|-----------------------------------|
|----------------------------|-----------------------------------|

. . . . . . . . . ~~~~. . . . . . . . . . . . . . . . . . . . . .     sl.
|----------------------------|-17-17-17-17-17---17----------------|-17\\\14-|
|----------------------15-15-|-15-15-15-15-15---17-17-17-17-17-17-|-17\\\14-|
|-14h16p14---14-14-----------|------------------------------------|---------|
|----------------------------|------------------------------------|---------|
|----------------------------|------------------------------------|---------|
|----------------------------|------------------------------------|---------|

  tr~~~~~ . . . . . . . . . . . . . . . . .     sl.
|-------------------|---------------------|-------------------------|
|-14-(17)-----------|---------------------|-------------------------|
|-----------14-14p0-|---11----------11----|-(11)\-------------------|
|-------------------|---------------------|-------------------------|
|-------------------|---------------------|-------------------------|
|-------------------|---------------------|-------------------------|

riff 9
(2:47)
|------------------------------------------------------------------------------
|------------------------------------------------------------------------------
|--2------------4-------------5------------4-----------------------------------
|--0--4---------2--4----------3--4---------2--4--------------------------------
|-----2------------2-------------2------------2--------------------------------
|--------x-x-x--------x-x-x---------x-x-x--------x-x-x-------------------------

riff 10
(2:55)
|------------------------------------------------------------------------------
|------------------------------------------------------------------------------
|------------------------------------------------------------------------------
|--2------------4------------5------------4------------------------------------
|--0--4---------2--4---------3--4---------2--4---------------------------------
|-----2--x-x-x-----2--x-x-x-----2--x-x-x-----2---------------------------------

riff 11
(3:02)
|--------------|------/---\-------|-----------------------------|
|--------------|------------------|-----------------------------|
|-9------------|-7----------------|-----------------------------|
|-9------------|-7----7-6-5-------|-4--4-4-4--4-4-4--4-4-4--4-4-|
|-7------------|-5----5-4-3-------|-0--2-2-2--2-2-2--2-2-2--2-2-|
|--------------|------------------|-----------------------------|

|--------------------------|-------------------------|----------------------|
|--------------------------|-------------------------|----------------------|
|------------------------2-|-------------------------|----------------------|
|-4--4-4-4--4-4-4-----4--0-|-4--4--4-4-4--4-4-4--4-4-|-4--4-4-4--4-4-4------|
|-2--2-2-2--2-2-2--0--2----|-2--2--2-2-2--2-2-2--2-2-|-2--2-2-2--2-2-2--2-2-|
|--------------------------|-------------------------|------------------0-0-|

riff 11a �played over riff 11-
(3:02)
tr~~~~~~~~~~~~~~~~~~~
|--------------|------------------|-----------------------------|
|-12--(15)-----|------15b-r-b-r-b-|-r-b-r(15)p12----(12)-~-~-~--|
|--------------|------------------|-----------------------------|
|--------------|------------------|-----------------------------|
|--------------|------------------|-----------------------------|
|--------------|------------------|-----------------------------|

~~~~~~~ sl.                                           AH . . . . . . . .
|--------------------------|-------------------------|----------------------|
|-----(12)\----------------|---7---------------------|----------------------|
|---------------------9b---|------9b---9p7-----7--9--|-9brp7--9brp7--9brp7--|
|--------------------------|----------------9--------|----------------------|
|--------------------------|-------------------------|----------------------|
|--------------------------|-------------------------|----------------------|

riff 4 (3:13) �ohhh the curse...�

riff 4c �solo over riff 4-
(3:17)
|-------------------------|--------------|-19br-19br-19b------(19)\-|
|-------------------------|----------17--|--------------------------|
|--(7)\-------------------|--------------|--------------------------|
|-------------------------|--------------|--------------------------|
|-------------------------|--------------|--------------------------|
|-------------------------|--------------|--------------------------| 

|-------------------------------|------------------|-------------------|
|----------14--17br-(17)---(17)\|-x\---------------|-------------------|
|------14-----------------------|------------------|-------------------|
|-/16---------------------------|------------------|---------------/16-|
|-------------------------------|------------------|-------------------|
|-------------------------------|------------------|-------------------|

riff 4d �solo over riff 4-
(3:26)
|-17-17-17---------17-17-17--------|-17---------------------------|-----------------|
|----------------------------------|------------------------------|-----------------|
|-14-14-14--14-----14-14-14--14----|-14---14---14-14--------------|-----------------|
|--------------16---------------16-|------14---14-14--16--(16)\/6-|---6---6---6---7-|
|----------------------------------|------------------------------|-----------------|
|----------------------------------|------------------------------|-----------------|

|--------------------|--------------|--------------------------|
|--------------------|--------------|--------------------------|
|----------------/11-|--11--11--11--|-13--13--13--13--13-------|
|----------------/-9-|---9---9---9--|-11--11--11--11--11-------|
|------9--7--9-------|--------------|--------------------------|
|--------------------|--------------|----------------------x\--|

riff 4 (3:28) �don�t touch...�

riff 5 (3:35) �or you�ll be hexed...�


A CORPSE WITHOUT A SOUL

Riff 1 
(3:48)
|-----------|-----------|-----------|-----------||
|-----------|-----------|-----------|-----------||
|-----------|-----------|-----------|-----------||
|--5----4---|--5----7---|--4----5---|--3----4---||
|--3----2---|--3----5---|--2----3---|--1----2---||
|-----------|-----------|-----------|-----------||

riff 2
(3:54)
|------------------------|--------------------|-----------------------|
|------------------------|--------------------|-----------------------|
|--------------5---------|-7---7--5--7--5-----|--------------5--------|
|------7p5-----5--7p5----|-7---7--5--7--5---6-|-7-----7p5----5--7p5---|
|-0--0------7----------0-|--------------------|-0--0------7---------7-|
|------------------------|--------------------|-----------------------|
PM****                                          ****
|-----------------|------------------------|------------------|
|-----------------|------------------------|------------------|
|----------5--0---|--------------5---------|-7----7--5--7--5--|
|-5--------5--0---|-------7p5----5--7p5----|-7----7--5--7--5--|
|----7--5---------|-0--0------7---------0--|------------------|
|-----------------|------------------------|------------------|
                 PM ****
|---------------------------------|-------------------------------|
|---------------------------------|-------------------------------|
|-7p5-----5-----------------------|---------------7--7------------|
|------7-----7p5--7p5-----5-------|---------------7--7------------|
|----------------------7-----7--5-|-7p5\3--5p3p0------------------|
|---------------------------------|-------------------------------|

riff 3
(4:03)
||--------------------------|---------------|-----------------------|------------------||
||-o------------------------|-7--7-5-7-5----|-----------------------|----------------o-||
||-----------------5--------|-7--7-5-7-5----|--------------5--------|------------------||
||-o--------7p5----5--7p5---|---------------|-------7p5----5--7p5---|-5--7p5----5----o-||
||----0--0------7---------0-|---------------|-0--0------7---------7-|--------7--3--5---||
||--------------------------|---------------|-----------------------|--------------3---||

riff 4
(4:14)
|----------------------|----------------------|----------------------|----------------|
|----------------------|----------------------|-------------5--------|----------------|
|-------------5--------|----------------------|-------------5--------|--7--7-5-7-5----|
|------7p5----5--7p5---|-------7p5---5--7p5---|-------7p5------7p5---|--7--7-5-7-5----|
|-0--0-----7---------7-|-0--0------7--------7-|-0--0------7--------7-|----------------|
|----------------------|----------------------|----------------------|----------------|
PM****                   ****                   ****        

|----------------------|----------------------|----------------------|----------------|
|----------------------|----------------------|-------------5--------|----------------|
|-------------5--------|----------------------|-------------5--------|----------------|
|------7p5----5--7p5---|-------7p5---5--7p5---|-------7p5------7p5---|-5--7p5----5----|
|-0--0-----7---------7-|-0--0------7--------7-|-0--0------7--------7-|--------7--3--5-|
|----------------------|----------------------|----------------------|--------------3-|
PM****                   ****                   ****        


Riff 5
(4:35)
|--------------|----------------|------------|
|--------------|----------------|------------|
|-7------------|----------------|--5---------|
|-7------------|--------4--4--4-|--5---------|
|-5------------|--------2--2--2-|--3---------|
|--------------|---x\-----------|------------|
                     PM *******

Riff 6
(4:39)
|----------||----------------------|----------------------------|
|----------||----------------------|--6--------8--8-------------|
|---x--7\--||--------------5-------|--5--------7--7-------------|
|---x--7\--||-------7p5----5-------|----------------------------|
|---x--5\--||-0--0------7-----0--0-|-----0--0-------------------|
|----------||----------------------|----------------------------|
           PM ****            ****       ****      
|-----------------------|----------------|
|-----------------------|----------------|
|--------------5--------|-----------5--0-|
|-------7p5----5--7p5---|-----------5--0-|
|-0--0------7---------0-|-(10)\\\--------|
|-----------------------|-(10)\\\--------|
PM****                *                        

riff 3
(4:45)

riff 4 �i... i... yeaheah, I�m trapped...�
(4:49)

riff 5 �inside his spell...�
(5:10)

riff 7
(5:14)
|------------------|------------------|
|------------------|------------------|
|------------------|------------------|
|-7--5--4--5--4----|-4----------------|
|-5--3--2--3--2--0-|-2--0-----0--5--4-|
|------------------|-------3-----3--2-|

|------------|-----------|-------------------|----------------------|
|-2\\\\\\\\\\|\\\\\\\\\\\|-2--2----2--2----2-|----------------------|
|-2----------|-----------|-2--2----2--2----2-|--2-------------------|
|-2----------|-----------|-2--2----2--2----2-|--2-------------------|
|-0----------|-----------|-0--0----0--0----0-|--0-------------------|
|------------|-----------|-------------------|----------------------|


INTO THE COVEN

Riff 1
(5:26)
|----------------------|---------------------|-----------------------|-----------------|
|----------------------|---------------------|-----------------------|-----------------|
|----------------------|-5b----------------5-|-4-------4--------4----|-5--------5---7--|
|-7--------7-------5-7-|----7-----7--------5-|-5-------5--------5----|-3--------5---7--|
|-0--0--0--0--0--0-0-0-|----0--0--0--0--0----|---0--0-----0--0-----0-|----0--0--3---5--|
|----------------------|---------------------|-----------------------|-----------------|
  PM *****    ****             *     ****        ****     ****     *      ****
|----------------------|---------------------|---------------------|--------------------|
|----------------------|---------------------|---------------------|--------------------|
|----------------------|-5b----------------5-|--4------4-------4\3-|-5---------5----7---|
|-7--------7-------5-7-|----7-----7--------5-|--5------5-------5\4-|-3---------5----7---|
|-0--0--0--0--0--0-0-0-|----0--0--0--0--0----|----0--0---0--0----0-|----0--0---3----5---|
|----------------------|---------------------|---------------------|--------------------|
  PM ****     ****             *     ****         ****   ****    *      ****

Riff 1a �played over riff 1-
(5:26)
|-------------8------7h8-7~~-----8~~~---/12--10tr12-|
|---10~--8-10---10~---------------------------------|
|---------------------------------------------------|
|---------------------------------------------------|
|---------------------------------------------------|
|---------------------------------------------------|

riff 1 -drums and bass come in-
(5:41)

riff 2
(5:54)
|-------------------------|
|-------------------------|
|-------------------------|
|-10-7-7--5-7-5-7-7-7-8-8-|
|--8-5-5--3-5-3-5-5-5-6-6-|
|-------------------------|

|------------------------|
|------------------------|
|------------------------|
|-10-7-7--5-7-5-7-8-9-10-|
|--8-5-5--3-5-3-5-6-7--8-|
|------------------------|

riff 1 �howl... like a wolf...� 
(6:01)

riff 3
(6:15)
|------------------------------|
|------------------------------|
|------------------------------|
|------------------------------|
|-5-4-----------------------5--|
|-3-2-2-2-2-2-2-2-2-2-2-2-2-3--|
      * * * * * * * * * * *
|------------------------------|
|------------------------------|
|------------------------------|
|------------------------------|
|-5-4---------------0-2-3-4-2--|
|-3-2-2-2-2-2-2-2-2---------0--|
      * * * * * *
|------------------------------|
|------------------------------|
|------------------------------|
|------------------------------|
|-5-4-----------------------5--|
|-3-2-2-2-2-2-2-2-2-2-2-2-2-3--|
      * * * * * * * * * * *
|--------------------------|
|--------------------------|
|--------------------------|
|-----------------2---2----|
|-5-4-------------0---0-2--|
|-3-2-2-2-2-2-2-2---2---0--|
      * * * * * *   *

riff 1b �solo over riff 1-
(6:29)
|----------------------|
|----------------------|
|----------------------|
|-/7---(7)-~-~-~--5h7--|
|----------------------|
|----------------------|
  
                                 AH
|---------------|---------------------|-------------|----------------------|
|---------------|---------------------|-------------|----------------------|
|-5b--------5-4-|-5-*-7-*-5-*-4-------|-------------|--------------------5-|
|-----7---------|----------------7--5-|-3-2---------|----------------------|
|---------------|---------------------|-----5-3-5-5-|-5br--3---3--5-5/7----|
|---------------|---------------------|-------------|--------5-------------|


|---------------------|----------5-------------|------------------------||
|-------5--7--7br-----|------------8-5---------|-------------------5-5--||
|-------5--7--7br-5---|-5--7bb-----------7-5---|-5--7--7brp5-------5-5--||
|-7-----------------7-|----------------------7-|-------------7-~-~------||
|---------------------|------------------------|------------------------||
|---------------------|------------------------|------------------------||

riff 1 �dress...till your�e naked...� 
(6:43)

riff 2 �yeah... come come, into my coven...�
(6:57)

EVIL

Riff 1
(7:09)
|-----------------|---------------|-------------------|
|-----------------|---------------|-------------------|
|-----------------|---------------|-------------------|
|----2------2-----|-5--5--5--5--5-|-5--5--5-----------|
|-4--0------0---2-|-3--3--3--3--3-|-3--3--3--5--4--2--|
|-2------0------0-|---------------|----------3--2--0--|

riff 2
(7:14)
|----------------------------------------------|
|----------------------------------------------|
|----------------------------------------------|
|----/12-12-9-----/12-12-9-----/12-12--7-9-7-9-|
|-77-/10-10-7--77-/10-10-7--77-/10-10--5-7-5-7-|
|----------------------------------------------|
  **           **           **

|----------------------------------------------|
|----------------------------------------------|
|----------------------------------------------|
|----/12-12-9-----/12-12-9-----/12-12--7-9-7-4-|
|-77-/10-10-7--77-/10-10-7--77-/10-10--5-7-5-2-|
|----------------------------------------------|
  **           **           **       

riff 3
(7:28)
|-------------------------------|
|-------------------------------|
|-------------------------------|
|-4-4-4-4-4-4-4-4-4-4-4-4---4-7-|
|-2-2-2-2-2-2-2-2-2-2-2-2-0-2-5-|
|-------------------------------|

|-------------------------------|
|-------------------------------|
|-------------------------------|
|-4-4-4-4-4-4-4-4-4-4-4-4---4-7-|
|-2-2-2-2-2-2-2-2-2-2-2-2-0-2-5-|
|-------------------------------|
  
|-------------------------------|
|-------------------------------|
|-------------------------------|
|---------------------------4-7-|
|-5-5-5-5-5-5-5-5-5-5-5-5-0-2-5-|
|-3-3-3-3-3-3-3-3-3-3-3-3-------|
  
Riff 3a -1st ending-
|-------------------------------|
|-------------------------------|
|-------------------------------|
|-4-4-4-4-4-4-4-4-4-4-4-4---4-7-|
|-2-2-2-2-2-2-2-2-2-2-2-2-0-2-5-|
|-------------------------------|

Riff 3b -2nd Ending-
|-----------------------------|
|-----------------------------|
|-----------------------------|
|-4-4-4-4-2-------------------|
|-2-2-2-2-0--5--5-5-5-5-4-3-2-|
|------------3--3-3-3-3-2-1-0-|

riff 2a �solo over riff 2-
(7:55) 
|----------------------|-----------------------------------------------------------|
|----------------------|-12-15p12-----12---15p12-----12---15p12-----12---15p12-----|
|------------------14b-|----------14b------------14b------------14b------------14b-|
|-------------------9--|-----------------------------------------------------------|
|----------5--4-----7--|-----------------------------------------------------------|
|-3--3--3--3--2--0-----|-----------------------------------------------------------|
                         * with wah 
              AH      
|-------------------------------------------|----------------------------------------
|-12h15p12-----------12---12-15-15p12-15p12-|-15p12-12-15p12--12-15p12--12-15p12-15b-
|---------15-13-13br----13------------------|---------------15--------15-------------
|-------------------------------------------|----------------------------------------
|-------------------------------------------|----------------------------------------
|-------------------------------------------|----------------------------------------

      hold . . . .                                                                
-------15b-|-------r--15br---12-|-15p12-------12h15p12----------11h14p11----------------|
-15p12-----|----------15br------|-------13-13----------12-11h12----------12-11h12----9h12
-----------|--------------------|--------------------------------------------------10---|
-----------|--------------------|------------------------------------------------12-----|
-----------|--------------------|-------------------------------------------------------|
-----------|--------------------|-------------------------------------------------------|

|-9h12-0-0--10p8h10---10p7-9---9p6-8---|-7---------------------------|
|-------------------8--------6-------5-|---/12--12-----------------5/|
|--------------------------------------|-----------13\  6-6-6--------|
|--------------------------------------|----------------------7------|
|--------------------------------------|-----------------------------|
|--------------------------------------|-----------------------------|
        AH
|---------------------------||-------------------------|
|-/21\---.-.-.-.-.-.------5-||-(5)\--------------------|
|-------2b-----2-2-(2)rp0---||-------------------------|
|---------------------------||-------------------------|
|---------------------------||-------------------------|
|---------------------------||-------------------------|

riff 4
(8:08)
|-------------------------|-----------------------|
|-------------------------|-----------------------|
|-------------------------|-----------------------|
|-------------------------|------------------7--5-|
|-4--4--4-4-4--4-4-4--4-4-|-4--4-4-4--4-4-4--5--3-|
|-2--2--2-2-2--2-2-2--2-2-|-2--2-2-2--2-2-2-------|
PM      ***********************************

|-----------------------------|-----------------------|-----------------------------|
|-----------------------------|-----------------------|-----------------------------|
|-----------------------------|-----------------------|-----------------------------|
|-5--5-5-5--5-5-5--5-5-5--5-5-|-5--5-5-5--5-5-5--4--2-|-2--2-2-2--2-2-2--2-2-2--2-2-|
|-3--3-3-3--3-3-3--3-3-3--3-3-|-3--3-3-3--3-3-3--2--0-|-0--0-0-0--0-0-0--0-0-0--0-0-|
|-----------------------------|-----------------------|-----------------------------|
  PM ******************************************            ************************
      
|---------------------------|---------------------------|--------------------------|
|---------------------------|---------------------------|--------------------------|
|---------------------------|---------------------------|--------------------------|
|-2--2-2-2--2-2-2--4--5--6--|--6-6-6--6-6-6--6-6-6--6-6-|-6--6-6-6--6-6-6--7--8--9-|
|-0--0-0-0--0-0-0--2--3--4--|--4-4-4--4-4-4--4-4-4--4-4-|-4--4-4-4--4-4-4--5--6--7-|
|---------------------------|---------------------------|--------------------------|
PM***************              ************************************************

Riff 2 �I love to hear you cry...�
(8:22)

riff 4 �and ill be the first...�
(8:36)

riff 2b �solo over riff 2-
(8:50)
|---------||---------------|-------------------------------------|
|---------||---------------|-------------------------------------|
|---14----||-14--(14)b-----|-14br(14)p12----12-14-b14r--12-12-12-|
|---------||---------------|-------------14----------------------|
|---------||---------------|-------------------------------------|
|---------||---------------|-------------------------------------|
 w/wah trem pick
    ~~~                                                                           ~~
|-------------------------------------------------|--------------------------------12-|
|-------------------------------------------------|-----------------------15b--/14----|
|-------/12--14p12-12-14p12-12-12-14p12--12h14p12-|-12-12-14p12--12-14p12-------------|
|-14--\--------------------------------14---------|------------14---------------------|
|-------------------------------------------------|-----------------------------------|
|-------------------------------------------------|-----------------------------------|

|-16p12--12--15p12p0--15p12p0--15p14p12p0--15p14p12--15p14p12p0--0-|
|------------------------------------------------------------------|
|------------------------------------------------------------------|
|------------------------------------------------------------------|
|------------------------------------------------------------------|
|------------------------------------------------------------------|
                                                                 . . .
|-15p14p12p0--15p14p12p0--15p14p12p0--15p14p12p0--15p12--15p14p12--15b--|
|-----------------------------------------------------------------------|
|-----------------------------------------------------------------------|
|-----------------------------------------------------------------------|
|-----------------------------------------------------------------------|
|-----------------------------------------------------------------------|
                                                                   ~~~~
|----r-15p14-12---12h14p12-12-12-14-|-15--14-12--12-12-15p12-----------|
|--------------15-------------------|----------15-----------15p12-12---|
|-----------------------------------|------------------------------/14-|
|-----------------------------------|----------------------------------|
|-----------------------------------|----------------------------------|
|-----------------------------------|----------------------------------|

riff 5 �solo backing from this point on- (similar to riff 2)
(9:03)
|------------------------------------|
|------------------------------------|
|------------------------------------|
|------------------------------------|
|----x--x---7/10---7----x-x----7/10--|
|----x--x---5/8----5----x-x----5/8---|

|---------------------------------|----------------------------|-----------------------||
|---------------------------------|----------------------------|-----------------------||
|---------------------------------|----------------------------|-----------------------||
|---------------------------------|----------------------------|---------------------7-||
|-7---x--x---7/10---5--7--5---7---|--x--x--7/10--7--x--x--7/10-|-7--x-x--7/10--5-7-5-7-||
|-5---x--x---5/8----3--5--3---5---|--x--x--5/8---5--x--x--5/8--|-5--x-x--5/8---3-5-3-5-||


riff 5a �solo over riff 5-
(9:03)
|------------------------------------|
|----------12h13---------------12h13-|
|----14-14---------14-14-14-14-------|
|------------------------------------|
|------------------------------------|
|------------------------------------|

|---------------------------------|----------------------------|-----------------------||
|------------12h13--12-13-13p21---|--------12h13---------12h13-|---------12h13-12-13p12||
|-14-14-14-14------------------14-|14-14-14------14-14-14------|-14-14-14--------------||
|---------------------------------|----------------------------|-----------------------||
|---------------------------------|----------------------------|-----------------------||
|---------------------------------|----------------------------|-----------------------||

|--------------------|---------------|----------------|------------------|
|--------------------|---------------|----------------|------------------|
|-14---------(14)\\\-|---------------|----------------|------------------|
|--------------------|---------------|----------------|------------------|
|--------------------|---------------|----------------|------------------|
|--------------------|---------------|----------------|------------------|

Riff 6
(9:10)
|---------------------------|
|---------------------------|
|---------------------------|
|-----------7-5-----------5-|
|-7-7--5-7--5-3--5-5-3-3--3-|
|-5-5--3-5-------3-3-1-1----|

|---------------------------|
|---------------------------|
|---------------------------|
|-----------7-5-------------|
|-7-7--5-7--5-3--5-5---3-3--|
|-5-5--3-5-------3-3---1-1--|
  
|---------------------------|
|---------------------------|
|---------------------------|
|-----------7-5-----------5-|
|-7-7--5-7--5-3--5-5-3-3--3-|
|-5-5--3-5-------3-3-1-1----|
   
|---------------------------|
|---------------------------|
|---------------------------|
|-----------7-5-----------5-|
|-7-7--5-7--5-3--5-5-3-3--3-|
|-5-5--3-5-------3-3-1-1----|
  
riff 7
(9:38)
|---------------------------------|
|---------------------------------|
|---------------------------------|
|-------------5-------------------|
|-3-3--x-x--3-3-5-7-7--xxx-x-xxxx-|
|-1-1--x-x--1---3-5-5--xxx-x-xxxx-|

|----------------------------|
|----------------------------|
|----------------------------|
|-7-7------5-5----3-3----7-5-|
|-5-5-5555-3-3-33-1-1----5-3-|
|----------------------------|

riff 7a �solo over riff 7-
(9:51)

|--------------------|-------------------------|------------------------------|
|--------------------|-------------------------|-----------------------10h11/-|
|-12b-12b-12b--12-10-|-9-10-10p9----9--------9-|-10-9h10p9----9-10-12---------|
|--------------------|-----------12---12b-~----|-----------12-----------------|
|--------------------|-------------------------|------------------------------|
|--------------------|-------------------------|------------------------------|
            
|----------------------------|--------10----------------------|--------------------|
|-/13\11-10------------------|-----10----10-11-10h11p10----10-|-13b--13b--13b--13b-|
|-----------10--10-~-~-(10)\-|-/12----------------------12----|--------------------|
|----------------------------|--------------------------------|--------------------|
|----------------------------|--------------------------------|--------------------|
|----------------------------|--------------------------------|--------------------|

|-----------------------|-----------------------|---------------------------|
|-13-11-10-----10----10-|-----------------------|---------13--12/13-13--12/-|
|----------12-----12----|-12br-10h12-10-~-(10)\-|--13/14--14--13/14-14--13/-|
|-----------------------|-----------------------|---------------------------|
|-----------------------|-----------------------|---------------------------|
|-----------------------|-----------------------|---------------------------|

|---------------------------|-----10-----------10--10-13-|-10-12p10-10------------------
|/13-13-12/13-13-----/10-10-|-13b----13p10-13b---13------|------------13-11-10-10h11p10-
|/14-14-13/14-14--14\-------|----------------------------|--------------------12--------
|---------------------------|----------------------------|------------------------------
|---------------------------|----------------------------|------------------------------
|---------------------------|----------------------------|------------------------------

|---------------------------------|-----------------------|---------------------------|
|-10-13-10br----10----------------|-----------------------|---------------------------|
|------------12----12-10----10-12-|-12br-10-12-12p10-~-10-|-12-12br-10-9-10-9h10p9----|
|------------------------12-------|-----------------------|------------------------12-|
|---------------------------------|-----------------------|---------------------------|
|---------------------------------|-----------------------|---------------------------|

|------------------|-----------------|
|------------------|-----------------|
|-9---------10--9--|--(9)-~-~-~-~-~--|
|----10--12--------|-----------------|
|------------------|-----------------|
|------------------|-----------------|

riff 8
(10:20)
|-------------------|-----------------||----------------|
|-------------------|-----------------||----------------|
|-------------------|-----------------||----------------|
|-------------------|--2--------------||--------------3-|
|-5---------------5-|--0--------------||--5-------3---1-|
|-3---------------3-|-----------------||--3-------1-----|

|-------------------|-----------------|-------------------|
|-------------------|-----------------|-------------------|
|-------------------|-----------------|-------------------|
|-----------------3-|---------------3-|-------------3---8-|
|-------------3---1-|-----------3---1-|-------------3---6-|
|-------------1-----|-----------1-----|-------------------|

|----------------|----------------|----------------|
|----------------|----------------|----------------|
|----------------|----------------|----------------|
|----------------|----------------|----------------|
|-8-----8--6---8-|-------8--6---8-|-------8--6---8-|
|-6-----6--4---6-|-------6--4---6-|-------6--4---6-|

riff 9 �backing for solo-
(10:35)
|------------------|
|------------------|
|----------------5-|
|--------------5-3-|
|-555555555555-3---|
|------------------|
   ************
|--------------------------------|
|--------------------------------|
|------------------------------5-|
|--------------7---------------3-|
|-222222222222-5--222222222222---|
|--------------------------------|
   ************    ************
|------------------------------|
|------------------------------|
|------------------------------|
|--------------7---------------|
|-222222222222-5-------------3-|
|-----------------0--2-3--5----|
   ************  
|--------------------------------|
|--------------------------------|
|------------------------------5-|
|--------------7---------------3-|
|-222222222222-5--222222222222---|
|--------------------------------|
   ************    ************
|------------------------------|
|------------------------------|
|------------------------------|
|--------------7---------------|
|-222222222222-5-------------3-|
|-----------------0--2-3--5----|
   ************  
riff 9a �solo over riff 9-
(10:35)
|------------------||--------------------------------------------------|
|------------------||----.-.-.-.-.-.-.-.-.-.-.-.-.-.-.-.-.-.-.-.-.-.-.-|
|------------------||-10b-10-10-10-10-10-10-10-10-10-10-10-10-10-10-10-|
|-------8---6---10-||--------------------------------------------------|
|-------6---6---10-||--------------------------------------------------|
|-------6---4----8-||--------------------------------------------------|


  AH    AH    AH    AH    AH    AH                    hold bend
|------------------------------------------------------|
|-.-.-.-.-.-.-.-.-.-.-.-.-.-.-.-.-.-------------------.|
|-10-10-10-10-10-10-10-10-10-10-10-10b-10b-10b-10b-10b-|
|------------------------------------------------------|
|------------------------------------------------------|
|------------------------------------------------------|


w/Rhy.Fig.14                       AH~~~~~~
|------------------------------------------|
|-.-.--------------------------------------|
|--(10)p8----8-10p8--------------8-8-------|
|---------10--------10-8----8-10-----------|
|------------------------10----------------|
|------------------------------------------|


     ~~~ AH
|------------------------------------|-8---x-8---x-8---10---x-10---x--10-|
|------------------------------------|-8---x-8---x-8---10---x-10---x--10-|
|--------8--10-10p8------------------|-8---x-8---x-8---10---x-10---x--10-|
|-8-10--------------10-8-10-10-10-10-|-----------------------------------|
|------------------------------------|-----------------------------------|
|------------------------------------|-----------------------------------|



|-11---x--11---x--11--10--x--10--x--10-|-8---x--8---x--8--10--x--10--------|
|-11---x--11---x--11--10--x--10--x--10-|-8---x--8---x--8--10--x--10--------|
|-11---x--11---x--11--10--x--10--x--10-|-8---x--8---x--8--10--x--10--10-10-|
|--------------------------------------|-----------------------------------|
|--------------------------------------|-----------------------------------|
|--------------------------------------|-----------------------------------|


                                      
|-------8--------8---------------||-||--------------------|
|-----8--------8-----------------||-||-o----------------o-|
|-10b------10b------10b--/16--14-||-||--------------------|
|--------------------------------||-||-o16~~~~~~~~~~~~~-o-|
|--------------------------------||-||--------------------|
|--------------------------------||-||--------------------|

SATANS FALL

Riff 1a �same as riff 1, with dif. end-
(10:50)
|---------------------------------------|---------------|
|---------------------------------------|---------------|
|---------------------------------------|---------------|
|------------4p0---------4p0---------4p0|----------0h5--|
|---------------------------------------|------0h2------|
|-------0--2------2p0--2------2p0--2----|--0h2----------|

|---------------------------------------|---------------|
|---------------------------------------|---------------|
|---------------------------------------|---------------|
|------------4p0---------4p0---------4p0|--4--2---------|
|---------------------------------------|--2--0---------|
|-------0--2------2p0--2------2p0--2----|---------------|

|---------------------------------------|---------------|
|---------------------------------------|---------------|
|---------------------------------------|---------------|
|------------4p0---------4p0---------4p0|----------0h5--|
|---------------------------------------|------0h2------|
|-------0--2------2p0--2------2p0--2----|--0h2----------|

|---------------------------------------|---------------|
|---------------------------------------|---------------|
|---------------------------------------|---------------|
|------------4p0---------4p0---------4p0|--4--2---------| END
|---------------------------------------|--2--0--4--4\--|
|-------0--2------2p0--2------2p0--2----|--------2--2\--|

8.Astronomy

drum intro
1)
eb--0-0-0-0-0------
Bb--0-0-0-0-0-0----
Gb--4-4-4-4-4-4-2-0
Db--2---2---2------
Ab--2--------------
Eb--0--------------

2)
eb--0--2--0--2--0--
Bb--0--3--1--4--0--
Gb--4--2--0--4--4--
Db--2--0--2--4--2--
Ab--2-----3--2-----
Eb--0--------------
Clock strikes twelve

3)
eb--0--3--0--2
Bb--1--3--1--4
Gb--0--0--0--4
Db--2--0--2--4
Ab--3--2--3--2
Eb-----3------
Like something on a folding chair?

4a) James
eb------------------------------------------------------------
Bb------------------------------------------------------------
Gb------------------------------------------------------------
Db--9-7----7-------9-7----7-------9-7----7-------9-7----7-----
Ab------10---10-9~~----10---10-7~~----10---10-9~~----10---10-7
Eb------------------------------------------------------------

4b) Kirk
eb------------------------------------------------------------
Bb--5-----------------------------5---------------------------
Gb----7-5-7-5-5h7~~5-4----5----5~~--7-5-7-5-5h7~~5-4----5~~7~~
Db---------------------7----7------------------------7--------
Ab------------------------------------------------------------
Eb------------------------------------------------------------

5)
Gb--9----9---9-----5-5~-----7---7---7---9-9
Db--9----9---9-----5-5~-----7---7---7---9-9
Ab--7----7---7-----3-3~-----5---5---5---7-7
Eb--7--0-7-0-7-0-0-3-3--0-0-5-0-5-0-5---0-0
      pm..   ...   .      ...    
"Call me casanova"

6)
Gb-7-5-7--7-7
Db-7-5-7--7-7
Ab-5-3-5--5-5
Eb-----------
"Never warms"

7)
eb--19-17----17-------------------------------------------------------------------
Bb--------20----20-17--12-10----10------------------------------------------------
Gb---------------------------12----12-9-------------------------------------------
Db---------------------------------------9-7----7-------9-7----7------------------
Ab-------------------------------------------10---10-7------10---10-7--2-0---0----
Eb-------------------------------------------------------------------------3---3-0
after never warms part

8a) Kirk
eb--15---------12------------------------------------------12-14-10-12-14-15-17
Bb------13--15---------10-12-----10-12~~12h13p12--12-13-15---------------------
Gb-----------------12---------12-----------------------------------------------
Db-----------------------------------------------------------------------------
Ab-----------------------------------------------------------------------------
Eb-----------------------------------------------------------------------------

8b) James                                         *****************************
eb--15------------------------------------------------------------------------
Bb-------------12-------------------------------------------------------------
Gb------12--14---------11-12--------9~~~~~~-----------------------------------
Db-----------------14---------10--9-------------------------------------------
Ab-----------------------------------------------7-7-6-6-5-5-4-3-2-2-3-3-4-5-6
Eb----------------------------------------------------------------------------
*= similar to artificial harmonics, rest finger above the string while 
picking and sliding down the neck before going into riff 5
pre solo
____________________________
solo by John Milite

eb||--15----------------|----------------------|--------------------|
Bb||--------------------|--13~-------------15h-|--17~---------------|
Gb||--------------------|----------------------|--------------------|
Db||--------------------|----------------------|--------------------|
Ab||--------------------|----------------------|--------------------|
Eb||--------------------|----------------------|--------------------|

----------------------|--------------------|----------------------|
----------------------|--12~---------------|----------------------|
--12~-------------14--|--------------------|--12--------------14--|
----------------------|--------------------|----------------------|
----------------------|--------------------|----------------------|
----------------------|--------------------|----------------------|

------------------------|--------------------|----------------------14------|
--12~-------------12h13-|--12~---------------|--12---13---15---17-------15--|
------------------------|--------------------|------------------------------|
------------------------|--------------------|------------------------------|
------------------------|--------------------|------------------------------|
------------------------|--------------------|------------------------------|

-------14---15---17---19--17--|--15---15---15----14--14----|
--17--------------------------|--18b--18b--18b---17b-17b---|
------------------------------|----------------------------|
------------------------------|----------------------------|
------------------------------|----------------------------|
------------------------------|----------------------------|

--12---12---12----14--14----|--15---15---15----15-17-17r-15-17-17r-|
--15b--15b--15b---17b-17b---|--18b--18b--18b-----------------------|
----------------------------|--------------------------------------|
----------------------------|--------------------------------------|
----------------------------|--------------------------------------|
----------------------------|--------------------------------------|

---15-17-17r-15-17-17r--15-17-17r-15-17-15-----|--15---15---15----14--14----|
-------------------------------------------15~-|--18b--18b--18b---17b-17b---|
-----------------------------------------------|----------------------------|
-----------------------------------------------|----------------------------|
-----------------------------------------------|----------------------------|
-----------------------------------------------|----------------------------|

--12---12---12----14--14----|--15---15--15-15--15--15-19-15h19p15----15-19-|
--15b--15b--15b---17b-17b---|--18b--18b-18b18b-18b----------------17-------|
----------------------------|----------------------------------------------|
----------------------------|----------------------------------------------|
----------------------------|----------------------------------------------|
----------------------------|----------------------------------------------|

--15h19p15----15-19-15h19p15----15-19-19p15----15-17-------|
-----------17----------------17-------------17-------15~---|
-----------------------------------------------------------|
-----------------------------------------------------------|
-----------------------------------------------------------|
-----------------------------------------------------------|

--15---15---15----14--14----|--12---12---12----14--14----|
--18b--18b--18b---17b-17b---|--15b--15b--15b---17b-17b---|
----------------------------|----------------------------|
----------------------------|----------------------------|
----------------------------|----------------------------|
----------------------------|----------------------------|

--15---15---15----17--17----|--19b19-19-----19----19----19----19----19----19-|
--18b--18b--18b---20b-20b---|--22-------22b----22b---22b---22b---22b---22b---|
----------------------------|------------------------------------------------|
----------------------------|------------------------------------------------|
----------------------------|------------------------------------------------|
----------------------------|------------------------------------------------|

-----19----19----19-19-----19----19----19-19----|
--22b---22b---22b------22b----22b---22b------22b|
------------------------------------------------|
------------------------------------------------|
------------------------------------------------|
------------------------------------------------|

---19----19----19----19----19----19----19----19-|
------22b---22b---22b---22b---22b---22b---22b---|
------------------------------------------------|
------------------------------------------------|
------------------------------------------------|
------------------------------------------------|

--22r-19-20-22-20p19-19h20p19-20p19-20p19-17-15h17-15-14----14-|
---------------------------------------------------------17----|
---------------------------------------------------------------|
---------------------------------------------------------------|
---------------------------------------------------------------|
---------------------------------------------------------------|

-----------------------------------------|------------------------------------|
--17r-15----15-17b-17b-15-17p15----17----|--12--12--12--14---14-14-12-12--12--|
---------16---------------------16-------|--12--12--12--14---14-14-12-12b-12--|
-----------------------------------------|------------------------------------|
-----------------------------------------|------------------------------------|
-----------------------------------------|------------------------------------|

------------------------------------------|
------------------------------------------|
--------------------------12b-12-------12-|
--------12-14--14--14--14--------14~14----|
--12-14-----------------------------------|
------------------------------------------|

---------------------------------------------|
-----12-15p12----12--------------------------|
--14----------14-12----12-14-14r--14r-14r-14r|
--------------------14-----------------------|
---------------------------------------------|
---------------------------------------------|

--------------------------------------------|
-------------------15-----------------------|
----12----12-14/16----16\14-12--------------|
-------14----------------------14~-14-14-14-|
--------------------------------------------|
--------------------------------------------|

-----------------------------------------------------|
--------12----------------12----------------12-------|
--12-14----15-14-12-14-15----15-14-12-14-15----15-14-|
-----------------------------------------------------|
-----------------------------------------------------|
-----------------------------------------------------|

--------------------------------------------------------------------------------
-----------------------------12-------------------------------------------------
--12h14p12----12----12-14h15----15-14-12h14p12----12h14p12----12h14p12----12~---
-----------14----14----------------------------14----------14----------14-----14
--------------------------------------------------------------------------------
--------------------------------------------------------------------------------

-----------------------------------------------------------------|
--------12----------------------------------------------------15-|
--14-15----15-14-12-14-12----12----------------------12-14/16----|
--------------------------14----14-12-14-12----12-14-------------|
--------------------------------------------14-------------------|
-----------------------------------------------------------------|

-----15h19-19p17-17p15----15------------------------|
--17-------------------17----17-15----15-17r--15-17h|
-----------------------------------17---------------|
----------------------------------------------------|
----------------------------------------------------|
----------------------------------------------------|

----------------------------||
--17~---17r-15-17-17~-------||
----------------------------||
----------------------------||
----------------------------||
----------------------------||

9.Whiskey In The Jar

INTRO

GUITAR 1
|------------------------------|
|------------------------------|
|------------------------------|
|-----3---2----0-0--0-0--------|
|-----3---2----0-0--0-0--------|
|-----1---0--------------------|


GUITAR 2
|------------------------------|
|------------------------------|
|----10----9-----7-7--7-7------|
|----10----9-----7-7--7-7------|
|----8-----7-----5-5--5-5------|
|------------------------------|



RIFF1

GUITAR 1
|----------------------------------------|
|----------------------------------------|
|--------------10-------------10~--------|
|----10-10-12-----12-14-10-12------------|
|----------------------------------------|
|----------------------------------------|


|----------------------------------------------------|
|----------------------------------------------------|
|--------------10--------------10--10/12/10~---------|
|----10-10-12------12-14-10-12-----------------------|
|----------------------------------------------------|
|----------------------------------------------------|


|--------------------------------------|
|--------------------------------------|
|--------------10--------------10~-----|
|----10-10-12-----12-14-10-12----------|
|--------------------------------------|
|--------------------------------------|


|-------------------------------------------------------|
|-------------------------------------------------------|
|-------------------------------------------------------|
|----------------10-------------------------------------|
|-----8--8--10-----8--10---8--10/12--8~-----------------|
|-------------------------------------------------------|


CHORDS OF VERSE 1

(REPEAT=R)


................................2X..........................
|----------------------------------------------------------|
|----------------------------------------------------------|
|----10-R---------7-R--------------------------------------|
|----10-R---------7-R----------8-R---------3-R-------------|
|----8-R----------5-R----------8-R---------3-R-------------|
|------------------------------6-R---------1-R-------------|





RIFF2

GUITAR 1
|------------------------------------|
|------------------------------------|
|-------------10-------------10~-----|
|----10-10-12----12-14-10-12---------|
|------------------------------------|
|------------------------------------|


|-----------------------------------------------|
|-----------------------------------------------|
|-------------10-------------10--10/12/10~------|
|----10-10-12----12-14-10-12--------------------|
|-----------------------------------------------|
|-----------------------------------------------|


|----------------------------------------------------------------------------|
|----------------------------------------------------------------------------|
|--------------12(14)-12(14) --12(14)-12(14)----12-10-----10/12/10~----------|
|----10-10-12----------------------------------------------------------------|
|----------------------------------------------------------------------------|
|----------------------------------------------------------------------------|


|----------------------------------------------|
|----------------------------------------------|
|----------------------------------------------|
|----------------10----------------------------|
|-----8--8--10-----8--10---8--10/12--8~--------|
|----------------------------------------------|




CHORDS OF VERSE 2

(REPEAT=R)


................................2X...................
|---------------------------------------------------|
|---------------------------------------------------|
|----10-R---------7-R-------------------------------|
|----10-R---------7-R-----------8-R---------3-R-----|
|----8-R----------5-R-----------8-R---------3-R-----|
|-------------------------------6-R---------1-R-----|



1:28
|------------------------------------------------|
|------------------------------------------------|
|-----5-R----------/4----3------3R---------------|
|-----5-R----------/4----3------3R-------3R------|
|-----3-R----------/2----1------1R-------3R------|
|----------------------------------------1R------|




RIFF3

GUITAR 1
|-------------------------------------------|
|-------------------------------------------|
|-------------10--------------10~-----------|
|----10-10-12----12-14-10-12----------------|
|-------------------------------------------|
|-------------------------------------------|


|-------------------------------------------------|
|-------------------------------------------------|
|-------------10---------------10--10/12/10~------|
|----10-10-12-----12-14-10-12---------------------|
|-------------------------------------------------|
|-------------------------------------------------|


|-------------------------------------------------------------|
|-------------------------------------------------------------|
|--------------12(14)-12(14) --12(14)-12(14)-----10~----------|
|----10-10-12-------------------------------------------------|
|-------------------------------------------------------------|
|-------------------------------------------------------------|


|-------------------------------------------------|
|-------------------------------------------------|
|-------------------------------------------------|
|---------------10--------------------------------|
|-----8--8--10-----8--10---8--10/12--8~-----------|
|-------------------------------------------------|





CHORDS OF VERSE 3

(REPEAT=R)

GUITAR 1
................................2X...................
|---------------------------------------------------|
|---------------------------------------------------|
|----10-R---------7-R-------------------------------|
|----10-R---------7-R----------8-R---------3-R------|
|----8-R----------5-R----------8-R---------3-R------|
|------------------------------6-R---------1-R------|


GUITAR 2
WITH THE FELLING (2X)
|------------------------------------------    
|------------------------------------------
|------------------------------------------
|----10-10----10---12----10--7~------------
|------------------------------------------
|------------------------------------------



|-----------------------------------------
|-----------------------------------------
|-----------------------------------------
|----12-12-----12---14----10---8~---------
|-----------------------------------------
|-----------------------------------------

|--------------------------------------
|--------------------------------------
|--------------10~---------------------
|----12-10----------12--10~------------
|--------------------------------------
|--------------------------------------

|-------------------------------
|-------------------------------
|-------------------------------
|----10/12/10------10/12/10~----
|-------------------------------
|-------------------------------




2:26s
|------------------------------------------------|
|------------------------------------------------|
|-----5-R----------/4----3------3R---------------|
|-----5-R----------/4----3------3R-------3R------|
|-----3-R----------/2----1------1R-------3R------|
|----------------------------------------1R------|




SOLO:
PART 1 
|--------------------------------------------------------------------------------------------------- 
|---------------------------------------------------------------------------------------------------
|--------------10--------------10~-14-14--15-17-15-14-------------------------------14--15--17------
|----10-10-12------12-14-10-12-------------------------17--17/19-17--15-14--15--17------------------
|---------------------------------------------------------------------------------------------------
|---------------------------------------------------------------------------------------------------



---------------------------------------------------------------------------------------------
---------------------------------------------------------------------------------------------
--17/19---19--19/17---19----22~-----22/20--19--17----19-17-19--------------------------------
---------------------------------------------------------------19-22-20-19-------------------
------------------------------------------------------------------------------22-20-19----20-
---------------------------------------------------------------------------------------------

----------------------------------------------------------
----------------------------------------------------------
----------------------------------------------------------
--19/20/19------------------------------------------------
-------------22-20-19----20-------------------------------
-----------------------------17/18-17/18-17/18-17/18-17---


SOLO
PART 2:

------------------------------------------------------------------------------
------------------------------------------------------------------------------
----10-10-12-----12(14)-12(14)-----12-12-12/10---10--10/12/10-------------10~-
----------------------------------------------------------------7-10-9-8------
------------------------------------------------------------------------------
------------------------------------------------------------------------------

---------------------------------------------------
---------------------------------------------------
-10-12-10-12(14)-10~----10-12-10-12(14)--10~-------
---------------------------------------------------
---------------------------------------------------
---------------------------------------------------


-------------------------------------------------------------------|
-------------------------------------------------18/20/18~---------|
--------------------10/12/10--------17/19 -17/19-------------------|
----10/12----10/12-------------------------------------------------|
-------------------------------------------------------------------|
-------------------------------------------------------------------|




RIFF4

GUITAR 1 AND 2
|---------------------------------|
|---------------------------------|
|-------------10-------------10~--|
|----10-10-12----12-14-10-12------|
|---------------------------------|
|---------------------------------|


|-----------------------------------------------|
|-----------------------------------------------|
|-------------10-------------10--10/12/10~------|
|----10-10-12----12-14-10-12--------------------|
|-----------------------------------------------|
|-----------------------------------------------|


|---------------------------------------------------------|
|---------------------------------------------------------|
|--------------12(14)-12(14)---12(14)-12(14)-----10~------|
|----10-10-12---------------------------------------------|
|---------------------------------------------------------|
|---------------------------------------------------------|


|------------------------------------------------|
|------------------------------------------------|
|------------------------------------------------|
|---------------10-------------------------------|
|-----8--8--10-----8--10---8--10/12--8~----------|
|------------------------------------------------|


CHORDS OF VERSE 4

(REPEAT=R)

GUITAR 1 CLEAN/DELAY
................................2X..........................
|---------------------------------------------|
|---------------------------------------------|
|----10----------7----------------------------|
|----10----------7-----------8---------3------|
|----8-----------5-----------8---------3------|
|----------------------------6---------1------|



4:10
|-----------------------------------------------|
|-----------------------------------------------|
|-----5-R----------/4----3-----3R---------------|
|-----5-R----------/4----3-----3R-------3R------|
|-----3-R----------/2----1-----1R-------3R------|
|---------------------------------------1-R-----|




OUTRO 

GUITAR 1
|-------------------------------------------|
|-------------------------------------------|
|-----------------10-------------------10~--|
|----10-10-12-------12-14-10-12-------------|
|-------------------------------------------|
|-------------------------------------------|


|-------------------------------------------------|
|-------------------------------------------------|
|--------------10--------------10--10/12/10~------|
|----10-10-12-----12-14-10-12---------------------|
|-------------------------------------------------|
|-------------------------------------------------|


|----------------------------------|
|----------------------------------|
|--------------10-------------10~--|
|----10-10-12-----12-14-10-12------|
|----------------------------------|
|----------------------------------|

(4X)
|-------------------------------------------------|
|-------------------------------------------------|
|-------------------------------------------------|
|----------------10-------------------------------|
|-----8--8--10-----8--10---8--10/12--8~-----------|
|-------------------------------------------------|


|-------|
|-------|
|-------|
|---3~--|
|---3~--|
|---1~--|

10.Tuesday's Gone

|--------------------------------------------------------------------|
|-14----14----14^r----12~~~----12^r----12----10~~----10--10^r----7~~-|
|-11-----------------------------------------------------------------|
|-------11^r-----------9~~~-----9^r-----9-----7~~---------7^r----4~~-|
|--------------------------------------------------------------------|
|--------------------------------------------------------------------|

|--------------------------------------------------------------------|
|-7/10--10/12--12/14--14~~~----14^r----14----12----12^rp10-----------|
|--------------------------------------------------------------------|
|-4/7----7/9----9/11--11~~~----11^r----11-----9----------------------|
|--------------------------------------------------------------------|
|--------------------------------------------------------------------|

|----12---------12---------12----------------------------------------|
|--------15---------15---------15------------------------------------|
|--------------------------------------------------------------------|
|-0----------0----------0------------0-----2-----0-------------------|
|---------------------------------------4-----2----------------------|
|--------------------------------------------------------------------|


|--------------------------------------------------------------------|
|--------------------------------------------------------------------|
|-2~~--4^^r--4^r-------4^--4^--4^rp2------------2--------------------|
|-----------------2~~-----------------4~~--4~~-----------------------|
|--------------------------------------------------4/5\4/5\4---------|
|--------------------------------------------------------------------|

|--------------------------------------------------------------------|
|----------------5----5-------5~~--5/7--5--3-------------------------|
|-----------2h4--4^^--4^r--2--4~~--4/6--4--2-------------------------|
|------2h4-----------------------------------------------------------|
|-2h4----------------------------------------------------------------|
|--------------------------------------------------------------------|

                                      A5                      E5
|----0--------0--------0----------------------5----------------------|
|-------3--------3--------3----2h3h5--2-------5----------------------|
|----------------------------------------2---------------------------|
|-0--------0--------0------------------------------------------------|
|--------------------------------------------------------------------|
|--------------------------------------------------------------------|
                                              Train roll on...

  F#5                     D     Dsus2  D  Dsus2   A5
|--------------------------------------------------------------------|
|--------------------------------------------------------------------|
|--------------------------------------------------------------------|
|--------------------------------------------------------------------|
|--------------------------------------------------------------------|
|--------------------------------------------------------------------|
     on   down  the  line            Won't  you

                      E5                 Dsus2                     A5
|-------------------------------------------0--------0--------0------|
|----------------------------------------------3--------3--------3---|
|--------------------------------------------------------------------|
|----------------------------------------0--------0--------0---------|
|--------------------------------------------------------------------|
|--------------------------------------------------------------------|
  please  take me far         far  away??

                          E5                     D    Dsus2 D  Dsus2
|--------------------------------------------------------------------|
|--------------------------------------------------------------------|
|--------------------------------------------------------------------|
|--------------------------------------------------------------------|
|--------------------------------------------------------------------|
|--------------------------------------------------------------------|
   Now i feel the wind blow       outside my door          Lord I'm, 

 A5                    E5
|--------------------------------------------------------------------|
|--------------------------------------------------------------------|
|--------------------------------------------------------------------|
|--------------------------------------------------------------------|
|--------------------------------------------------------------------|
|--------------------------------------------------------------------|
      i'm leaving my woman at

 Dsus2
|----0--------2--------3--2-----5--5---------------------------------|
|-------3--------3--------3--------3---------------------------------|
|--------------------------------------------------------------------|
|-0--------0--------0--------0---------------------------------------|
|--------------------------------------------------------------------|
|--------------------------------------------------------------------|
  home                       oh yeah

  A5                               G 
|--------------------------------------------------------------------|
|--------------------------------------------------------------------|
|--------------------------------------------------------------------|
|--------------------------------------------------------------------|
|--------------------------------------------------------------------|
|--------------------------------------------------------------------|
            Tues   -   day's       gone            with   the

  D                     Dsus2  D                              A5
|--------------------------------------------------------------------|
|--------------------------------------------------------------------|
|--------------------------------------------------------------------|
|--------------------------------------------------------------------|
|--------------------------------------------------------------------|
|--------------------------------------------------------------------|
  wind                                                   yeah

                      E5                            
|----------------------------0----------------------------------------|
|---------------------------------0-----------------------------------|
|--------------------------------------1------------------------------|
|-------------------------------------------2-------------------------|
|------------------------------------------------2--------------------|
|-----------------------0---------------------------------------------|
        My baby's gone                      gone  with  the

  Dsus2
|----0--------0--------0----------------------------------------------|
|-------3--------3--------3-------------------------------------------|
|-----------------------------------------4^r^r----4^r----------------|
|-0--------0--------0-------------------------------------------------|
|---------------------------------------------------------------------|
|---------------------------------------------------------------------|
  wind                                            Long gone


|--------------------------------------------------------------------|
|--------------------------5-----------------------------------------|
|-2----4^^r--4^r-------4^-----4--rp2--4---------------2--------------|
|-----------------2~~--------------------4~~--4~~--4-----------------|
|--------------------------------------------------------4/5\4/5\4---|
|--------------------------------------------------------------------|

|--------------------------------------------------------------------|
|---------------------------------------------5/7--5--3--------------|
|-----------2h4--4^--4^--4--rp2----4/6\4~~----4/6--4--2--------------|
|------2h4-----------------------------------------------------------|
|-2h4----------------------------------------------------------------|
|--------------------------------------------------------------------|

11.The More I See

1)
 E--------------------------------2~
 B----------------------------------
 F#--2-2-2-2-2-2---2-2-2-2-2-2------
 C#--0-0-0-0-0-0---0-0-0-0-0-0-*----
 *=slide on C# string near the nut


 2)
 B----------------------------
 F#--8-7-8-7-8-7--5-2---------
 C#--6-5-6-5-6-5--3-0--0-0-0-0
 From where I stand I see


 3)
 B-------------------------------------
 F#--8------------------7--------------
 C#--6-6-6-6-6-6-6-6-6--5-5-5-5-5-5-5-5
 The less I believe


 4)
 B---------------------------------------------
 F#--8----------------------2------------------
 C#--6-6-6-6-6-6-6-6-6-6-6--0-0-0-0-0-0-0-0-0-0

12.Helpless(already tabbed)

13.The Small Hours(already tabbed)

14.The Wait(already tabbed)

15.Crash Course In Brain Surgery(already tabbed)

16.Last Caress(already tabbed)

17.Green Hell(already tabbed)

18.Am I Evil?

Gtr 1 : Distorted



        |   |   |   |     |   |   |   |    |   |     |   |        
    
||---||-----------------|----------------|---------------------|
||-4-||-----------------|----------------|---------------------|
||---||-9-----------7-9-|-10----------12-|-9---9-9-9-9---9-9-9-|
||-4-||-9-----------7-9-|-10----------12-|-9---9-9-9-9---9-9-9-|
||---||-7-----------5-7-|-8-----------10-|-7---7-7-7-7---7-7-7-|
||---||-----------------|----------------|---------------------|

   |   |     |     |       |   |     |   |       |   |     |	 |
 
 |-----------------------|---------------------|-----------------------|
 |-----------------------|---------------------|-----------------------|
 |-9---9-9-9-7-7-7-7-7-7-|-9---9-9-9-9---9-9-9-|-9---9-9-9-7-7-7-7-7-7-|
 |-9---9-9-9-7-7-7-7-7-7-|-9---9-9-9-9---9-9-9-|-9---9-9-9-7-7-7-7-7-7-|
 |-7---7-7-7-5-5-5-5-5-5-|-7---7-7-7-7---7-7-7-|-7---7-7-7-5-5-5-5-5-5-|
 |-----------------------|---------------------|-----------------------|
					       |
					       |
   					       | Gtr 2 : Distorted
					       | ( Trem Strum ) 
					       |-----------------------|
					       |-----------------------|
 					       |-----------------------|
					       |-14-\------------------|
					       |-14-\------------------|
					       |-12-\------------------|

  
Gtr 1 doubles Gtr 2

  |   |     |   |       |   |     |     |       |   |     |   |

|---------------------|-----------------------|---------------------|
|---------------------|-----------------------|---------------------|
|*--------------------|-----------------------|---------------------|
|-2-------------------|-----------9-9-9-9-9-9-|-8-------------------|
|*2-------------------|-----------9-9-9-9-9-9-|-8-------------------|
|-0-------------------|-----------7-7-7-7-7-7-|-6-------------------|


 
  |   |     |     |       |   |     |   |       |   |     |     |    

|-----------------------|---------------------|-----------------------|
|-----------------------|---------------------|-----------------------|
|----------------------*|---------------------|-----------------------|
|-----------3-3-3-3-3-3-|-2-------------------|-----------9-9-9-9-9-9-|
|-----------3-3-3-3-3-3*|-2-------------------|-----------9-9-9-9-9-9-|
|-----------1-1-1-1-1-1-|-0-------------------|-----------7-7-7-7-7-7-|



  |   |     |   |       |   |     |        |          |   |     |   |

|---------------------|-----------------------------|---------------------|
|---------------------|-----------------------------|---------------------|
|---------------------|-----------10-10-10-10-10-10-|-9-------------------|
|-8-------------------|-----------10-10-10-10-10-10-|-9-------------------|
|-8-------------------|-----------8--8--8--8--8--8--|-7-------------------|
|-6-------------------|-----------------------------|---------------------



  |   |     |     |       |   |     |   |       |   |     |     |

|-----------------------|---------------------|-----------------------|
|-----------------------|---------------------|-----------------------|
|-----------------------|---------------------|-----------------------|
|-----------9-9-9-9-9-9-|-8-------------------|-----------3-3-3-3-3-3-|
|-----------9-9-9-9-9-9-|-8-------------------|-----------3-3-3-3-3-3-|
|-----------7-7-7-7-7-7-|-6-------------------|-----------1-1-1-1-1-1-|



  |   |     |   |       |   |     |     |       |    |     |   |
   
|---------------------|-----------------------|----------------------|
|---------------------|-----------------------|----------------------|
|---------------------|-----------------------|*---------------------|
|-2-------------------|-----------7-7-7-7-7-7-|-/9---9-9-9-9---9-9-9-|
|-2-------------------|-----------5-5-5-5-5-5-|*/7---7-7-7-7---7-7-7-|
|-0-------------------|-----------------------|----------------------|


                        Gtr 1 : Grad rit.

  |   |     |     |       |   |   |   |      |   |   |   |
	(Repeat 3 times)
                                  ~~             ~~      ~~
|-----------------------|------------------|-------------------|
|-----------------------|------------------|-------------------|
|----------------------*|------------------|-------------10----|
|-9---9-9-9-7-7-7-7-7-7-|------------------|-----9---8---------|
|-7---7-7-7-5-5-5-5-5-5*|-------------8----|-7-----------------|
|-----------------------|-0---7---6--------|-------------------|


  ~~                                  
|------------------------------------|
|------------------------------------|
|-9---10---/12---/14-----/16---------|
|------------------------------------|
|------------------------------------|
|------------------------------------|



Gtr 2 : Intro solo. (See comments at end)

   HH  HH  HH  HH  HH  HH  HH  HH    HH  HH  HH  HH  HH  HH  HH  HH
|---------------------------------|---------------------------------|
|-058-058-058-058-058-058-058-058-|-047-047-047-047-047-047-047-047-|
|---------------------------------|---------------------------------|
|---------------------------------|---------------------------------|
|---------------------------------|---------------------------------|
|---------------------------------|---------------------------------|


							(Hold last note..)
   HH  HH  HH  HH  HH   HH   HH  HH    HH  HH  HH  HH  HH  HH  HH
|-----------------------------------|---------------------------------|
|-058-058-058-058-0710-0710-058-058-|-047-047-047-047-047-047-047-----|
|-----------------------------------|---------------------------------|
|-----------------------------------|---------------------------------|
|-----------------------------------|---------------------------------|
|-----------------------------------|---------------------------------|


  A   A   A   A   A   A Wh~~~~~~
|-------------------------------|
|-------------------------------|
|-------------------------------|
|-----5-------------------------|
|-5-----------5-------7---------|
|---------5-------7-------------|



"One, Two"		(Repeat Main Riff 8 times before verse)

                      PM---|  PM-|  PM---|

           	    |   |   |  |    |   |   |  |
Main Riff :       |------------------------------|
		  |------------------------------|
		  |*----------------------------*|
		  |---------------2---------3--2-|
		  |*2-2-2-2-5-2-2-0-2-2-2---1--0*|
		  |-0-0-0-0-3-0-0---0-0-0--------|	

(Main Riff with verse 1)

Verse 1 : (Lyrics)

		My mother was a witch, she was burned alive.
		Thankless little bitch, for the tears i've cried.
		Take her down now, don't want to see her face.
		All blistered and burned, can't hide my disgrace.


		      PM---|  PM-|  PM---|

		    |   |   |  |    |   |   |  |
Pre-Chorus riff : |------------------------------|
		  |------------------------------|
		  |*----------------------------*|
		  |---------7-----9---------10-9-|
		  |*7-7-7-7-5-7-7-7-7-7-7---8--7*|
		  |-5-5-5-5---5-5---5-5-5--------|

(Pre-Chorus riff x 4 with Pre-Chorus)

Pre-Chorus : (Lyrics)

		Twenty-seven, every one is nice,
		Gotta see 'em, make 'em pay the price,
		See the bodies out on the ice,
		Take my time.......


(Main Riff x 4 with Chorus)

Chorus : (Lyrics)

		Am I Evil?
		Yes I am,
		Am I Evil?
		I am that, yes I am....


			*******Main Riff x 2*******

(Main Riff x 8 with verse 2)

Verse 2 : (Lyrics)

		As i watched my mother die, I lost my head,
		Revenge now I sought, to break with my bread,
		Taking no chances, you come with me,
		I split you to the bone, help set you free.


(Pre-chorus riff x 4 with pre-chorus)

(Main Riff x 4 with chorus)



Bridge : 

		|------------------|------------------------------|
		|------------------|------------------------------|
		|*9-----7-----5---*|------------------------------|
		|-9-----7-----5----|---------------2---------3--2-|
		|*7-----5-----3---*|-2-2-2-2-5-2-2-0-2-2-2---1--0*|
		|------------------|-0-0-0-0-3-0-0---0-0-0--------|


               (Repeat 3 times)

	. |   |   |   |      |   |     |  |       |   |   |   |    
						    ~~~~~~~~~~~
	|------------------|--------------------|------------------|
	|------------------|--------------------|------------------|
	|*9-----7-----5---*|-9-----11-----12----|------------------|
	|-9-----7-----5----|-9-----11-----12----|------------------|
	|*7-----5-----3---*|-7-----9------10----|--/7--------------|
	|------------------|--------------------|------------------|



Double Time feel : 


	
				      _______________________________________
Fast Riff 1:			      |1.

  |   |   |   |      |   |   |   |      |   |   |   |      |   |   |   |

     PM-|    PM-|       PM-|               PM-|    PM--|      PM-|
|------------------|------------------|------------------|------------------|
|------------------|------------------|------------------|------------------|
|*-----------------|------------------|------------------|-----------------*|
|------------------|-------------7----|------------------|---------5--------|
|*7--7777-7--7777--|-7--7777-5---5----|-7--7777-7--7777--|-7--7777-3---5---*|
|-5--5555-5--5555--|-5--5555-3--------|-5--5555-5--5555--|-5--5555-----3----|


_____________________________________
|2.					Fast Riff 2 : (Note : Lyrics)

  |   |   |   |      |   |   |   |      |   |   |   |     |   |   |   | 

     PM-|    PM--|			PM------------------------|
|------------------|-----------------||-----------------|-----------------|
|------------------|-----------------||-----------------|-----------------|
|------------------|-----------------||*----------------|-----------------|
|------------------|-----------------||-----------------|------------7----|
|-7--7777-7--7777--|-----------------||*2--2222-2-2222--|-2--2222-2--5----|
|-5--5555-5--5555--|-555-555-555-532-||-0--0000-0-0000--|-0--0000-0-------|
   		   |   Triplets      |


  |   |   |   |     |   |   |   |   

  PM-------------------------|
|-----------------|-----------------|	
|-----------------|-----------------|
|-----------------|----------------*|    Repeat whole sequence again.
|-----------------|------------7-7--|
|-2--2222-2-2222--|-2--2222-2--5-5-*|
|-0--0000-0-0000--|-0--0000-0-------|



(With Fast Riff 2 [First repeat])

Lyrics : 


(With Fast Riff 2 [Second repeat])

Lyrics :







		*******Then Fast Riff 1 x 1*******



  |   |   |   |      |   |   |   |      |   |   |   |

|------------------|------------------|------------------|
|------------------|------------------|------------------|
|------------------|------------------|------------------|
|-2----------------|------------------|-5-------7--------|
|-2----------------|------------------|-5-------7--------|
|-0----------------|------------------|-3-------5--------|


GUITAR SOLO:

	
For the solo, the rhythm follows the following 'feel':

          X       X         X       X           
	|-X--XXXX-X-XXXX--|-X--XXXX-X-XXXX--|

	Chord changes are noted above tab lines, and are 2 or 3 fingered power
chords, depending on what you feel like. For the 'XX' notes, strike the
full chord, on the others just play the lowest note (Usually the E string)

  B5
  
  |  |||| |  | |||    |    | ||| |   | || |    
  @  @@@@ @  @ @@@    @    @ @@@ @   @ @@ @   
      (Full)    P                               
|-----------7-------|----------------11-12--|
|------------10-7-7/|/12-----------12-------|
|-9^^^^^^^^^--------|-----------------------|
|-------------------|-----------------------|
|-------------------|-----------------------|
|-------------------|-----------------------|



  |       |  |  |  |     |     |  |  |  |    |    |||| |   ||||
  @       @  @  @  @     @     @  @  @  @    @    @@@@ @   @@@@
    H  P       H  H        P  P     P  P
|-11-12-11---11-12-14-14-14-12-11-12-11----|-----------------7---|
|---------12----------------------------12-|-10---------/7-------|
|------------------------------------------|---------------------|
|------------------------------------------|---------------------|
|------------------------------------------|---------------------|
|------------------------------------------|---------------------|



  |  ||||  |     |   | |  |     |    | || | |     ||||
  @  @@@@  @     @   @ @  @     @    @ @@ @ @     @@@@
            H P                   P       P   P 
|-10-9--7--7-9-7-----7--------|--------------------------|
|----------------10----10-7---|-10-7---7-----------------|
|-----------------------------|------9---9-7-9-7---7---7-|
|-----------------------------|------------------9-------|
|-----------------------------|--------------------------|
|-----------------------------|--------------------------|



  |    ||  | | |    | | | |     |    ||  | | |    | | | | 
  @    @@  @ @ @    @ @ @ @     @    @@  @ @ @    @ @ @ @
 (Full)                        (Full)
|-----7-----------------------|-----7-----------------------|
|-----7-10-7---7--------------|-----7-10-7---7--------------|
|-9^^--------9---9-7-7------7-|-9^^--------9---9-7-7------7-|
|-----------------------------|-----------------------------|
|-----------------------------|-----------------------------|
|-----------------------------|-----------------------------|




  |    ||  | | |    | | | |      |      | | | |   |   | | | |
  @    @@  @ @ @    @ @ @ @      @      @ @ @ @   @   @ @ @ @
 (Full)
|-----7-----------------------|-/19--/20---/22---/24----------|
|-----7-10-7---7--------------|-------------------------------|
|-9^^--------9---9-7-7------7-|-------------------------------|
|-----------------------------|-------------------------------|
|-----------------------------|-------------------------------|
|-----------------------------|-------------------------------|



  E5
  |      | |  |  |  |      | |  |  |    |      | |  |  |  |      | |  |  |
  @      @ @  @  @  @      @ @  @  @    @      @ @  @  @  @      @ @  @  @
    P  P              P  P                P  P              P  P
|-15-14-12----12-14-15-14-12----12-14-|-15-14-12----12-14-15-14-12----12-14-|
|----------15----------------15-------|----------15----------------15-------|
|-------------------------------------|-------------------------------------|
|-------------------------------------|-------------------------------------|
|-------------------------------------|-------------------------------------|
|-------------------------------------|-------------------------------------|




  |     | | | |  |     | | | |     |     | | | |  |     | | | | 
  @     @ @ @ @  @     @ @ @ @     @     @ @ @ @  @     @ @ @ @

|-15---14---12--------12---------|--------------------------------|
|----------------15--------15----|-14---12---14-------------------|
|--------------------------------|----------------12======--------|
|--------------------------------|--------------------------------|
|--------------------------------|--------------------------------|
|--------------------------------|--------------------------------|



  B5
  |  | | | | |   | | | |    |    | | | |  |   | | | |
  @  @ @ @ @ @   @ @ @ @    @    @ @ @ @  @   @ @ @ @
 (Full) P     P      P        P      P     P     P
|------7-0-0-9-0-0-10-0-0-|-12-0-0-10-0-0-9-0-0-7-0-0-|
|----7--------------------|---------------------------|
|-9^----------------------|---------------------------|
|-------------------------|---------------------------|
|-------------------------|---------------------------|
|-------------------------|---------------------------|

  |    | | | | |   | | | |      |   | | | | |   | | | |
  @    @ @ @ @ @   @ @ @ @      @   @ @ @ @ @   @ @ @ @ 

|-10---9---7--------7---------|----------------------------|
|--------------10-------10----|-9---7---9------------------|
|-----------------------------|-------------7======\-------|
|-----------------------------|----------------------------|
|-----------------------------|----------------------------|
|-----------------------------|----------------------------|

 
  |  |||| |  ||||   |  |||| |  ||||   |  |||| |  ||||   |  |||| |  ||||
  @  @@@@ @  @@@@   @  @@@@ @  @@@@   @  @@@@ @  @@@@   @  @@@@ @  @@@@
   HH  HH  HH  HH    HH  HH  HH  HH    HH  HH  HH  HH    HH  HH  HH  HH
|-----------------|-----------------|-----------------|-047-047-047-047-|
|-047-047-047-047-|-058-058-058-058-|-047-047-047-047-|-----------------|
|-----------------|-----------------|-----------------|-----------------|
|-----------------|-----------------|-----------------|-----------------|
|-----------------|-----------------|-----------------|-----------------|
|-----------------|-----------------|-----------------|-----------------|



                                      A5
  |  |||| |  ||||   |  |||| |  ||||   |   ||||  |   ||||
  @  @@@@ @  @@@@   @  @@@@ @  @@@@   @   @@@@  @   @@@@
   HH  HH  HH  HH    HH  HH  HH  HH   T PP T PP T PP T PP
|-058-058-058-058-|-047-047-047-047-|-1285-1285-1285-1285-|
|-----------------|-----------------|---------------------|
|-----------------|-----------------|*-------------------*|
|-----------------|-----------------|---------------------|
|-----------------|-----------------|*-------------------*|
|-----------------|-----------------|---------------------|



  F5                    A#5                   F#5
  |   ||||  |   ||||    |   ||||  |   ||||    |   ||||  |   ||||
  @   @@@@  @   @@@@    @   @@@@  @   @@@@    @   @@@@  @   @@@@
  T PP T PP T PP T PP   T PP T PP T PP T PP   T PP T PP T PP T PP 
|-1385-1385-1385-1385-|-1396-1396-1396-1396-|-1496-1496-1496-1496-|
|---------------------|---------------------|---------------------|
|*-------------------*|*-------------------*|---------------------|
|---------------------|---------------------|---------------------|
|*-------------------*|*-------------------*|---------------------|
|---------------------|---------------------|---------------------|




  B5
  |    || | | |    || | |   |  |||| |  ||||   |  |||| |  ||||
  @    @@ @ @ @    @@ @ @   @  @@@@ @  @@@@   @  @@@@ @  @@@@
  T P P T P P T P P T P P    HH  HH  HH  HH    HH  HH  HH  HH
|-14107-14107-14107-14107-|-047-----047-----|-047-----047-----|
|-------------------------|-----047-----047-|-----047-----047-|
|*-----------------------*|-----------------|-----------------|
|-------------------------|-----------------|-----------------|
|*-----------------------*|-----------------|-----------------|
|-------------------------|-----------------|-----------------|




  |  |||| |  ||||   |  |||| |  ||||   |  |||| |  ||||   |  |||| |  ||||
  @  @@@@ @  @@@@   @  @@@@ @  @@@@   @  @@@@ @  @@@@   @  @@@@ @  @@@@
   HH  HH  HH  HH    HH  HH  HH  HH    HH  HH  HH  HH    HH  HH  HH  HH
|-----------------|-----------------|-----------------|-----------------|
|-047-----047-----|-047-----047-----|-----------------|-----------------|
|-----047-----047-|-----047-----047-|-047-----047-----|-047-----047-----|
|-----------------|-----------------|-----047-----047-|-----047-----047-|
|-----------------|-----------------|-----------------|-----------------|
|-----------------|-----------------|-----------------|-----------------|



                                        E5
  |  |||| |  ||||   |  |||| |  ||||     |      | | |  |   |      | | |  |
  @  @@@@ @  @@@@   @  @@@@ @  @@@@     @      @ @ @  @   @      @ @ @  @
   HH  HH  HH  HH                         P  P     P  P     P  P     P  P
|-----------------|-------------------|-------------------------------------|
|-----------------|----------------12-|-1514-0-0-1715-0-0-1514-0-0-1715-0-0-|
|-----------------|-------------/14---|-------------------------------------|
|-047-----047-----|-------------------|-------------------------------------|
|-----047-----047-|-------------------|-------------------------------------|
|-----------------|-7\----------------|-------------------------------------|



  |      | | |  |   |      | | |  |     |        |  | | |    |    ||| |
  @      @ @ @  @   @      @ @ @  @     @        @  @ @ @    @    @@@ @
    P  P    P  P    P  P    P  P
|-------------------------------------|---------------------------------|
|-1514-0-0-1715-0-0-1514-0-0-1715-0-0-|-1514-0-1412-0-1210-0-109-0-97-0-|
|-------------------------------------|---------------------------------|
|-------------------------------------|---------------------------------|
|-------------------------------------|---------------------------------|
|-------------------------------------|---------------------------------|


                      B5
  |  ||||  |  ||||    |   |||| |    || ||    |    |||| |  ||||
  @  @@@@  @  @@@@    @   @@@@ @    @@ @@    @    @@@@ @  @@@@ 
                     (Full)      P                     (Full)
|-------------------|----------------------|------------10^====|
|-7-----------------|-10^------107---7-----|-------------------|
|-7-9-7---7---------|--------------9---9-7-|-9-7---7-----------|
|-------------------|----------------------|-----9-------------|
|-------------------|----------------------|-------------------|
|-------------------|----------------------|-------------------|

 
  |   || || |       || | |    |    || | |  |  | | | |       (END SOLO)
  @   @@ @@ @       @@ @ @    @    @@ @ @  @  @ @ @ @
              H  P    H  P     H P   H P    ~~~~~~~~
|-9----12-------------------|--------------------------|
|-----------10-12-10-8-10-8-|-7-8-7-5-6-5--3========---|
|---------------------------|--------------------------|
|---------------------------|--------------------------|
|---------------------------|--------------------------|
|---------------------------|--------------------------|


*******Fast Riff 1 x 2 ( Note : Only repeat the first section )*******

On fourth repeat, Gtr 2 plays:

               P
|------------------|
|------------------|
|------------------|
|-/777-777-777-75--|
|----------------7-|
|------------------|


*******Fast Riff 2 x 4*******

*******Fast Riff 1 x 4*******


(Triplet feel - not strict time)

                             _________________________
                             |1,2,3.      |4.
                              H   H P 
|------------------|----------------------|----------| 
|------------------|----------------------|----------|
|------------------|---------------------*|----------|
|-----9---7-7------|-7-7------------------|-7--------|
|-----7---5-5------|-5-5---------5-7-5---*|-5---7----|
|-0-0--------------|---------5-7-------7--|-----5----|




    PM---|  PM-|  PM---|       h   h
              (Repeat 6 times)
|----------------------------|-----------------|
|----------------------------|-----------------|
|*--------------------------*|-----------------|
|---------------2--------3-2-|-------------2---|
|*2-2-2-2-5-2-2-0-2-2-2--1-0*|---------5---2---|
|-0-0-0-0-3-0-0---0-0-0------|-5---5---3---0---|       (END)

19.Blitzkrieg

----|----------------|----------------|----------------|--------|
----|----------------|----------------|----------------|--------|
----|----------------|----------------|----------------|--------|
7---|7s9-----9---7s9-|----9---7s9-----|----------------|----7---|
5---|5s7-----7---5s7-|----7---5s7-----|9---10------7---|----5---|
----|----0-0---0-----|0-0---0-----0-0-|7---8---0-0-5---|0-0-----|

----------------|----------------|----------------|--------|
----------------|----------------|----------------|--------| Repeat
----------------|----------------|----------------|--------| this 
7s9-----9---7s9-|----9---7s9-----|----------------|----7---| line
5s7-----7---5s7-|----7---5s7-----|9---10------7---|----5---| 4 times
----0-0---0-----|0-0---0-----0-0-|7---8---0-0-5---|0-0-----|

----------------|----------------|----------------|--------|
----------------|----------------|----------------|--------| 
----------------|----------------|----------------|--------|  
7s9-----9---7s9-|----9---7s9-----|----------------|--------| 
5s7-----7---5s7-|----7---5s7-----|9---10------7---|--------| 
----0-0---0-----|0-0---0-----0-0-|7---8---0-0-5---|0-0-12ss|

$
----------------|----------------| 
----------------|----------------| Repeat
----------------|----------------| this
----------------|----------------| line 
----------------|----------------| 3 times
0-0-2-0-0-3-0-0-|2-0-0-3-0-0-2s3-|

----------------|----------------|
----------------|----------------|
----------------|----------------|
----------------|------------5s4-|
----------------|------------3s2-|
0-0-2-0-0-3-0-0-|2-0-0-3-0-0-----|

1.Let us have peace, let us have life, let us escape the cruel night
2.Save us from fate, save us from hate, save ourselves before it's too late
----------------|----------------|----------------|----------------|
----------------|----------------|----------------|----------------|
----------------|----------------|----------------|----------------|
----------------|----------------|----------------|------------5s4-|
----------------|----------------|----------------|------------3s2-|
0-0-2-0-0-3-0-0-|2-0-0-3-0-0-2s3-|0-0-2-0-0-3-0-0-|2-0-0-3-0-0-----|

Let us have time, let the sun shine, let us beware the deadly sign
Come to our need, hear our plea, save ourselves before the earth bleeds
----------------|----------------|----------------|----------------|
----------------|----------------|----------------|----------------|
----------------|----------------|----------------|----------------|
----------------|----------------|----------------|------------5s4-|
----------------|----------------|----------------|------------3s2-|
0-0-2-0-0-3-0-0-|2-0-0-3-0-0-2s3-|0-0-2-0-0-3-0-0-|2-0-0-3-0-0-----|

                 The day is coming        Armageddon's near
                 The day is dawning       The time is near
----------------|----------------|----------------|----------------|
----------------|----------------|----------------|----------------|
----------------|----------------|----------------|----------------|
2---2---x-5s4-5-|--------4s5-4---|2---2---x-5s4-5-|--------4s5-7---|
0---0---x-3s2-3-|----3-3-2s3-2---|0---0---x-3s2-3-|----3-3-2s3-5---|
----------------|----------------|----------------|----------------|

                 Inferno coming             Can we survive   the blitz
                 Aliens coming              Can we survive   the blitz
----------------|----------------|----------------|----------------|
----------------|----------------|----------------|----------------|
----------------|----------------|----------------|----------------|
2---2---x-5s4-5-|--------4s5-4---|2---2---x-5s4-5-|--------4s5-7---|
0---0---x-3s2-3-|----3-3-2s3-2---|0---0---x-3s2-3-|----3-3-2s3-5---|
----------------|----------------|----------------|----------------|

krieg
krieg
----------------|----------------|----------------|--------| 1st time 2nd time
----------------|----------------|----------------|--------| Repeat   Repeat
----------------|----------------|----------------|--------| this     2 times
7s9-----9---7s9-|----9---7s9-----|----------------|----7---| line     and skip
5s7-----7---5s7-|----7---5s7-----|9---10------7---|----5---| 3 times  to CODA
----0-0---0-----|0-0---0-----0-0-|7---8---0-0-5---|0-0-----|

----------------|----------------|----------------|--------|
----------------|----------------|----------------|--------| Goto
----------------|----------------|----------------|--------| $ 
7s9-----9---7s9-|----9---7s9-----|----------------|--------| al CODA
5s7-----7---5s7-|----7---5s7-----|9---10------7---|----9---| 
----0-0---0-----|0-0---0-----0-0-|7---8---0-0-5---|0-0-7ss-|

CODA (solo)

For the solo the backing guitar plays power chords which are indicated
above the solo line in single line "tab". Simultaneous guitars have joined
bars. The timing is now different in order to be able to transcribe it
correctly. 8ths = 4'-'s.
Triads are indicated like this: ___3___ or ___ ___ 
                                              3


F#--F#--F#--F#--F#--F#--F#--F#--|F#--F#--F#--F#--F#--F#--F#--F#--|
                                |                                |
--------------------------------|------------------------___3___-|
--------------------------------|----------------___3___-2-----2-|
--------------------------------|--------2-----2-4--2--4----4----|
------------------------2-----2-|4---2-4-----4-------------------|
--------------2-4---2-4-----4---|--------------------------------|
2-2-2-2-5-2-5-----5-------------|--------------------------------|

F#--F#--F#--F#--F#--F#--F#--F#--|F#--F#--F#--F#--F#--F#--F#--F#--|
                                |                                |
--------2-----2-5p2-----------5-|2-------------------------------|
5-2-5-----5-2-------5-2-2-2-2---|2-------------------------------|
----------------------2-2-2-2---|----4---2-------2---4^------2---|
--------------------------------|------------5-------------------|
--------------------------------|--------------------------------|
--------------------------------|--------------------------------|

F#--F#--F#--F#--F#--F#--F#--F#--|F#--F#--F#--F#--F#--F#--F#--F#--|
                                |                                |
--------------------------------|----------------_3_-----___3___-|
5^--------r-^-----------5---3---|2-------2---3---232-----2--4----|
--------------------------------|----4---------------4------4--2-|
--------------------------------|--------------------------------|
--------------------------------|--------------------------------|
--------------------------------|--------------------------------|

F#--F#--F#--F#--F#--F#--F#--F#--|F#--F#--F#--F#--F#--F#--F#--F#--|
                                |                                |
--------------------------------|------------------------------4-|
___3___-___3___-----------------|----------------------------7---|
4p-2----2-----------------------|--------------------------------|
------4----4--2-4p2-----2---4---|--------------------------------|
--------------------4-----------|4p2-----2---4---2---------------|
--------------------------------|----4-------------------2-------|

G#--G#--G#--G#--G#--G#--G#--G#--|G#--G#--G#--G#--G#--G#--G#--G#--|
                                |                                |
7p-4----4-------___3___-___3___-|--------------------------------|
------7----7--4-7p-4----4-------|___3___-___3___-----------------|
___ ___-___ ___-------6----6--4-|6p-4----4-------___3___-___3___-|
---3-------3--------------------|------6----6--4-6p-4----4-------|
--------------------------------|----------------------6----6--4-|
--------------------------------|--------------------------------|

G#--G#--G#--G#--G#--G#--G#--G#--|G#--G#--G#--G#--G#--G#--G#--G#--|
                                |                                |
--------------------------------|--------------------------------|
--------------------------------|--------------------------------|
--------------------------------|--------4-------------------4---|
___3___-___3___-----------------|4-h-6-------6-------6p4---------|
6p-4----4-----------4-s-6-------|------------------------6-------|
------7----7--4-7---------------|--------------------------------|

G#--G#--G#--G#--G#--G#--G#--G#--|G#--G#--G#--G#--G#--G#--G#--G#--|
                                |                                |
--------------------------------|--------------------------------|
--------------------------------|--------------------------------|
6-6-6-6-7-7-7-7s9-9-9-9-7-7-7s9-|9-9-9-9-111111111313131311111113|
--------------------------------|--------------------------------|
--------------------------------|--------------------------------|
--------------------------------|--------------------------------|

G#--G#--G#--G#--G#--G#--G#--G#--|G#--G#--G#--G#--G#--G#--G#--G#--|
                                |                                |
--------------------------------|--------------------------------|
--------------------------------|------------16--19^-------------|
131313131414141416161616141416--|1816----18--------------16-ss---|
--------------------------------|----16------------------16-ss---|
--------------------------------|--------------------------------|
--------------------------------|--------------------------------|

Bb--Bb--Bb--Bb--Bb--Bb--Bb--Bb--|Bb--Bb--Bb--Bb--Bb--Bb--Bb--Bb--|
                                |                                |
--------------------------------|--------------------------------|
--------------------------------|--------------------------------|
--------------------------------|--------------------------------|
--------------------------------|----------------6-------6---7---|
----------------4-------4---5---|----6---8-----------8-----------|
6-------6-----------6-----------|--------------------------------|

Bb--Bb--Bb--Bb--Bb--Bb--Bb--Bb--|Bb--Bb--Bb--Bb--Bb--Bb--Bb--Bb--|
                                |                                |
--------------------------------|----6-----------------------13--|
--------------------------------|--------9p6-----6-------14------|
----------------6-------6---8^--|------------8-----6-------------|
----8---8-----------8-----------|--------------------8-----------|
--------------------------------|--------------------------------|
--------------------------------|--------------------------------|

Bb--Bb--Bb--Bb--Bb--Bb--Bb--Bb--|Bb--Bb--Bb--Bb--Bb--Bb--Bb--Bb--|
                                |                                |
18-13---------------------------|--------------------------------|
------14--------14-ss-----------|___3___-------------------------|
___-____15--------------14-ss---|8p-6----___3___-----------------|
---3----------------------------|------8-6--8--------------------|
--------------------------------|--------------6-----------------|
--------------------------------|----------------9---------------|

Bb--Bb--Bb--Bb--Bb--Bb--Bb--Bb--|Bb--Bb--Bb--Bb--Bb--Bb--Bb------|
                                |                                |
--------------------------------|--------------------------------|
--------------------------------|--------------------------------|
---------------------------[6]--|--------^---r-----------^--ss---|
--------------------6---8-------|--------------------------------|
--------4---6---8---------------|--------------------------------|
4---6---------------------------|--------------------------------|

Now comes the tricky part where you have to use delay effect,
harmonics and a lot of tremolo part. I'll just notate only where
you should fret. Harmonics = . From now on to the end of the song
timing is again 8th = 2'-'s. Backing guitar continues. Tempo slows down.

E---------------|C---------------|E---------------|C---------------|
                |                |                |                |
----------------|------------|----------x-x-x-|----------------|
----------------|----------------|----------------|----------------|
9---------------|--------------9-|----------------|------------|
----------------|----------------|----------------|----------------|
----------------|----------------|----------------|----------------|
----------------|----------------|----------------|----------------|

E---------------|C---------------|E---------------|C---------------|
                |                |                |                |
----------------|----------------|----------------|----------------|
----------------|----------------|----------------|----------------|
9-----------|----------------|-------------|---------0---|
----------------|----------------|----------------|----------------|
----------------|----------------|----------------|----------------|
----------------|----------------|----------------|----------------|

Back to the original tempo, and for a while we have three guitars
playing at the same time. Backing guitar plays single notes.

E-E-E-E-E-E-E-E-|E-E-E-E-E-E-E-E-|C-C-C-C-C-C-C-C-|C-C-B-B-A-A-G-G-|
                |                |                |                |
121212--12121212|12--12121212--12|121212--12121212|12--12121212--12|
121212--12121212|12--12121212--12|121212--12121212|12--12121212--12|
9-9-9---9-9-9-9-|9---9-9-9-9---9-|9-9-9---9-9-9-9-|9---9-9-9-9---9-|
----------------|----------------|----------------|----------------| Repeat
----------------|----------------|----------------|----------------| all
----------------|----------------|----------------|----------------| three
                |                |                |                | guitars
7-----10----7---|--10----7---10--|7-----10----1212|--10----7---10--| 4 times
----------------|----------------|----------------|----------------|
4-----7-----4---|--7-----4---7---|4-----7-----9-9-|--7-----4---7---|
----------------|----------------|----------------|----------------|
----------------|----------------|----------------|----------------|
----------------|----------------|----------------|----------------|

----------------|----------------|----------------|----------------|
----------------|----------------|--------------5-|----6---6-5-----| Repeat
----------------|----------------|--------------5-|----5---5-5-----| this
9---11--119---9-|----11--119---5-|5-5-7---3-2---5-|----5---5-5-----| line
7---7---7-7---7-|----7---7-7---3-|3-3-3-x-3-3-3-3-|3-3-3-3-3-3-3-3-| 2 times
0---0-0-0-0-0-0-|0-0-0-0-0-0-0---|----------------|----------------|

----------------|----------------|----------------|----------------|
----------------|----3---3-2-----|----------------|----------------|
2---------------|----2---2-2-----|----------------|----------------|
2---0-2-0-2---2-|----2---2-2-----|----------------|----------------|
0-----0---0-0-0-|0-0---0-----0---|----------------|--------3p2-----|
----------------|--------------0-|3-----2-----3---|--0-2-3-----3-2-|

----------------|----------------|----------------|----------------|
----------------|----------------|----------------|----------------| Repeat 
----------------|----------------|----------------|----------------| this 
----------------|----------------|----------------|----------------| line
----------------|----------------|----------------|--------3p2-----| 2 times
0-0-2-0-2-3-0-0-|2-0-0-3-0-0-2-3-|3-----2-----3---|--0-2-3-----3-2-|

---------------19-19---19-19-24-24-24---24-19---------------------|
------------------------------------------------------------------|
------------------------------------------------------------------|
------------------------------------------------------------------|
2-----------------------------------------------------------------|
0--------------------------------------------------x-ss-----------|

20.Breadfan

Riff A - 8x                                      8th time play Fill 1
|-------------------------------------------|---------------------------------|
|-------------------------------------------|---------------------------------|
|-------------------------------------------|---------------------------------|
|-------------------------------------------|---------------------------------|
|-5h7--7--5h7--7--5h7--7--5h7--7--5h7--7--7-|-5h7--7--5^7--7--7--5------------|
|-------------------------------------------|-----------------------7--5--3~-0|

Fill 1                              PM PM
|----------------------------------------|
|----------------------------------------|
|----------------------------------------|
|----------------------------------------|
|--5h7--7--5^7--7--7--5------------------|
|------------------------7--5--3~--3--2--|


1st Verse
Riff B
   PM    PM------|     PM------|     PM------|    PM  PM                            
|-----------------------------------------------------------------------------|
|-----------------------------------------------------------------------------|
|.---------------------------------------------------------------------------.|
|.-2--2--0-2-2-0-2-----0-2-2-0-2-----0-2-2-0-2----0---0---0---0---0---0-0--1-.|
|--2--2--0-2-2-0-2-----0-2-2-0-2-----0-2-2-0-2----0---0---0---0---0---0-0--1--|
|--0--0----------0-------------0-------------0--------------------------------|

   PM    PM------|        PM--|        PM--|
|-----------------------------------------------------------------------------|
|-----------------------------------------------------------------------------|
|.---------------------------------------------------------------------------.|
|.-2--2--0-2-2-0-2----0---2-0-2----0---2-0-2-------5-----0----0----0---0-0-1-.|
|--2--2--0-2-2-0-2----0---2-0-2----0---2-0-2---5h7---7\5-0----0----0---0-0-1--|
|--0--0----------0------------0------------0----------------------------------|

Between verses 1 & 2 play Riff A 4x
2nd Verse - play Riff B

I'm working on the solo - here's the rhythm underlying it:

|-----------------------------------------------------------------------------|
|-----------------------------------------------------------------------------|
|-----------------------------------------------------------------------------|
|--2--------------------------------------------------------------------------|
|--2--------------------------------------------------------------------------|
|--0--------------------------------------------------------------------------|

|-----------------------------------------------------------------------------|
|-----------------------------------------------------------------------------|
|-----------------------------------------------------------------------------|
|--2------------------------------1--2----------------------------------0--1--|
|--2------------------------------1--2----------------------------------0--1--|
|--0---------------------------------0----------------------------------------|

|-------------------------------------------------------------------------|
|-------------------------------------------------------------------------|
|-------------------------------------------------------------------------|
|--2-------------1--2-------------1--2------1--2--------------------------|
|--2-------------1--2-------------1--2------1--2------4--4/5---5---5---5--|
|--0----------------0----------------0---------0------2--2/3---3---3---3--|

|----------------------------------------------------------------------|
|----------------------------------------------------------------------|
|----------------------------------------------------------------------|
|----------------------------------------------------------------------|
|--4/5---5---5---5--4/5---5---5---5--4/5---5---5---5--4/5---5---5---5--|
|--2/3---3---3---3--2/3---3---3---3--2/3---3---3---3--2/3---3---3---3--|

|----------------------------------------------------------------------|
|----------------------------------------------------------------------|
|----------------------------------------------------------------------|
|----------------------------------------------------------------------|
|--6/7---7---7---7--6/7---7---7---7--6/7---7---7---7--6/7---7---7---7--|
|--4/5---5---5---5--4/5---5---5---5--4/5---5---5---5--4/5---5---5---5--|

Riff C
|----------------------------------|
|----------------------------------|
|----------------------------------|
|----------------------------------|
|--7------5------7------5---7---5--|
|--5------3------5------3---5---3--|

Riff D
e |-----------------------------------------------------------|
B |-----------------------------------------------------------|
G |-----------------------------------------------------------|
D |------5-------------3--------------------------------------|
A |--5h7---7\------3h5---5\----------7-------------2----------|
E |------------------------------5h7---7\------0h2---2-3---4--|

then play Riff C again and follow it with a fading E5

 Acoustic

|----------------------------------------|------------------------------------|
|---------------8-------8----------------|------------6--5---6----------------|
|------------9------9------9p0--0--------|---------7-------------7p0--0-------|
|---------9------------------------------|------7-----------------------------|
|------7---------------------------------|-5----------------------------------|
|-0--------------------------------------|------------------------------------|

|----------------------------------------|------------------------------------|
|---------------8-------8----------------|------------6--5---6----------------|
|------------9------9------9p0--0--------|---------7-------------7p0--0-------|
|---------9------------------------------|------7-----------------------------|
|------7---------------------------------|-5--------------------------------6-|
|-0--------------------------------------|------------------------------------|

|----------------------------------------|------------------------------------|
|---------------8-------8----------------|------------6--5---6----------------|
|------------9------9------9p0--0--------|---------7-------------7p0--0-------|
|---------9------------------------------|------7-----------------------------|
|-7----7-------------------------------6-|-5--------------------------------6-|
|----------------------------------------|------------------------------------|

|----------------------------------------|------------------------------------|
|---------------8-------8----------------|------------6--5---6----------------|
|------------9------9------9p0--0--------|---------7-------------7p0--0-------|
|---------9------------------------------|------7-----------------------------|
|-7----7-------------------------------6-|-5--------------------------------4-|
|----------------------------------------|------------------------------------|

|---------------0------------------------|-------------------0----------------|
|------------3------3--------------------|------------0--3-------3p0--0-------|
|---------0-------------0----------------|------------------------------------|
|------5--------------------5------------|---------2--------------------------|
|-3--------------------------------------|------2-----------------------------|
|--------------------------------------1-|-0--------------------------------1-|

e |--------------------0------------------|
B |-------------0--3-------3p0--0---------|
G |---------------------------------------|
D |----------2----------------------------|
A |-------2-------------------------------|
E |--0---------------------------------1--|

|----------------------------------------|------------------------------------|
|---------------8-------8----------------|------------6--5---6----------------|
|------------9------9------9p0--0--------|---------7-------------7p0--0-------|
|---------9------------------------------|------7-----------------------------|
|------7-------------------------------6-|-5--------------------------------6-|
|-0--------------------------------------|------------------------------------|

|----------------------------------------|------------------------------------|
|---------------8-------8----------------|------------6--5---6----------------|
|------------9------9------9p0--0--------|---------7-------------7p0--0-------|
|---------9------------------------------|------7-----------------------------|
|-7----7-------------------------------6-|-5--------------------------------4-|
|----------------------------------------|------------------------------------|

|---------------0------------------------|-------------------0----------------|
|------------3------3--------------------|------------0--3-------3p0--0-------|
|---------0-------------0----------------|------------------------------------|
|------5--------------------5------------|---------2--------------------------|
|-3--------------------------------------|------2-----------------------------|
|--------------------------------------1-|-0--------------------------------1-|

5x - 2nd through 5th play with Riff E
e |--------------------0------------------|
B |-------------0--3-------3p0--0---------|
G |.-------------------------------------.|
D |.---------2---------------------------.|
A |-------2-------------------------------|
E |--0---------------------------------1--|

Riff E - Distortion
|--------------------------------------|--------------------------------------|
|--------------------------------------|--------------------------------------|
|--------------------------------------|--------------------------------------|
|-------/5--5--5--5---4---2------------|-------/5--5--5--5---4---5------------|
|-------/7--7--7--7---5---2------------|-------/7--7--7--7---5---7------------|
|--------------------------------------|--------------------------------------|

|--------------------------------------|--------------------------------------|
|--------------------------------------|--------------------------------------|
|-------/4--4--4--4--5p4--4------------|-------/4--4--4--4---2---4------------|
|-------/5--5--5--5-------5------------|-------/5--5--5--5---4---5------------|
|--------------------------------------|--------------------------------------|
|--------------------------------------|--------------------------------------|

then play:
E5 palm muted 10x and open 2x
Riff C
Riff A 4x w/ Fill 2 on the fourth time 'round

Fill 2 
    PM-----------------------|
e |----------------------------------------|
B |----------------------------------------|
G |----------------------------------------|
D |--2-2----2-2----2-2----2-2----2----2----|
A |--2-2----2-2----2-2----2-2----2----2----|
E |--0-0----0-0----0-0----0-0----0----0----|

3rd Verse - Riff B

Riff A 4x
E5 - let ring
Fill 2 - all palm muted

Closing Riff
e |--------------------------|
B |--------------------------|
G |--------------------------|
D |--4/5--5--4/5--5--4/5--2--|
A |--5/7--7--5/7--7--5/7--2--|
E |-----------------------0--|

21.The Prince

 P.M. -----------------|       P.M.   -----------------|
  ||-----------------------------------------------------------------||
  ||-----------------------------------------------------------------||
  ||*---------------------------------------------------------------*||
  ||*-------------------------5-------------------------------5---7-*||
  ||--5-----------------------3-------5-----------------------3---5--||
  ||--3---5-5---5-5---5-3-0-----------3---5-5---5-5-5-5-3-0----------||

    Guitar solo
  ||--------------|--22^--22^22^--22^22--|---------------------------------||
  ||--------------|----------------------|---------------------------------||
  ||--5--7--8--9--|----------------------|--7p5---5-7p5-9p5-8p5-7p5--------||
  ||--5--7--8--9--|----------------------|--------------------------7p5-7-/||
  ||--------------|----------------------|---------------------------------||
  ||--------------|----------------------|---------------------------------||

  ||-12-12-15p12-12-12-15p12----12-15p12-17p12-15p12----12-15p12-12-12-15p12-||
  ||-------------------------15----------------------15----------------------||
  ||-------------------------------------------------------------------------||
  ||-------------------------------------------------------------------------||
  ||-------------------------------------------------------------------------||
  ||-------------------------------------------------------------------------||

  ||-15p12----12-----|-------5h7h9-------5h7h9p5-----5h7h9-------5h9p5-9p7p5-||
  ||-------15----15^\|-5h7h9-------5h7h9---------7h9-------5h7h9-------------||
  ||-----------------|-------------------------------------------------------||
  ||-----------------|-------------------------------------------------------||
  ||-----------------|-------------------------------------------------------||
  ||-----------------|-------------------------------------------------------||

  ||-9p7p5-------|--------------------|3p1p0--------------------------------||
  ||-------9p7p5-|-9p5-10p5---5-----5-|------3p1p0--------------------------||
  ||-------------|----------7---7-----|------------2p0-----------------0p2p0||
  ||-------------|--------------------|----------------3p2p0----------------||
  ||-------------|--------------------|----------------------3p2p0----------||
  ||-------------|--------------------|----------------------------4p3------||

                                           Hold bend        
            P.M. -----|          ~~~~~ ~~~~~ ~~~~~ ~~~~~ ~~~~        P.M. -|
  ||-------------------------|----------------------------------------------||
  ||-------------------------|----------------------------------------------||
  ||-------------------------|-8-8^--8-8^--8-8^--8-8^--8-8^-8-12---9h12p9-9-||
  ||-2-1-0-------------5-----|----------------------------------------------||
  ||-------3-3p0-3---3-----7-|----------------------------------------------||
  ||-------------------------|----------------------------------------------||

  ||-----------------------|-12-15p12----17p12----15p12----17p12----15p12----||
  ||-----------------17--14|----------12-------12-------12-------12-------15\||
  ||9h12p9----9-12p9-17--14|-------------------------------------------------||
  ||-------10--------------|-------------------------------------------------||
  ||-----------------------|-------------------------------------------------||
  ||-----------------------|-------------------------------------------------||

  ||------------------------------------------------------------------------||
  ||--13-p10--------10h13-p10--------10h13-p10--------10h13p10----10h11h12--||
  ||----------12-p9------------12-p9------------12p9-----------12-----------||
  ||------------------------------------------------------------------------||
  ||------------------------------------------------------------------------||
  ||------------------------------------------------------------------------||

  ||--15p12----17p12----15p12----17p12----15p12-----||
  ||--------12-------12-------12-------12-------12--||
  ||------------------------------------------------||
  ||------------------------------------------------||
  ||------------------------------------------------||
  ||------------------------------------------------||

  ||--17h22p20-17h22p20-17h22p20-17h22p20-17h22p20p17----17-----||
  ||--------------------------------------------------20----20^-||
  ||------------------------------------------------------------||
  ||------------------------------------------------------------||
  ||------------------------------------------------------------||
  ||------------------------------------------------------------||

    Rhy. Fig. 2
    Only 1 guitar first time
        P.M. ---|   -|   P.M. -------|    P.M. ---|   -|       Play 3 times
  ||-----------------------------------------------------------------------||
  ||-----------------------------------------------------------------------||
  ||*-2-2-2------5-----7-7-5----------5-2-2-2------5-----7-7-5----------5^*||
  ||*-2-2-2------5-----7-7-5----------5-2-2-2------5-----7-7-5------------*||
  ||--0-0-0--5-7----7---------5-7-5-7---0-0-0--5-7----7-----------7p5h7----||
  ||-----------------------------------------------------------------------||

    Rhy. Fig. 3
        P.M. ---|   -|   P.M. -------|    P.M. ---|   -|    
  ||--------------------------------------------------------------------||
  ||--------------------------------------------------------------------||
  ||--2-2-2------5-----7-7-5----------5-2-2-2------5-----7-7-5--/8-7-5--||
  ||--2-2-2------5-----7-7-5----------5-2-2-2------5-----7-7-5--/8-7-5--||
  ||--0-0-0--5-7----7---------5-7-5-7---0-0-0--5-7----7-----------------||
  ||--------------------------------------------------------------------||
  
    Repeat Rhy. Fig. 2 once
    Repeat Rhy. Fig. 3 once

    Rhy. Fig. 4 (next 2 bars)
               P.M. ---| P.M. -----|
  ||-------------|---------------------------------|-------------||
  ||-------------|---------------------------------|-------------||
  ||------5------|---------------------------------|-------------||
  ||--2---3---7--|--------5-----------5---7-7-7-7--|--2-------7--||
  ||--0-------5--|--0-3---3---0-3-3---3---5-5-5-5--|--0---3---5--||
  ||-------------|---------------------------------|------1------||

 P.M. ---| P.M. -----|           P.M. ---| P.M. -----|
  ||-----------------------------------------------------------------||
  ||-----------------------------------------------------------------||
  ||-----------------------------------------------------------------||
  ||--------5-----------5---7-7-7-7---------5-----------5---7-7-7-7--||
  ||--0-3---3---0-3-3---3---5-5-5-5---0-3---3---0-3-3---3---5-5-5-5--||
  ||-----------------------------------------------------------------||

    Rhy. Fig. 5
        P.M. ---|   -|   P.M. -------|    P.M. ---|   -|
  ||---------------------------------------------------------------||
  ||---------------------------------------------------------------||
  ||--2-2-2------5-----7-7-5----------5-2-2-2------5-----7-7--6-5--||
  ||--2-2-2------5-----7-7-5----------5-2-2-2------5-----7-7--6-5--||
  ||--0-0-0--5-7----7---------5-7-5-7---0-0-0--5-7----7------------||
  ||---------------------------------------------------------------||

    Repeat Rhy. Fig. 2 once
    Repeat Rhy. Fig. 3 once
    Repeat Rhy. Fig. 2 once
    Repeat Rhy. Fig. 3 once
    Repeat Rhy. Fig. 4 once
    Repeat Rhy. Fig. 2 twice

    Note in parantheses is only played fourth time
     P.M. -------|   P.M. -------|   P.M. -------| Play 4 times
  ||-----------------------------------------------------------||
  ||-----------------------------------------------------------||
  ||*---------------------------------------------------------*||
  ||*-------------7---------------5---------------7---7-----5-*||
  ||--5/7---------7---5/7---------5---5/7---------7---5-----3--||
  ||--3/5-5-5---5-----3/5-5-5---5-----3/5-5-5(5)5--------------||

    Gtr. 2 only plays notes in parantheses first time
        P.M. ---|   -|   P.M. ------|     P.M. ---|   -|     -----------|
  ||----------------------------------------------------------------------||
  ||-------------------3-3------------------------------------------------||
  ||*-2-2-2----------------5------------2-2-2------------2-0-------------*||
  ||*--------0-2-5--0---------0--0-2-5---------0-2-5--0------2-1-0-------*||
  ||-(7\)----------------------------------------------------------4-3-2--||
  ||-(5\)-----------------------------------------------------------------||

    Gtr. 1
      P.M. ---|   -|   P.M. ------|     P.M. ---|   -|
  ||------------------------------------------------------------------------||
  ||------------------3-3---------------------------------------------------||
  ||-2-2-2----------------5------------2-2-2------------2---0h2-------------||
  ||-------0-2-5--0---------0--0-2-5---------0-2-5--0-----------2-1-0-------||
  ||------------------------------------------------------------------3-2-1-||
  ||------------------------------------------------------------------------||
  | Gtr. 2                                                                   |
  ||------------------------------------------------------------------------||
  ||------------------------------------------------------------------------||
  ||-5-5-------------------------------5-5----------------------------------||
  ||------------------------------------------------------------------------||
  ||------------------------------------------------------------------------||
  ||------------------------------------------------------------------------||

    Gtr. 1                                  Gtr. 3 enters second time
  ||-----------------------------------------------------------------||
  ||-----------------------------------------------------------------||
  ||*-2-------4---5-----------4---5--------------------------/5---4-*||
  ||*-----------------3-----------------------0---1---2-------------*||
  ||----------------------------------3------------------------------||
  ||-----------------------------------------------------------------||
  | Gtr. 2                                                            |
  ||-----------------------------------------------------------------||
  ||-----------------------------------------------------------------||
  ||*---------------------------------------------------------------*||
  ||*-2-------------------------------5-----------------------------*||
  ||--0---------------3---------------3---------------2--------------||
  ||------------------1-------------------------------0--------------||
  | Gtr. 3                                                            |
  ||-----------------------------------------------------------------||
  ||---------------------------------------------------------/5---3--||
  ||-----------------------------------------------------------------||
  ||-----------------------------------------------------------------||
  ||-----------------------------------------------------------------||
  ||-----------------------------------------------------------------||

    Gtr. 1
  ||-----------------------------------------------------------------||
  ||-----------------------------------------------------------------||
  ||*-2-------4---5-----------4---5--------------------------/5---4-*||
  ||*-----------------3-----------------------0---1---2-------------*||
  ||----------------------------------3------------------------------||
  ||-----------------------------------------------------------------||
  | Gtr. 2                                                            |
  ||-----------------------------------------------------------------||
  ||-----------------------------------------------------------------||
  ||*---------------------------------------------------------------*||
  ||*-2-------------------------------5-----------------------------*||
  ||--0---------------3---------------3---------------2--------------||
  ||------------------1-------------------------------0--------------||
  | Gtr. 3                                                            |
  ||-----------------------------------------------------------------||
  ||----------3---5-----------3---5--------------------------/5---3--||
  ||*-5---------------2---------------0-----------0---1-------------*||
  ||*-----------------------------------------4---------------------*||
  ||-----------------------------------------------------------------||
  ||-----------------------------------------------------------------||

 P.M. -----------------------------|
  ||---------------------------------||
  ||---------------------------------||
  ||---------------------------------||
  ||--7-7---------5-5---------2-2-2--||
  ||--------5-5---------3-3----------||
  ||---------------------------------||

    Gtr. 1
        P.M. ---|   -|   P.M. -------|    P.M. ---|   -|
  ||-----------------------------------------------------------------------||
  ||-----------------------------------------------------------------------||
  ||--2-2-2------5-----7-7-5----------5-2-2-2------5-----7-7-5----------5^-||
  ||--2-2-2------5-----7-7-5----------5-2-2-2------5-----7-7-5-------------||
  ||--0-0-0--5-7----7---------5-7-5-7---0-0-0--5-7----7-----------7p5h7----||
  ||-----------------------------------------------------------------------||
  | Gtr. 2                                                                  |
  ||-----------------------------------------------------------------------||
  ||-----------------------------------------------------------------------||
  ||-----------------------------------------------------------------------||
  ||-----------------------------------------------------------------------||
  ||--7-7-7--\--------------------------7-7-7--\---------------------------||
  ||--5-5-5--\--------------------------5-5-5--\---------------------------||

    Repeat Rhy. Fig. 5 once
    Repeat Rhy. Fig. 2 once
    Repeat Rhy. Fig. 3 once
    Repeat Rhy. Fig. 2 once
    Repeat Rhy. Fig. 3 once
    Repeat Rhy. Fig. 4 once

               P.M. ---| P.M. -----|
  ||-------------|---------------------------------|-------------||
  ||-------------|---------------------------------|-------------||
  ||------5------|---------------------------------|-------------||
  ||--2---3---7--|--------5-----------5---7-7-7-7--|--2-------7--||
  ||--0-------5--|--0-3---3---0-3-3---3---5-5-5-5--|--0---3---5--||
  ||-------------|---------------------------------|------1------||

 P.M. ---| P.M. -----|           P.M. ---| P.M. -----|
  ||-----------------------------------------------------------------||
  ||-----------------------------------------------------------------||
  ||*---------------------------------------------------------------*||
  ||*-------5-----------5---7-7-7-7---------5-----------5---7-7-7-7-*||
  ||--0-3---3---0-3-3---3---5-5-5-5---0-3---3---0-3-3---3---5-5-5-5--||
  ||-----------------------------------------------------------------||

22.Stone Cold Crazy

INTRO TREMLO
if you dont have a whammy bar then bend back and fourth
E|-----7b8----7b8----7b8----7b8---7b8v~-----------
B|------------------------------------------------
G|------------------------------------------------
D|------------------------------------------------
A|------------------------------------------------
E|------------------------------------------------

Chorus:

E|---------------------------------------------------------------------
B|---------------------------------------------------------------------
G|----0------------------------------0---------------------------------  X4
D|----0-------------------3----------0---------------------------------
A|------------------------1-----------------------------1-3-3-3-1-3-4-5
E|--------1-3-3-3-3-3-3-------------------1-3-3-3-3-3-3----------------


Then Singing:

while singing couple power chords:
E|---------------------------------------------------------------
B|---------------------------------------------------------------3
G|---------------------------------------------------------------0
D|------5----------5--5-----5-5-5-5----8----8---8----------------0
A|------5----------5--5-----5-5-5-5----8----8---8---drums-then:--
E|------3----------3--3-----3-3-3-3----6----6---6----------------
 
Repeat Chorus except play twice not 4x:
On second time accent 5 and stop
Then it goes into
E|-------------------------------
B|-------------------------------
G|------------------------------- 
D|-------------------------------
A|----5---6---7-8----------------
E|----3---4---5-6----------------

Then Being Played while second Guitar plays Solo:
E|-----------------------------------------------------------------
B|-----------------------------------------------------------------
G|-----------------------------------------------------------------
D|-------9-------9--------9-----------------9----------9-----9-9-9-
A|-------9-------9--------9-----------------9----------9-----9-9-9-
E|---7-7-----7-7------7-7----7-7-7-7-7-7-7--7--7-7-7-7---7-7---7-7-

E|------------------------------------------------
B|------------------------------------------------
G|------------------------------------------------
D|-------9-7--------------------------------------
A|-----------9-7----------------------------------
E|---------------10-7-----------------------------

Back to chorus but only play twice not 4x:
Then:

E|------------------------------------------------
B|--------------------------------8---------------
G|-----------------------7/-10-10-12-7------------
D|----5------------------5/-8--8-----5------------
A|----5-------------------------------------------
E|----3---------3###------------------------------
Drums then play this after that:
E|------------------------------------------------
B|------------------------------------------------
G|------5--Ring--5-Accent--drums-3--4-------------
D|------5--------3---------------3--4-------------
A|------3--------3---------------1--2-------------
E|------------------------------------------------
While second Guitar is playing solo
E|-----------------------------------------------------------------
B|-----------------------------------------------------------------
G|----------------------------------------------------------------- 
D|-------9-------9--------9-----------------9----------9-----9-9-9-
A|-------9-------9--------9-----------------9----------9-----9-9-9-
E|---7-7-----7-7------7-7----7-7-7-7-7-7-7--7--7-7-7-7---7-7---7-7-
								x3
E|------------------------------------------------
B|------------------------------------------------
G|------------------------------------------------
D|-------9-7--------------------------------------
A|-----------9-7----------------------------------
E|---------------10-7-----------------------------
Play Both in that order

Back to Chorus play it twice:
After you play that go into this:
E|------------------------------------------------
B|------------------------------------------------
G|------------------------------------------------
D|-------5##-X-X-X--------------5-Acent-----------
A|-------5##-X-X-X--------------3-----------------
E|-------3##-X-X-X--------------3-----------------
Then This:
E|------------------------------------------------
B|------------------------------------------------
G|-------5------------5-Ring------5---------------
D|-------5------------3-----------3---------------
A|-------3------------3-----------3---------------
E|------------------------------------------------
And Ends With Chorus Fading Out:

23.So What

Intro
  Q=189
 4/4
  Gtr I
                         PM               PM
  H    Q  E E   Q  E E E E E E   Q  E E E E E E
|-------------|----------------|----------------|
|-------------|----------------|----------------|
|-------------|----------------|----------------|
|---------5s7-|-7--7-7-7---5s7-|-7--7-7-7---5s7-|
|---------5s7-|-7--7-7-7---5s7-|-7--7-7-7---5s7-|
|---------3s5-|-5--5-5-5-0-3s5-|-5--5-5-5-0-3s5-|


    PM      PM                 PM
  E E E E E E E E   Q   E E E  E E E
|-----------------|------------------|
|-----------------|------------------|
|-----------------|------------------|
|-7---5s7-7---5s7-|-7---7-7-7----5s7-|
|-7---5s7-7---5s7-|-7---7-7-7----5s7-|
|-5-0-3s5-5-0-3s5-|-5---5-5-5--0-3s5-|
|
|Gtr II
| W                 H       H
|-----------------|------------------|
|-----------------|------------------|
|-----------------|------------------|
|-----------------|------------------|
|-----------------|------------------|
|-----------------|-x\------x\-------|


  Gtrs I, II
           PM               PM        PM      PM
  Q  E E E E E E   Q  E E E E E E   E E E E E E E E   Q  E E Q  E E
|----------------|----------------|-----------------|----------------||
|----------------|----------------|-----------------|----------------||
|----------------|----------------|-----------------|----------------||
|-7--7-7-7---5s7-|-7--7-7-7---5s7-|-7---5s7-7---5s7-|-7--7-7-7--7-7--||
|-7--7-7-7---5s7-|-7--7-7-7---5s7-|-7---5s7-7---5s7-|-7--7-7-7--7-7--||
|-5--5-5-5-0-3s5-|-5--5-5-5-0-3s5-|-5-0-3s5-5-0-3s5-|-5--5-5-5--5-5--||
|-Rhy Fig 1                                            end Rhy Fig 1-|

   Verse 1 - 4
  $
       PM--------------------------------------------|
    Q  E E E E E E   E E E E E E E E   E E E E E E E E   E E E E E E E E
||-----------------|-----------------|-----------------|-----------------|
||o----------------|-----------------|-----------------|-----------------|
||--7--7-7-7-7-7-7-|-7-7-7-7-7-7-7-7-|-7-7-7-7-7-7-7-7-|-7-7-7-7-7-------|
||--7--7-7-7-7-7-7-|-7-7-7-7-7-7-7-7-|-7-7-7-7-7-7-7-7-|-7-7-7-7-7---5s7-|
||o-5--5-5-5-5-5-5-|-5-5-5-5-5-5-5-5-|-5-5-5-5-5-5-5-5-|-5-5-5-5-5---5s7-|
||-----------------|-----------------|-----------------|-----------0-3s5-|
 |-Rhy Fig 2                                               end Rhy Fig 2-|


Rhy Fig 1

Rhy Fig 2 (1st 2 bars)


 ---------------|
  E E E E E E E E       E      E E E E E E E
|--------------------|-----------------------|
|--------------------|-----------------------|
|-7-7-7-7-7-7-7-7----|--7------7-7-7-7-------|
|-7-7-7-7-7-7-7-7----|--7------7-7-7-7---5s7-|
|-5-5-5-5-5-5-5-5----|--5------5-5-5-5---5s7-|
|--------------------|-----------------0-3s5-|
|
|-substiture 2nd time
|                                PM
| E E E E E E E E      +S  +S  E E E E E Q
|--------------------|-----------------------|
|---------------7b8==|=(7)r(7)---------5-0---|
|-7-7-7-7-7-7---7b8==|=(7)r(7)p5---7---5-0---|
|-7-7-7-7-7-7-0------|-----------7---5---0---|
|-5-5-5-5-5-5-0------|-----------5---5-------|
|--------------------|-----------------------|
|
|-substiture 3rd time
| PM----|               PM         PM
| E E E E E E E E       E      Q   E E E E E
|--------------------|-----------------------|
|---------7-7-7-7----|-----------------------|
|-7-7-7-7-7-7-7-7----|---------5-----5-------|
|-7-7-7-7-7-7-7-7----|---------5-----5-5-5s7-|
|-5-5-5-5-5-5-5-5----|--7----------7-----5s7-|
|--------------------|-------------------3s5-|
|
|-substiture 4th time
| W                    E E E E   +Q      E E
|--------------------|-----------------------|
|--------------------|-------7b8=(7)r\-------|
|--------------------|-5-7-5-7b8=(7)r\-------|
|--------------------|-5-7-5-------------5s7-|
|--------------------|-------------------5s7-|
|--------------------|-------------------3s5-|


Rhy Fig 1 (1st 3 bars)


  Gtr III
  W              H.      +Q     H.             Q      W
|--------------|-1-------(1)S=|=6-------------------|------------------|
|--------------|-1-------(1)S=|=6--------------6\---|------------------|
|--------------|--------------|---------------------|------------------|
|--------------|--------------|---------------------|------------------|
|--------------|--------------|---------------------|------------------|
|--------------|--------------|---------------------|------------------|
|              |-Fill 2                  end Fill 2-|
| Gtrs I, II
|                                                               PM
| Q  E E Q  Q    H.       Q     E  E E E +E  E E  E   E E E E e E E E
|--------------|--------------|---------------------|------------------|
|--------------|--------------|---------------------|------------------|
|--------------|--------------|---------------------|------------------|
|-7--7-7-7--7S=|=3--------3S==|=8--8-8-8-(8)-8-8--8-|-7-7-7-7-7---5s7--|
|-7--7-7-7--7S=|=3--------3S==|=8--8-8-8-(8)-8-8--8-|-7-7-7-7-7---5s7--|
|-5--5-5-5--5S=|=1--------1S==|=6--6-6-6-(6)-6-6--6-|-5-5-5-5-5-0-3s5--|
|-Fill 1     --||-Rhy Fig 3


               |-w/Fill 2
  Q  E E Q  Q    H.       Q     E  E E E +E  E E  E
|--------------|--------------|---------------------|
|--------------|--------------|---------------------|
|--------------|--------------|---------------------|
|-7--7-7-7--7S=|=3--------3S==|=8--8-8-8-(8)-8-8--8-|
|-7--7-7-7--7S=|=3--------3S==|=8--8-8-8-(8)-8-8--8-|
|-5--5-5-5--5S=|=1--------1S==|=6--6-6-6-(6)-6-6--6-|
                                      end Rhy Fig 3-|

                                           To Coda
  Gtrs I, II
  Rhy Fig 1 (1st 3 bars)


  1.,2.             3.
  Gtr III
                         TP TP   TP
  W                 Q  E E +Q   +Q
|----------------||------x-(x)--(x)---||
|---------------o||-------------------||
|----------------||-------------------||
|----------------||-------------------||
|---------------o||-------------------||
|----------------||-------------------||
|
| Gtrs I, II
| Q  E E Q  E E     Q  E E  Q    E  E
|----------------||-------------------||
|---------------o||-------------------||
|----------------||-------------------||
|-7--7-7-7--7-7--||-7--7-7--7----7--7-||
|-7--7-7-7--7-7-o||-7--7-7--7----7--7-||
|-5--5-5-5--5-5--||-5--5-5--5----5--5-||


 Guitar Solo
w/Rhy Fig 2
   Q      E  E  E  E  E E    E  E  E  E  E  E  E  E
|-10-----10-10-10-10-10-7s|=10-10-10-10-10-10-10-10-|
|-10-----10-10-10-10-10-7s|=10-10-10-10-10-10-10-10-|
|-12b14-------------------|-------------------------|
|-------------------------|-------------------------|
|-------------------------|-------------------------|
|-------------------------|-------------------------|


   E      +E    Q    E      +E    E  E        +E    E  E     E  E     E  E       E
|--------------10----------------10--------|-------10-------10-------10-------------|
|-13b15==(13)r-10---13b15==(13)r-10-10-----|-(10)--10-10----10-10----10-------------|
|-12b14==(12)r------12b14==(12)r----12b14==|=(12)r----12b14----12b14----12pb12.5s4--|
|------------------------------------------|----------------------------------------|
|------------------------------------------|----------------------------------------|
|------------------------------------------|----------------------------------------|


w/Rhy Fig 1
  E   +S  S E E E E E E      +Q    a    +E  +E  a    +E  +E  E E
|--------------------------|-------------------------------------|
|---------------5-7-7-7b8==|=(7)r--7b8==(7)r(7)-7b8==(7)r(7)-5---|
|-7b9r(7)p5-5---5-7-7-7b9==|=(7)r--7b9==(7)r(7)-7b9==(7)r(7)-5---|
|-------------7------------|-----------------------------------7-|
|--------------------------|-------------------------------------|
|--------------------------|-------------------------------------|


                                ~~~~~~
  E E    +E   E E E E E   E E E E +Q   E E
|-----------------------|------------------|
|---7b8==(7)r-----5-7p5-|-----7-5-(5)------|
|-5-7b8==(7)rp5---5-7p5-|---5-7-5-(5)--3s8-|
|---------------7-------|-7----------------|
|-----------------------|------------------|
|-----------------------|------------------|


w/Rhy Fig 2
    E  E  E  E  E  E  E  E    S  S  E  E  E  E  E     E  E
|-/10-10-10-10-10-10-10-10-|-------------------------10-10-|
|-/10-10-10-10-10-10-10-10-|-13p10-------------------10-10-|
|--------------------------|-------12-10----10-12b13-------|
|--------------------------|-------------12----------------|
|--------------------------|-------------------------------|
|--------------------------|-------------------------------|


                                                             ~~~~~~~~
   S  S  E  E  E  S  S  S  S  E  E    E  E  S      +E.    E  E  +Q
|----------------------------------|-----------------------------------|
|-13p10----10-13-10h13p10----------|-----------------------------------|
|-------12----------------12-10----|-10-12-12pb14r(12)---10------------|
|-------------------------------12-|------------------------12-(12)\---|
|----------------------------------|-----------------------------------|
|----------------------------------|-----------------------------------|

w/Rhy Fig 1 (1st 3 bars)
                    ~~             ~~~~~~
  Q     +E  +S  S E Q.       E E E E +Q    E E
|--------------------------|-------------------|
|--------------------------|-5-----------------|
|-7b9===(7)r(7)-5-5--------|-5-----------------|
|-------------------7------|---7-5-7-(7)---7-7-|
|--------------------------|-------------------|
|--------------------------|-------------------|

                          |-w/Fill 1
  E E E E    +E   E S S E   E E E E +E  +E   E  E
|-----------------5-------|------------------------|
|-5-----------------8p5---|------------------------|
|-5---5-7b8==(7)r-------7-|-5---5--------------17--|
|---7---------------------|---7---7-(7)-(7)s19-----|
|-------------------------|------------------------|
|-------------------------|------------------------|


w/Rhy Fig 3
                  ~~~~~~~
   E      +E   E  E  +E   E  E  E
|---------------------------------|
|---------------------------------|
|-19pb21r(19)-17------------17-19-|
|----------------19-(19)-19-------|
|---------------------------------|
|---------------------------------|


                  ~~~~~~~
   E      +E   E  E  +E   E  E  S  S    S  S  E  E  E  E  E  E  E
|---------------------------17-20p17-|-20p17--------------------------|
|----------------20-(20)-20----------|-------20-17--------------------|
|-19pb21r(19)-17---------------------|-------------19-17----17-19b21==|
|------------------------------------|-------------------19-----------|
|------------------------------------|--------------------------------|
|------------------------------------|--------------------------------|


                        ~~~~~                    ~~~~~~~
   +E   E  E  +E       +H          E     +E   E  E  +E   E  E  E
|-------------------------------|--------------------------------|
|------20-----------------------|--------------------------------|
|-(19)----19r(19)b21==(19)r-----|-19b21r(19)-17------------17-19-|
|-------------------------------|---------------19-(19)-19-------|
|-------------------------------|--------------------------------|
|-------------------------------|--------------------------------|


                  ~~~~~~~
   E      +E   E  E  +E   E  E  E
|---------------------------------|
|----------------20-(20)-20-17----|
|-19pb21r(19)-17---------------19-|
|---------------------------------|
|---------------------------------|
|---------------------------------|

w/Rhy Fig 1
   Q      Q        +E    Q.          Q.       E      +Q      Q
|---------------------------------|---------------------------------|
|--------19b20====(19)r-19b20-----|-19b20----19b20==(19)r---19b20---|
|-19b21--19b21====(19)r-19b21-----|-19b21----19b21==(19)r---19b21---|
|---------------------------------|---------------------------------|
|---------------------------------|---------------------------------|
|---------------------------------|---------------------------------|


                                               ~~~
   E  E  E  E  E  E  E  E    S  S  E  E  E  a  Q.     +E     D.S. al Coda
|-------------------------|---------------------------------||
|-------------17----17----|---------------------------------||
|-17----------17----17-19-|-20p17----17---------------------||
|----19-17-19----19-------|-------19----19-17h19-----(19)\--||
|-------------------------|---------------------------------||
|-------------------------|---------------------------------||


 Outro
  &
    PM                                  ~~~
  E E E E H      +W           +H.      +Q
|--------------:------------:---------------:
|--------------:------------:---------------:
|--------------:------------:---------------:
|-7---5s7-7----:-(7)--------:-(7)------(7)--:
|-7---5s7-7----:-(7)--------:-(7)------(7)--:
|-5-0-3s5-5----:-(5)--------:-(5)------(5)--:


   ~~~~~~~~~~~~
  +H.      +E  S S   H     H
|------------------|------------*|
|------------------|------------*|
|------------------|------------*|
|-(7)------(7)-7-7-|-7\---------*|
|-(7)------(7)-7-7-|-7\---------*|
|-(5)------(5)-5-5-|-5\---------*|

24.Killing Time

Intro: Drums for 4 beats, then this slide down the neck:
Eb-----------------------------------------------------
Bb-----------------------------------------------------
Gb-----------------------------------------------------
Db-----------------------------------------------------
Ab-12-12-12-12-12-12-12-12-12-12/11/10/9/8/7/6/5/4/3/2-
Eb-----------------------------------------------------
Intro Riff:
Eb-----------------------------------------------------
Bb-----------------------------------------------------
Gb-----2-------2-------2---------5---------------------
Db-----2-------2-------2---------5---------------------
Ab-0-0-0-0-0-0-0-0-0-0-0-0-0-0-0-3---------------------
Eb-----------------------------------------------------
(gtr.1 James Hetfield)
Eb-----------------------------------------------------
Bb-----------------------------------------------------
Gb-----2-------2-------2---------7---------------------
Db-----2-------2-------2---------7---------------------
Ab-0-0-0-0-0-0-0-0-0-0-0-0-0-0-0-5---------------------
Eb-----------------------------------------------------
|(Gtr. II Kirk Hammett)
Eb--------------------------------------------19-------
Bb-----------------------------------------20----20----
Gb--------------------------------------19-------------
Db-----------------------------------19----------------
Ab-----------------------------------------------------
Eb-----------------------------------------------------

Eb-----------------------------------------------------
Bb-----------------------------------------------------
Gb-----2-------2-------2---------5---------------------
Db-----2-------2-------2---------5---------------------
Ab-0-0-0-0-0-0-0-0-0-0-0-0-0-0-0-3---------------------
Eb-----------------------------------------------------
|
Eb-----------------------------------------------------
Bb------------------------------------------19-20------
Gb---------------------------------------19------------
Db------------------------------------19---------------
Ab-----------------------------------------------------
Eb-----------------------------------------------------

Eb-----------------------------------------------------
Bb-----------------------------------------------------
Gb-----2-------2-------2---------7---------------------
Db-----2-------2-------2---------7---------------------
Ab-0-0-0-0-0-0-0-0-0-0-0-0-0-0-0-5---------------------
Eb-----------------------------------------------------
|
Eb---------------------------------------20b22b20--17--
Bb-----------------------------------------------------
Gb-----------------------------------------------------
Db-----------------------------------------------------
Ab-----------------------------------------------------
Eb-----------------------------------------------------
(End Intro)
Main/Verse Riff
Eb-----------------------------------------------------
Bb-----------------------------------------------------
Gb--------7h5---5--------------------------------------
Db------------7-------7h5---5--7-----------------------
Ab---0-0-----------0------7----------------------------
Eb-----------------------------------------------------

Eb-----------------------------------------------------
Bb-----------------------------------------------------
Gb--------7h5---5--------------------------------------
Db------------7-------7h5---5--5-----------------------
Ab---0-0-----------0------7----------------------------
Eb-----------------------------------------------------

Repeat this riff three more times then play this:
Eb-----------------------------------------------------
Bb-----------------------------------------------------
Gb---3------5------------------------------------------
Db---3------5------------------------------------------
Ab---1------3------------------------------------------
Eb-----------------------------------------------------
(End main riff)

Play the main riff twice for one verse.

Chorus:
   Pm.
Eb-----------------------------------------------------
Bb-----------------------------------------------------
Gb-----7--------------3-----5--------------------------
Db-----7--------------3-----5--------------------------
Ab-----5--------------1-----3--------------------------
Eb--0--------------------------------------------------
Repeat Four Times
(End Chorus)
Interlude (After 2nd Chorus):
                             (slow bend)    
Eb-----------------------------------------------------
Bb-----------------------------------------------------
Gb-----9---12---11--10--9----7b------7-5-------7-5-----
Db-----7---10---9---8---7----7b-----------6-7----------
Ab---0---0----0---0---0--------------------------------
Eb-----------------------------------------------------

Eb-----------------------------------------------------
Bb-----------------------------------------------------
Gb----------------------5------------------------------
Db---------------5-6-7-------7-------------------------
Ab--------5-6-7----------------------------------------
Eb-5-6-7-----------------------------------------------
|                                      Hold Bend
Eb-------------------------------------15b17--17--17---
Bb-----------------------------------------------------
Gb-----------------------------------------------------
Db-----------------------------------------------------
Ab-----------------------------------------------------
Eb-----------------------------------------------------

Solo:
Eb--15b17--17-19-20-19--17h19h17-----17----------------
Bb--------------------------------20----20b22----------
Gb-----------------------------------------------------
Db-----------------------------------------------------
Ab-----------------------------------------------------
Eb-----------------------------------------------------

Eb-17-17------17-17--------17-17----------17-17--------
Bb------20b22-------20b22--------20b22----------20b22--
Gb-----------------------------------------------------
Db-----------------------------------------------------
Ab-----------------------------------------------------
Eb-----------------------------------------------------

Eb--17-17---------20b22-20b22-20b22---22b24------------
Bb--------20b22----------------------------------------
Gb-----------------------------------------------------
Db-----------------------------------------------------
Ab-----------------------------------------------------
Eb-----------------------------------------------------

Eb--15---17-19-20-19-17-19--17h19h17-----17------------
Bb------------------------------------20-----20b22-----
Gb-----------------------------------------------------
Db-----------------------------------------------------
Ab-----------------------------------------------------
Eb-----------------------------------------------------

Eb--17h15----15---------------------------15---------15
Bb--------17-----17h15----15h17----15b17-----15b17-----
Gb---------------------17------------------------------
Db-----------------------------------------------------
Ab-----------------------------------------------------
Eb-----------------------------------------------------

Eb-----------------------------------------------------
Bb---15b17b15--13--------------------------------------
Gb-----------------------------------------------------
Db-----------------------------------------------------
Ab-----------------------------------------------------
Eb-----------------------------------------------------
(End Solo)
Outro after final chorus:
Eb-15b17-17-17--17p15-----19h20---15--15h17-17-15h17---
Bb--------------------17-------------------------------
Gb-----------------------------------------------------
Db-----------------------------------------------------
Ab-----------------------------------------------------
Eb-----------------------------------------------------
|
Eb-----------------------------------------------------
Bb-----------------------------------------------------
Gb----------------------------------------------------
Db----------------------------------------7-7--7-------
Ab----------------------------------------7-7--7-------
Eb----------------------------------------5-5--5-------

25.Overkill

1)
Db-----9-9-9--9-9-9-9--9-9-9--9-9-9-9
Ab-----7-7-7--7-7-7-7--7-7-7--7-7-7-7
Eb--///0-0-0--0-0-0-0--0-0-0--0-0-0-0
drum and bass intro into this


2)
Gb--7--9/7--9/7--9/7-------------
Db--5--7/5--7/5--7/5--7/5--7/5--5
Ab--------------------5/3--5/3--3
Eb-------------------------------
verse


3)
Gb------7--------7/9------7--------7/9-----------
Db------5--------5/7------5--------5/7--5--7/5--7
Ab--------------------------------------3--5/3--5
Eb--0-0----0-0-0------0-0----0-0-0---------------
  pm...    .....      ...    .....
more verse
play twice


4)
Gb---------------2
Db-----4-2-4-----0
Ab--4--2-0-2--4---
Eb--2---------2---
"Overkill"


4)
Db-----7--5--5-4-5-4--
Ab--2--5--3--3-2-3-2-2
Eb--0----------------0
end riff (and under solo)

26.Damage Case

1)
Gb----7---7---7---9---7---7---7---9
Db----5---5---5---7---5---5---5---7
Ab---------------------------------
Eb--0---0---0---0---0---0---0---0--
   pm   .   .   .   .   .   .   .
intro


2)
Gb------------------------------7-7
Db------------------------------5-5
Ab--7p5-7p5-7p5-7p5-7p5-7p5-7p5----
Eb--0-0-0-0-0-0-0-0-0-0-0-0-0-0----
"Hey Babe don't act so scared..."
main verse


3)
Gb-------------------------------------
Db----4-----7----4-----7----4-----7---2
Ab--2-2--5--5--2-2--5--5--2-2--5--5---2
Eb-------3----------3----------3------0
   pm          .          .
"And I can tell by your face..."


4)
Gb----------------------
Db--4----------------2-4
Ab--2--5---4-2-4-0-4-0-2
Eb-----3---2-0-2-0-2----
          pm........
"Move over for a damage case!"


5)
(key change after solo #1)
Gb-------------------------------------
Db--2-2-----------------------------2-2
Ab--0-0-4---4---4---4---4---4---4---0-0
Eb------2p0-2p0-2p0-2p0-2p0-2p0-2p0----
"Hey babe, don't turn away"


6)
Gb----------4----------4----------4--6
Db----6--2--2----6--2--2----6--2--2--6
Ab--4-4--0-----4-4--0-----4-4--0-----4
Eb------------------------------------
   pm          .          .
"And I can tell by your face"


7)
Gb--------------------------------
Db--6-6-6-6-4-4-4-4--4-2-4-2-4-5-6
Ab--4-4-4-4-2-2-2-2--2-0-2-0-2-3-4
Eb--------------------------------
"Move over for a damage case"

27.Stone Dead Forever

bass intro
1)
Gb--9---7---5-------2---9
Db--9---7---5---5---2---9
Ab--7---5---3---5---0---7
Eb--0-----------3-------0
guitar intro


2)
Gb--9-7/9--9-7/9--9-7/9-----2--9-7/9--9-7/9--9-7/9--5--4
Db--9-7/9--9-7/9--9-7/9--5--2--9-7/9--9-7/9--9-7/9--5--4
Ab--7-5/7--7-5/7--7-5/7--5--0--7-5/7--7-5/7--7-5/7--3--2
Eb-----------------------3------------------------------
     pm      .      .            .      .      .
Can't you see me


3)
Gb---------------------------------------
Db----7---7---7---7---9---9---9---9--5--4
Ab----7---7---7---7---9---9---9---9--5--4
Eb--5---5---5---5---7---7---7---7----3--2


4)
Gb---------------------------------------------
Db----7---7---7---7---9---9---9---9--5--4--3--2
Ab----7---7---7---7---9---9---9---9--5--4--3--2
Eb--5---5---5---5---7---7---7---7----3--2--1--0
Right there on your own.............Stone Dead Forever!!!


5)
Gb--------2--5--7
Db--2--5--2--5--7  twice then to intro riff
Ab--2--5--0--3--5
Eb--0--3---------

28.Too Late Too Late

1)
Gb----------7------------
Db--5h7-7-7---7-7--------
Ab--0-0-0-0-------0-5-6-7
Eb-----------------------
  pm.......       .......
opening riff (play it a few times and see if it seems familiar
on the fancan Lars was talking about a Motorhead rip-off here it is)


2)
Gb-----------------------------
Db--5h7-7-7-7-7-7-7-7-7--------
Ab--0-0-0-0-0-0-0-0-0-0-0-5-6-7
Eb-----------------------------
  pm...........................
"I see that nothing's changed,


3)
Gb--9-9--7--4--2
Db--9-9--7--4--2
Ab--7-7--5--2--0
Eb--------------
"What do I have to loose"


4)
Gb----------4-----------
Db--2h4-4-4---4--0-2-3-4
Ab--2-2-2-2-------------
Eb----------------------
  pm.......      .......
I want to post or [tab]
guest
You may want to rate the tab now too:
select rating
Please do not post tabs as comments. Select "correction" instead!