Oops, an error
Loading. Please wait.

Hero Of The Day Tab

ver5
ver5

Whole song

More versions @911Tabs.com
17,326 views 30 this week
no commentswrite comment
1 2 3 4 5
excellent!
x 5
Autoscroll
+/-
esc
set tempo
stop
Contributor
Difficulty
Tuning
novice
D# G# C# F# A# D#
WARNING: You are trying to view
                                    content from Ultimate-Guitar.com
                                    in an unauthorized application,
                                    which is prohibited.

                                    Please use an official Ultimate
                                    Guitar Tabs application for iPhone,
                                    iPad or Android to access legitimate
                                    chords, guitar, bass, and drum tabs
                                    from Ultimate-Guitar.com database.

                                    Type "ultimate guitar tabs" in Apple
                                    App Store's or Android Market's
                                    search to find the application.
#----------------------------------PLEASE NOTE---------------------------------#
#This file is the author's own work and represents their interpretation of the #
#song. You may only use this file for private study, scholarship, or research. #
#------------------------------------------------------------------------------##

                                 HERO OF THE DAY
                            As recorded by Metallica
                           (From the 1995 Album LOAD)

Words by James Hetfield

Music by James Hetfield & Lars Ulrich
Arranged by James Hetfield & Lars Ulrich
Transcribed by Dennis Ingmarsson

         A5/B                 A/C#                 A5/D                  A5
      x 2 2 2 x x          x 4 2 2 x x          x 5 2 2 x x          x 0 2 2 x x

           E                   F#5                 F#5/E                F#5/G
      x 7 6 4 x x          2 4 4 x x x          0 4 4 x x x          3 4 4 x x x

         E5/A                  B5
      5 2 2 x x x          x 2 4 4 x x

Gtr I (Eb Ab Db Gb Bb Eb) - 'James Clean'
Gtr II (Eb Ab Db Gb Bb Eb) - 'Kirk Acoustic'
Gtr III (Eb Ab Db Gb Bb Eb) - 'James Dist.'
Gtr IV (Eb Ab Db Gb Bb Eb) - 'Kirk dist.'
Gtr V (Eb Ab Db Gb Bb Eb) - 'Untitled'

 Intro
  Moderately Q=112
            A5     A5/B     A/C#   A5/D
 2/4       4/4
  Gtr I
  E E E E   E E Q  E E Q    E E Q  E E Q
|---------|---------------|---------------|
|---------|---------------|---------------|
|---------|-----2------2--|-----2------2--|
|---------|---2------2----|---2------2----|
|-----0---|-0------2------|-4------5------|
|---2---2-|---------------|---------------|


  E
  E E E E +E  E E E   +E  E E E +E  E E E
|-------------------|---------------------|
|-------------------|---------------------|
|-----4---------4---|-------4-------------|
|---6---6-(6)-----6-|-(6)-----6-(6)-------|
|-7-----------7-----|-----7-----------0---|
|-------------------|---------------2---2-|


  A5     A5/B     A/C#   A5/D     E
                                                                |-3-|
  E E Q  E E Q    E E Q  E E Q    E E E E +E  E E E   +E  E E E S S S E E E
|---------------|---------------|-------------------|------------------------|
|---------------|---------------|-------------------|------------------------|
|-----2------2--|-----2------2--|-4-----4-(4)-----4-|-(4)-----4-4h6p4--------|
|---2------2----|---2------2----|-4h6---------6-----|-----6-----------6-6h7--|
|-0------2------|-4------5------|-7---7---------7---|-------7----------------|
|---------------|---------------|-------------------|------------------------|


 Verse 1
  A5      A5/B      A/C#    A5/D
  E E  Q  E E  Q    E E  Q  E E  Q
|-----------------|-----------------|
|-----------------|-----------------|
|------2-------2--|------2-------2--|
|---2-------2-----|---2-------2-----|
|-0-------2-------|-4-------5-------|
|-----------------|-----------------|
|
| Gtr II
| E Q.    E Q.      E Q.    E Q.
|-----------------|-----------------|
|-----------------|-----------------|
|---2-------4-----|---6-------7-----|
|-----------------|-----------------|
|-0-------0-------|-0-------0-------|
|-----------------|-----------------|


  E
  E E  E E +E  E E E   +E  E  E E +E  E E E
|--------------------|-----------------------|
|--------------------|-----------------------|
|------4---------4---|--------4--------------|
|---6----6-(6)-----6-|-(6)------6-(6)--------|
|-7------------7-----|-----7------------0----|
|--------------------|----------------2---2--|
|
| E Q.     +H           E  Q.     +E  E E E
|--------------------|-----------------------|
|--------------------|-----------------------|
|--------------------|-----------------------|
|---2------(2)-------|-----2------(2)--------|
|--------------------|------------------0----|
|-0------------------|--0-------------2---2--|


  A5      A5/B      A/C#    A5/D
  Gtr I
  E E  Q  E E  Q    E E  Q  E E  Q
|-----------------|-----------------|
|-----------------|-----------------|
|------2-------2--|------2-------2--|
|---2-------2-----|---2-------2-----|
|-0-------2-------|-4-------5-------|
|-----------------|-----------------|
|
| E Q.    E Q.      E Q.    E Q.
|-----------------|-----------------|
|-----------------|-----------------|
|---2-------4-----|---6-------7-----|
|-----------------|-----------------|
|-0-------0-------|-0-------0-------|
|-----------------|-----------------|


  E
                              Gtr III
  E E  E E +E  E E E   +E  E  E E  E  E Q
|--------------------|------------------------|
|--------------------|------------------------|
|-4------4-(4)-----4-|-(4)----4h6--6p=4-------|
|-4h6----------6-----|--------6----6----6\----|
|-7----7---------7---|-----7------------------|
|--------------------|------------------------|
|
| E Q.     +H           E  Q.     +E  E E  E
|--------------------|------------------------|
|--------------------|------------------------|
|--------------------|------------------------|
|---2------(2)-------|-----2------(2)---------|
|--------------------|------------------0-----|
|-0------------------|--0-------------2----2--|


  A5      A5/B      A/C#    A5/D      E
  E E  Q  E E  Q    E E  Q  E E  Q    E E E E  E  E E E   E E E E +E  E E E
|-----------------|-----------------|-------------------|--------------------|
|-----------------|-----------------|-------------------|--------------------|
|------2-------2--|------2-------2--|-------------------|--------------------|
|---2-------2-----|---2-------2-----|-4h6-6-6-----6---4-|-4h6-6-6-(6)--------|
|-0-------2-------|-4-------5-------|-7---7-7-----7---7-|-7---7-7-(7)---0----|
|-----------------|-----------------|-0---0-0-----0---0-|-0---0-0-(0)-2---2--|
|
| E Q.    E Q.      E Q.    E Q.      E E E E +E  Q   E   E E E E +E  E E E
|-----------------|-----------------|-------------------|--------------------|
|-----------------|-----------------|-------------------|--------------------|
|---2-------4-----|---6-------7-----|-------------------|--------------------|
|-----------------|-----------------|-7h9-9-9-(9)-9---9-|-7h9-9-9-(9)--------|
|-0-------0-------|-0-------0-------|-7---7-7-(7)-7---7-|-7---7-7-(7)---0----|
|-----------------|-----------------|-0---0-0-(0)-0---0-|-0---0-0-(0)-2---2--|


  A5      A5/B      A/C#    A5/D
  E E  Q  E E  Q    E E  Q  E E  Q
|-----------------|-----------------|
|-----------------|-----------------|
|------2-------2--|------2-------2--|
|---2-------2-----|---2-------2-----|
|-0-------2-------|-4-------5-------|
|-----------------|-----------------|
|
| E Q.    E Q.      E Q.    E Q.
|-----------------|-----------------|
|-----------------|-----------------|
|---2-------4-----|---6-------7-----|
|-----------------|-----------------|
|-0-------0-------|-0-------0-------|
|-----------------|-----------------|
|
| W                 W
|-----------------|-----------------|
|-----------------|-----------------|
|-----------------|-----------------|
|-----------------|-----------------|
|-----------------|-----------------|
|-----------------|-----------------|


  E
  E E E E  E  E E E   E  E   E  E E     E   E E
|-------------------|----------------------------|
|-------------------|----------------------------|
|-------------------|--------4--4-4-----6b8r6-6--|
|-4h6-6-6-----6---4-|-4h=6---6--6-6-----6b8r6-6--|
|-7---7-7-----7---7-|-7--------------------------|
|-0---0-0-----0---0-|-0--------------------------|
|
|                                 |-3-|
| E E E E +E  Q   E   E +E  +E  E S S S E   E E
|-------------------|----------------------------|
|-------------------|----------------------------|
|-------------------|-----------4-4h6p4----------|
|-7h9-9-9-(9)-9---9-|-9-(9)-(9)---------6---6h7--|
|-7---7-7-(7)-7---7-|-7-(7)-(7)------------------|
|-0---0-0-(0)-0---0-|-0-(0)-(0)------------------|
|
|                                       Gtr IV
| W                   H           E     E   E E
|-------------------|----------------------------|
|-------------------|----------------------------|
|-------------------|----------------------------|
|-------------------|----------------------------|
|-------------------|-----------------------0----|
|-------------------|-------------------2-----2--|


    A5    A5/B    A/C#  A5/D    E
                                                                        ~~
    Q  Q  Q  Q    Q  Q  Q  Q    E E E E +E  E E E    E  E  E  E  E   E  Q
||--------------|-------------|-------------------|--------------------------||
||o-------------|-------------|-------------------|-------------------------o||
||-----2-----2--|----2-----2--|-7S9-9-9-(9)-9-9-9-|-11S13-13-13-13S=14-14----||
||-----2-----2--|----2-----2--|-------------------|--------------------------||
||o-0-----2-----|-4-----5-----|-5S7-7-7-(7)-7-7-7-|--9S11-11-11-11S=12-12---o||
||--------------|-------------|-------------------|--------------------------||
|
|   Gtr IV
|   Q  Q  Q  Q    Q  Q  Q  Q    E E E E  E  E E E    E  E  E  E +E   E  E E
||--------------|-------------|-------------------|--------------------------||
||o-------------|-------------|-------------------|-------------------------o||
||-----2-----2--|----2-----2--|-------------------|--------------------------||
||-----2-----2--|----2-----2--|-4h6-6-6-----6---4-|--4h=6--6--6-(6)----------||
||o-0-----2-----|-4-----5-----|-7---7-7-----7---7-|--7-----7--7-(7)-----0---o||
||--------------|-------------|-0---0-0-----0---0-|--0-----0--0-(0)--2----2--||


  A5     A5/B     A/C#     A5/D     E
  W               +W                W                    W
|---------------|-----------------|-------------------|----------------------|
|---------------|-----------------|-------------------|----------------------|
|-2-------------|-(2)-------------|-------------------|----------------------|
|-2-------------|-(2)-------------|-------------------|----------------------|
|-0-------------|-(0)-------------|-------------------|----------------------|
|---------------|-----------------|-------------------|----------------------|
|
| Gtr I
| E E Q  E E Q     E  E Q  E E Q    E E E E +E  E E E   +E  E E E +E  E E E
|---------------|-----------------|-------------------|----------------------|
|---------------|-----------------|-------------------|----------------------|
|-----2------2--|-------2------2--|-----4---------4---|-------4--------------|
|---2------2----|-----2------2----|---6---6-(6)-----6-|-(6)-----6-(6)--------|
|-0------2------|--4-------5------|-7-----------7-----|-----7-----------0----|
|---------------|-----------------|-------------------|---------------2---2--|


 Verse 2
  A5     A5/B     A/C#   A5/D     E
  Gtr I
  E E Q  E E Q    E E Q  E E Q    E E E E +E  E E E   +E  E E E +E  E E E
|---------------|---------------|-------------------|----------------------|
|---------------|---------------|-------------------|----------------------|
|-----2------2--|-----2------2--|-----4---------4---|-------4--------------|
|---2------2----|---2------2----|---6---6-(6)-----6-|-(6)-----6-(6)--------|
|-0------2------|-4------5------|-7-----------7-----|-----7-----------0----|
|---------------|---------------|-------------------|---------------2---2--|


  A5      A5/B     A/C#     A5/D
  E E Q   E E Q    E E Q     E E  Q
|----------------|-------------------|
|----------------|-------------------|
|-----2-------2--|-----2----------2--|
|---2-------2----|---2---------2-----|
|-0-------2------|-4---------5-------|
|----------------|-------------------|
|
| Gtr II
| E E E E H        E E E  E  Q    Q
|----------------|-------------------|
|----------------|-------------------|
|-x-x-6S7-7------|-x-9-9S11-11---11--|
|----------------|-------------------|
|-x-x-4S5-5------|-x-7-7S=9--9----9--|
|----------------|-------------------|
|
| W                W
|----------------|-------------------|
|----------------|-------------------|
|----------------|-------------------|
|----------------|-------------------|
|----------------|-------------------|
|----------------|-------------------|


  E
   E E E E +E  E E E   +E  E E E +E  E E E
|--------------------|----------------------|
|--------------------|----------------------|
|------4---------4---|-------4--------------|
|----6---6-(6)-----6-|-(6)-----6-(6)--------|
|--7-----------7-----|-----7-----------0----|
|--------------------|---------------2---2--|
|
|  E Q   E +E  Q   E    E  Q   E +E  E E E
|--------------------|----------------------|
|--------------------|----------------------|
|-11S9---9-(9)-9---9-|----------------------|
|--------------------|--x--9---9-(9)-6-6S7--|
|--9S7---7-(7)-7---7-|----------------------|
|--------------------|--x--7---7-(7)-4-4S5--|
|
|                      Gtr IV
|                                      ~~
|  W                    E  E E E  E  E Q
|--------------------|--5--7-5-4--5--4------|
|--------------------|-----------------5----|
|--------------------|----------------------|
|--------------------|----------------------|
|--------------------|----------------------|
|--------------------|----------------------|


  A5      A5/B     A/C#       A5/D
  E E Q   E E Q     E  E Q     E E  Q
|----------------|---------------------|
|----------------|---------------------|
|-----2-------2--|-------2----------2--|
|---2-------2----|-----2---------2-----|
|-0-------2------|--4----------5-------|
|----------------|---------------------|
|
| E E E E H         E  E E  E  Q    Q
|----------------|---------------------|
|----------------|---------------------|
|-x-x-6S7-7------|--x--9-9S11-11---11--|
|----------------|---------------------|
|-x-x-4S5-5------|--x--7-7S=9--9----9--|
|----------------|---------------------|
|
| W                +W
|----------------|---------------------|
|-5--------------|-(5)-----------------|
|----------------|---------------------|
|----------------|---------------------|
|----------------|---------------------|
|----------------|---------------------|


     E
                             Gtr III
     E E E E +E  E E E   E E E E E E Q
|----------------------|-----------------|
|----------------------|-----------------|
|--------4---------4---|-4---4h6-6p4-----|
|------6---6-(6)-----6-|-----6---6---6\--|
|----7-----------7-----|---7-------------|
|----------------------|-----------------|
|
|                        Gtr IV
|  a Q   Q    H          E E E E H
|----------------------|-5-7-5-4-5-------|
|----------------------|-----------------|
|-11S9-----------------|-----------------|
|----------------------|-----------------|
|--9S7-----------------|-----------------|
|----------------------|-----------------|
|
|    W                   W
|----------------------|-----------------|
|----------------------|-----------------|
|----------------------|-----------------|
|----------------------|-----------------|
|----------------------|-----------------|
|----------------------|-----------------|


  A5       A5/B     A/C#   A5/D     E
  Gtr III
   E  E Q  E E Q    E E Q  E E Q    E E E E E E E E   E E E E +E  E E E
|-----------------|---------------|-----------------|--------------------|
|-----------------|---------------|-----------------|--------------------|
|-------2------2--|-----2------2--|-----------------|--------------------|
|-----2------2----|---2------2----|-4h6-6-6---6---4-|-4h6-6-6-(6)--------|
|--0-------2------|-4------5------|-7---7-7---7---7-|-7---7-7-(7)---0----|
|-----------------|---------------|-0---0-0---0---0-|-0---0-0-(0)-2---2--|
|
| +W                W               W                 W
|-(5)-------------|---------------|-----------------|--------------------|
|-----------------|---------------|-----------------|--------------------|
|-----------------|---------------|-----------------|--------------------|
|-----------------|---------------|-----------------|--------------------|
|-----------------|---------------|-----------------|--------------------|
|-----------------|---------------|-----------------|--------------------|


  A5     A5/B     A/C#   A5/D     E
  Gtrs III, IV
  E E Q  E E Q    E E Q  E E Q    E E E E E E E E   E E E E +E  E E E
|---------------|---------------|-----------------|--------------------|
|---------------|---------------|-----------------|--------------------|
|-----2------2--|-----2------2--|-----------------|--------------------|
|---2------2----|---2------2----|-4h6-6-6---6---4-|-4h6-6-6-(6)--------|
|-0------2------|-4------5------|-7---7-7---7---7-|-7---7-7-(7)---0----|
|---------------|---------------|-0---0-0---0---0-|-0---0-0-(0)-2---2--|


  A5    A5/B    A/C#  A5/D    E
  Gtr III
                                                                      ~~
  Q  Q  Q  Q    Q  Q  Q  Q    E E E E +E  E E E    E  E  E  E  E   E  Q
|-------------|-------------|-------------------|--------------------------|
|-------------|-------------|-------------------|--------------------------|
|----2-----2--|----2-----2--|-7S9-9-9-(9)-9-9-9-|-11S13-13-13-13S=14-14----|
|----2-----2--|----2-----2--|-------------------|--------------------------|
|-0-----2-----|-4-----5-----|-5S7-7-7-(7)-7-7-7-|--9S11-11-11-11S=12-12----|
|-------------|-------------|-------------------|--------------------------|
|
| Gtr IV
| Q  Q  Q  Q    Q  Q  Q  Q    E E E E  E  E E E    E  E  E  E +E   E  E E
|-------------|-------------|-------------------|--------------------------|
|-------------|-------------|-------------------|--------------------------|
|----2-----2--|----2-----2--|-------------------|--------------------------|
|----2-----2--|----2-----2--|-4h6-6-6-----6---4-|--4h=6--6--6-(6)----------|
|-0-----2-----|-4-----5-----|-7---7-7-----7---7-|--7-----7--7-(7)-----0----|
|-------------|-------------|-0---0-0-----0---0-|--0-----0--0-(0)--2----2--|


  A5    A5/B    A/C#  A5/D    E
  Q  Q  Q  Q    Q  Q  Q  Q    E E E E +E  E E E    E  E  E  E  E  S S  Q
|-------------|-------------|-------------------|--------------------------|
|-------------|-------------|-------------------|--------------------------|
|----2-----2--|----2-----2--|-7S9-9-9-(9)-9-9-9-|-11S13-13-13-13--x-x------|
|----2-----2--|----2-----2--|-------------------|--------------------------|
|-0-----2-----|-4-----5-----|-5S7-7-7-(7)-7-7-7-|--9S11-11-11-11--x-x------|
|-------------|-------------|-------------------|---------------------17\--|
|
| Q  Q  Q  Q    Q  Q  Q  Q    E E E E  E  E E E    E  E  E  E +H
|-------------|-------------|-------------------|--------------------------|
|-------------|-------------|-------------------|--------------------------|
|----2-----2--|----2-----2--|-------------------|--------------------------|
|----2-----2--|----2-----2--|-4h6-6-6-----6---4-|--4h=6--6--6-(6)----------|
|-0-----2-----|-4-----5-----|-7---7-7-----7---7-|--7-----7--7-(7)----------|
|-------------|-------------|-0---0-0-----0---0-|--0-----0--0-(0)----------|


 Chorus
  F#5                         F#F#F#F#F#5
  Gtrs III, IV
  E E E E E E E E   E E E E E S S E S S
|-----------------|---------------------|
|-----------------|---------------------|
|-----------------|---------------------|
|-4-4---4---4---4-|---4---4-------------|
|-4-4---4---4---4-|---4---4---4-4-4-4-4-|
|-2-2---2---2---2-|---2---2---0-2-3-0-2-|


    F#F#5                       F#F#F#F#F#5
    Gtrs III, IV
    E E E E E E E E   E E E E E S S E S S  3x
||------------------|----------------------||
||o-----------------|---------------------o||
||------------------|----------------------||
||----4---4---4---4-|---4---4--------------||
||o-4-4---4---4---4-|---4---4---4-4-4-4-4-o||
||--3-2---2---2---2-|---2---2---0-2-3-0-2--||


  F#F#5
  E E E E E E E E   E E E E E E E E
|-----------------|-----------------|
|-----------------|-----------------|
|-----------------|-----------------|
|---4---4---4---4-|---4---4---------|
|-4-4---4---4---4-|---4---4-----2---|
|-3-2---2---2---2-|---2---2---0---0-|


 Guitar Solo
  A5          A5/B            A/C#           A5/D
  Gtr III
  E E   Q      E    E Q       E   E Q         E    E Q
|---------------------------|--------------------------------|
|---------------------------|--------------------------------|
|-------2-------------2-----|-------2----------------2-------|
|---2---------------2-------|-----2----------------2---------|
|-0------------2------------|-4---------------5--------------|
|---------------------------|--------------------------------|
|
| Gtr I
| H            H              E   E E    E    Q.        a  E
|---------------------------|--------------------------------|
|---------------------------|--------------------------------|
|-6------------7------------|-----9-9S==11---11--------11S13-|
|---------------------------|--------------------------------|
|-4------------5------------|-----7-7S===9----9---------9S11-|
|---------------------------|--------------------------------|
|
| Gtr IV
| E S S E S S +S  S E E S S   S S E S S  S S +S  S E E     E
|---------------------5-----|------------------------5S===10-|
|-7-5-5-7-5-7-(7)-7-5---7-7-|-7-7-5-7-7--5-7-(7)-7-5---------|
|---------------------------|--------------------------------|
|---------------------------|--------------------------------|
|---------------------------|--------------------------------|
|---------------------------|--------------------------------|


  E
   E  E     E E   E E   E    E    E  E E E +E  E E E
|------------------------------|----------------------|
|------------------------------|----------------------|
|------------------------------|----------------------|
|--4h=6-----6-6-----6--------4-|--4h=6-6-6-(6)--------|
|--7--------7-7-----7--------7-|--7----7-7-(7)---0----|
|--0--------0-0-----0--------0-|--0----0-0-(0)-2---2--|
|
|  W                             +W
|------------------------------|----------------------|
|------------------------------|----------------------|
|--9---------------------------|-(9)------------------|
|------------------------------|----------------------|
|--7---------------------------|-(7)------------------|
|------------------------------|----------------------|
|
|  E  S  S  E S S E S S S E.      W
|-10-10-10-10-9-9-9-9-9-9-7----|--7-------------------|
|------------------------------|----------------------|
|------------------------------|----------------------|
|------------------------------|----------------------|
|------------------------------|----------------------|
|------------------------------|----------------------|


  A5        A5/B            A/C#           A5/D
  E E Q      E    E Q       E   E Q         E    E Q
|-------------------------|--------------------------------|
|-------------------------|--------------------------------|
|-----2-------------2-----|-------2----------------2-------|
|---2-------------2-------|-----2----------------2---------|
|-0----------2------------|-4---------------5--------------|
|-------------------------|--------------------------------|
|
| H          H              E   E E    E    Q.        a  E
|-------------------------|--------------------------------|
|-------------------------|--------------------------------|
|-6----------7------------|-----9-9S==11---11--------11S13-|
|-------------------------|--------------------------------|
|-4----------5------------|-----7-7S===9----9---------9S11-|
|-------------------------|--------------------------------|
|
| E E E S S +S  S E E S S   S S E S S  S S +S  S E E     E
|-------------------5-----|------------------------5S===12-|
|-7-5-7-5-7-(7)-7-5---7-7-|-7-7-5-7-7--5-7-(7)-7-5---------|
|-------------------------|--------------------------------|
|-------------------------|--------------------------------|
|-------------------------|--------------------------------|
|-------------------------|--------------------------------|


  E
   E  E     E  E     E     E  E     E    E      E   E  E +E  E  E  E
|-------------------------------------|-------------------------------|
|-------------------------------------|-------------------------------|
|-------------------------------------|-------------------------------|
|--4h=6-----6--6-----------6--------4-|--4h=====6---6--6-(6)----------|
|--7--------7--7-----------7--------7-|--7----------7--7-(7)----0-----|
|--0--------0--0-----------0--------0-|--0----------0--0-(0)-2-----2--|
|
|  W                                    +W
|-------------------------------------|-------------------------------|
|-------------------------------------|-------------------------------|
|--9----------------------------------|-(9)---------------------------|
|-------------------------------------|-------------------------------|
|--7----------------------------------|-(7)---------------------------|
|-------------------------------------|-------------------------------|
|
|                                            TP
|  E  S  S  E  S  S  S  E.    S  E.      S   E.    +H           E  E
|-12-12-12-12-10-10-10-12----12-14----|-14--15----(15)---------17-17--|
|-------------------------------------|-------------------------------|
|-------------------------------------|------------------------14-14--|
|-------------------------------------|-------------------------------|
|-------------------------------------|-------------------------------|
|-------------------------------------|-------------------------------|


 Verse 3
  A5          A5/B          A/C#        A5/D
   E  E  Q     E  E  Q       E  E  Q     E  E  Q
|-------------------------|-------------------------|
|-------------------------|-------------------------|
|--------2-----------2----|--------2-----------2----|
|-----2-----------2-------|-----2-----------2-------|
|--0-----------2----------|--4-----------5----------|
|-------------------------|-------------------------|
|
|  Q     Q     Q     Q       Q     Q     Q     Q
|-------------------------|-------------------------|
|-------------------------|-------------------------|
|--------2-----------2----|--------2-----------2----|
|--------2-----------2----|--------2-----------2----|
|--0-----------2----------|--4-----------5----------|
|-------------------------|-------------------------|
|
|  E  E  E  E  E  E  E  E    E  E  E  E  E  E  E  E
|-17-17-17-17-17-17-17-17-|-17-17-17-17-17-17-17-17-|
|-------------------------|-------------------------|
|-14-14-14-14-14-14-14-14-|-14-14-14-14-14-14-14-14-|
|-------------------------|-------------------------|
|-------------------------|-------------------------|
|-------------------------|-------------------------|


  E
   E  E  E  E  E   E  E  E    E  E  E  E +E  E  E  E
|--------------------------|--------------------------|
|--------------------------|--------------------------|
|--------------------------|--------------------------|
|--4h=6--6--6------6-----4-|--4h=6--6--6-(6)----------|
|--7-----7--7------7-----7-|--7-----7--7-(7)----0-----|
|--0-----0--0------0-----0-|--0-----0--0-(0)-2-----2--|
|
|                                               ~~~
|  E  E  E  E +E   E  E  E    E  E  E  E  E  E  Q
|--------------------------|--------------------------|
|--------------------------|--------------------------|
|--7S=9--9--9-(9)--9--9--9-|-11S13-13-13-13S14-14-----|
|--------------------------|--------------------------|
|--5S=7--7--7-(7)--7--7--7-|--9S11-11-11-11S12-12-----|
|--------------------------|--------------------------|
|
|  E  E  E  E  E   E  E  E    E  E  E  E  E  E  E  E
|-17-17-17-17-17--17-17-17-|-17S16-16-16-16S14-14S12--|
|--------------------------|--------------------------|
|-14-14-14-14-14--14-14-14-|-14S13-13-13-13S11-11S=9--|
|--------------------------|--------------------------|
|--------------------------|--------------------------|
|--------------------------|--------------------------|


  A5          A5/B          A/C#        A5/D
   E  E  Q     E  E  Q       E  E  Q     E  E  Q
|-------------------------|-------------------------|
|-------------------------|-------------------------|
|--------2-----------2----|--------2-----------2----|
|-----2-----------2-------|-----2-----------2-------|
|--0-----------2----------|--4-----------5----------|
|-------------------------|-------------------------|
|
|  Q     Q     Q     Q       Q     Q     Q     Q
|-------------------------|-------------------------|
|-------------------------|-------------------------|
|--------2-----------2----|--------2-----------2----|
|--------2-----------2----|--------2-----------2----|
|--0-----------2----------|--4-----------5----------|
|-------------------------|-------------------------|
|
|  E  E  E  E  E  E  E  E    E  E  E  E  E  E  E  E
|-12-12-12-12-12-12-12-12-|-12-12-12-12-12-12-12-12-|
|-------------------------|-------------------------|
|--9--9--9--9--9--9--9--9-|--9--9--9--9--9--9--9--9-|
|-------------------------|-------------------------|
|-------------------------|-------------------------|
|-------------------------|-------------------------|


  E
   E  E  E  E  E   E  E     E    E  E  E     E +H
|-----------------------------|------------------------------|
|-----------------------------|------------------------------|
|-----------------------------|------------------------------|
|--4h=6--6--6------6--------4-|--4h=6--6-----6-(6)-----------|
|--7-----7--7------7--------7-|--7-----7-----7-(7)-----------|
|--0-----0--0------0--------0-|--0-----0-----0-(0)-----------|
|
|  E  E  E  E +E   E  E     E    E  E  E     E  E  S S  Q
|-----------------------------|------------------------------|
|-----------------------------|------------------------------|
|--7S=9--9--9-(9)--9--9-----9-|-11S13-13----13-13--x-x-------|
|-----------------------------|------------------------------|
|--5S=7--7--7-(7)--7--7-----7-|--9S11-11----11-11--x-x-------|
|-----------------------------|------------------------17\---|
|
|  E  E  E  E  E   E  S  S  E    E  E  S  S  E  Q       E  E
|-12-12-12-12-12--12-12-12-12-|----22-22-22-22-21\-----14S17-|
|-----------------------------|------------------------------|
|--9--9--9--9--9---9--9--9--9-|----19-19-19-19-18\-----11S14-|
|-----------------------------|------------------------------|
|-----------------------------|------------------------------|
|-----------------------------|------------------------------|


 Chorus
  F#5                         F#F#F#F#F#5
  Gtrs III, IV
  E E E E E E E E   E E E E E S S E S S
|-----------------|---------------------|
|-----------------|---------------------|
|-----------------|---------------------|
|-4-4---4---4---4-|---4---4-------------|
|-4-4---4---4---4-|---4---4---4-4-4-4-0-|
|-2-2---2---2---2-|---2---2---0-2-3-0-2-|


    F#F#5                       F#F#F#F#F#5
    Gtrs III, IV
    E E E E E E E E   E E E E E S S E S S  4x
||------------------|----------------------||
||o-----------------|---------------------o||
||------------------|----------------------||
||----4---4---4---4-|---4---4--------------||
||o-4-4---4---4---4-|---4---4---4-4-4-4-4-o||
||--3-2---2---2---2-|---2---2---0-2-3-0-2--||


  F#F#5                             F#F#F#F#F#5
  E E E E  E  E E E    E  E E E  E  S S E S S
|-------------------|-------------------------|
|-------------------|-------------------------|
|-------------------|-------------------------|
|---4---4-----4---4-|-----4---4---------------|
|-4-4---4-----4---4-|-----4---4-----4-4-4-4-4-|
|-3-2---2-----2---2-|-----2---2-----0-2-3-0-2-|
|
| Gtr V
| E E E E +E  E E E   +E  E E E +E  E   E E
|-------------------|-------------------------|
|-------------------|-------------------------|
|-------------------|-------------------------|
|-----4---------4---|-------4-----------4-----|
|---4---4-(4)-----4-|-(4)-----4-(4)-------4---|
|-2-----------2-----|-----2---------2---------|


 Outro
  F#F#5                           F#F#F#F#F#5
  Gtrs III, IV
  E E E E  E  E E E   E E E E  E  S S E S S
|-------------------|-----------------------|
|-------------------|-----------------------|
|-------------------|-----------------------|
|---4---4-----4---4-|---4---4---------------|
|-4-4---4-----4---4-|---4---4-----4-4-4-4-4-|
|-3-2---2-----2---2-|---2---2-----0-2-3-0-2-|
|
| Gtr V
| E E E E +E  E E E   E E E E +E  E   E E
|-------------------|-----------------------|
|-------------------|-----------------------|
|-------------------|-----------------------|
|-----4---------4---|-----4-----------4-----|
|---4---4-(4)-----4-|---4---4-(4)-------4---|
|-2-----------2-----|-4-----------4---------|


                                  F#F#F#F#F#5
  E E E E  E  E E E   E E E E  E  S S E S S
|-------------------|------------------------|
|-------------------|------------------------|
|-------------------|------------------------|
|---4---4-----4---4-|---4---4----------------|
|-4-4---4-----4---4-|---4---4-----4-4-4-4-4--|
|-3-2---2-----2---2-|---2---2-----0-2-3-0-2--|
|
| E E E E +E  E E E   E E E E +E  E   E E
|-------------------|------------------------|
|-------------------|------------------------|
|-------------------|------------------------|
|-----4---------4---|-----4-----------4------|
|---4---4-(4)-----4-|---4---4-(4)-------4----|
|-5-----------5-----|-7-----------7----------|


  F#5F#5
   E  E  E  E  E   E  E  E    E  S S  E  S S  E   S S  E  S S
|--------------------------|----------------------------------|
|--------------------------|----------------------------------|
|--------------------------|----------------------------------|
|-----4-----4------4-----4-|-----4-4-----4-4------4-4-----4-4-|
|--4--4-----4------4-----4-|-----4-4-----4-4------4-4-----4-4-|
|--3--2-----2------2-----2-|-----2-2-----2-2------2-2-----2-2-|
|
|  E  E  E  E +E   E  E  E    E  E    E  E   +E   E    E  E
|--------------------------|----------------------------------|
|--------------------------|----------------------------------|
|--------------------------|----------------------------------|
|--------4------------4----|----------4----------------4------|
|-----4-----4-(4)--------4-|-----4-------4---(4)----------4---|
|--2---------------2-------|--4-------------------4-----------|
|
| Gtr V
|  <
|  E  E  E  E  E   E  E  E    E  E    E  E    E   E    E  E
|--------------------------|----------------------------------|
|-14-14-14-14-14--14-14-14-|-14-14---14-14---14--14---14-14---|
|-11-11-11-11-11--11-11-11-|-11-11---11-11---11--11---11-11---|
|--------------------------|----------------------------------|
|--------------------------|----------------------------------|
|--------------------------|----------------------------------|


     E5/A                               B5
   E  S S  E  S S  E   S S  E  S S    E  S S  E  S  S  E   E  E  E
|----------------------------------|--------------------------------|
|----------------------------------|--------------------------------|
|----------------------------------|-----4-4-----4--4---------------|
|-----2-2-----2-2------2-2-----2-2-|-----4-4-----4--4---------------|
|-----2-2-----2-2------2-2-----2-2-|-----2-2-----2--2---------------|
|-----5-5-----5-5------5-5-----5-5-|-----------------------0--3--2--|
|
|  E  E    E  E   +E   E    E  E      E  E    E  E    +E   E  E  E
|----------------------------------|--------------------------------|
|----------------------------------|--------------------------------|
|----------------------------------|----------4---------------4-----|
|----------4----------------4------|-----4-------4----(4)--------4--|
|-----4-------4---(4)----------4---|--2--------------------2--------|
|--5-------------------5-----------|--------------------------------|
|
|  E  E    E  E    E   E    E  E      E  E    E  S  S  E   E  E  E
|----------------------------------|--------------------------------|
|-14-14---14-14---14--14---14-14---|-14-17---17-17-17-17--15-15-14--|
|-11-11---11-11---11--11---11-11---|-11-----------------------------|
|----------------------------------|----14---14-14-14-14--12-12-11--|
|----------------------------------|--------------------------------|
|----------------------------------|--------------------------------|


  F#5                                           F#F#F#F#F#5
  E E   E E    E    E E E     E E   E E    E    S S E S S
|---------------------------|-----------------------------|
|---------------------------|-----------------------------|
|---------------------------|-----------------------------|
|-4-4-----4---------4---4---|---4-----4-------------------|
|-4-4-----4---------4---4---|---4-----4---------4-4-4-4-0-|
|-2-2-----2---------2---2---|---2-----2---------0-2-3-0-2-|
|
| E E   E E   +E    E E E     E E   E E   +E    E   E E
|---------------------------|-----------------------------|
|---------------------------|-----------------------------|
|---------------------------|-----------------------------|
|-------4-------------4-----|-------4---------------4-----|
|---4-----4---(4)-------4---|---4-----4---(4)---------4---|
|-2-----------------2-------|-4-----------------4---------|
|
| Gtr IV
| E S S E S S +S  S E E S S   E S S E S S +S  S E   E S S
|---------------------5-----|-----------------------5-----|
|-7-5-5-7-5-7-(7)-7-5---7-7-|-7-5-5-7-5-7-(7)-7-5-----7-7-|
|---------------------------|-----------------------------|
|---------------------------|-----------------------------|
|---------------------------|-----------------------------|
|---------------------------|-----------------------------|


  F#F#5                                         F#F#F#F#F#5/G
  E E   E E    E    E E E     E E   E E    E    S S E S S
|---------------------------|-----------------------------|
|---------------------------|-----------------------------|
|---------------------------|-----------------------------|
|---4-----4---------4---4---|---4-----4-------------------|
|-4-4-----4---------4---4---|---4-----4---------4-4-4-4-4-|
|-3-2-----2---------2---2---|---2-----2---------0-2-3-0-2-|
|
| E E   E E   +E    E E E     E E   E E   +E    E   E E
|---------------------------|-----------------------------|
|---------------------------|-----------------------------|
|---------------------------|-----------------------------|
|-------4-------------4-----|-------4---------------4-----|
|---4-----4---(4)-------4---|---4-----4---(4)---------4---|
|-5-----------------5-------|-7-----------------7---------|
|
| E S S E S S +S  S E E S S   E S S E S S +S  S E   E S S
|---------------------5-----|-----------------------5-----|
|-7-5-5-7-5-7-(7)-7-5---7-7-|-7-5-5-7-5-7-(7)-7-5-----7-7-|
|---------------------------|-----------------------------|
|---------------------------|-----------------------------|
|---------------------------|-----------------------------|
|---------------------------|-----------------------------|


  F#F#5                                         F#F#F#F#F#5
  E E   E E    E    E E E     E E   E E    E    S S E S S
|---------------------------|-----------------------------|
|---------------------------|-----------------------------|
|---------------------------|-----------------------------|
|---4-----4---------4---4---|---4-----4-------------------|
|-4-4-----4---------4---4---|---4-----4---------4-4-4-4-4-|
|-3-2-----2---------2---2---|---2-----2---------0-2-3-0-2-|
|
| E E   E E   +E    E E E     E E   E E   +E    E   E E
|---------------------------|-----------------------------|
|---------------------------|-----------------------------|
|---------------------------|-----------------------------|
|-------4-------------4-----|-------4---------------4-----|
|---4-----4---(4)-------4---|---4-----4---(4)---------4---|
|-2-----------------2-------|-4-----------------4---------|
|
| E S S E S S +S  S E E S S   E S S E S S +S  S E   E S S
|---------------------5-----|-----------------------5-----|
|-7-5-5-7-5-7-(7)-7-5---7-7-|-7-5-5-7-5-7-(7)-7-5-----7-7-|
|---------------------------|-----------------------------|
|---------------------------|-----------------------------|
|---------------------------|-----------------------------|
|---------------------------|-----------------------------|


  F#F#5                                   F#F#F#5F#F#5
  E E   E E    E    E E E     E E E E  E  S S  E S S
|---------------------------|---------------------------|
|---------------------------|---------------------------|
|---------------------------|---------------------------|
|---4-----4---------4---4---|---4---4-------------------|
|-4-4-----4---------4---4---|---4---4-----4-4--4-4-4----|
|-3-2-----2---------2---2---|---2---2-----0-2--3-0-2----|
|
| E E   E E   +E    E E E     E E E E +E  E    E E
|---------------------------|---------------------------|
|---------------------------|---------------------------|
|---------------------------|-----4---------------------|
|-------4-------------4-----|---4---4-(4)---------------|
|---4-----4---(4)-------4---|-2-------------------------|
|-5-----------------5-------|-------------0----3-2------|
|
| E S S E S S +S  S E E S S   E E E E  E  E    E E
|---------------------5-----|-------------4---10-7------|
|-7-5-5-7-5-7-(7)-7-5---7-7-|-7---7----4----------------|
|---------------------------|---6---6-------------------|
|---------------------------|---------------------------|
|---------------------------|---------------------------|
|---------------------------|---------------------------|


            H.=H
         F#5
  Gtr IV
   E E E  E  +H        +W            +Q    Q  H
|-12-9--------------|-------------|----------------*|
|-------------------|-------------|----------------*|
|--------11-(11)----|-(11)--------|-(11)\----------*|
|-------------------|-------------|----------------*|
|-------------------|-------------|----------------*|
|-------------------|-------------|----------------*|
|
| Gtrs I, III, V
|  E E E  E  +H        +W            +W
|-------------------|-------------|----------------*|
|-------------------|-------------|----------------*|
|-------------------|-------------|----------------*|
|---------4--(4)----|--(4)--------|--(4)-----------*|
|---------4--(4)----|--(4)--------|--(4)-----------*|
|--3-2----2--(2)----|--(2)--------|--(2)-----------*|


Duration Legend
---------------
W - whole; H - half; Q - quarter; E - 8th; S - 16th; T - 32nd; X - 64th; a - acciaccatura
+ - note tied to previous; . - note dotted; .. - note double dotted
Uncapitalized letters represent notes that are staccato (1/2 duration)
Irregular groupings are notated above the duration line
Duration letters will always appear directly above the note/fret number it represents the
duration for.  Duration letters with no fret number below them represent rests.  Multi-
bar rests are notated in the form Wxn, where n is the number of bars to rest for.  Low
melody durations appear below the staff

Tablature Legend
----------------
 h   - hammer-on
 p   - pull-off
 b   - bend
 pb  - pre-bend
 r   - bend release (if no number after the r, then release immediately)
 /\  - slide into or out of (from/to "nowhere")
 s   - legato slide
 S   - shift slide
  - natural harmonic
[n]  - artificial harmonic
n(n) - tapped harmonic
 ~   - vibrato
 tr  - trill
 T   - tap
 TP  - trem. picking
 PM  - palm muting
\n/  - tremolo bar dip; n = amount to dip
 \n  - tremolo bar down
 n/  - tremolo bar up
/n\  - tremolo bar inverted dip
 =   - hold bend; also acts as connecting device for hammers/pulls
 <>  - volume swell (louder/softer)
 x   - on rhythm slash represents muted slash
 o   - on rhythm slash represents single note slash

Misc Legend
-----------
 |  - bar
||  - double bar
||o - repeat start
o|| - repeat end
*|  - double bar (ending)
 :  - bar (freetime)
 $  - Segno
 &  - Coda
Tempo markers -  = BPM(8/16=s8/s16), where s8 = swing 8ths, s16 = swing 16ths


***************************************************************************************
* Generated using Power Tab Editor by Brad Larsen - http://powertab.guitarnetwork.org *
***************************************************************************************
comments
print report bad tab
I want to post or [tab]
guest
You may want to rate the tab now too:
select rating
Please do not post tabs as comments. Select "correction" instead!