Oops, an error
Loading. Please wait.

Killem All Tab

ver1
ver1

Album

More versions @911Tabs.com
68,050 views 39 this week
8 commentsread comments
1 2 3 4 5
not so good
x 18
Autoscroll
+/-
esc
set tempo
stop
Contributor
NEW! There's an official Ultimate Guitar app which is ideal
for learning songs when you're away from computer. Get the app
WARNING: You are trying to view
                                    content from Ultimate-Guitar.com
                                    in an unauthorized application,
                                    which is prohibited.

                                    Please use an official Ultimate
                                    Guitar Tabs application for iPhone,
                                    iPad or Android to access legitimate
                                    chords, guitar, bass, and drum tabs
                                    from Ultimate-Guitar.com database.

                                    Type "ultimate guitar tabs" in Apple
                                    App Store's or Android Market's
                                    search to find the application.
            .-/                                    ~=-._
         .-~ /   ____  ______ __  _    _     _   ____|  ~-._
        ~~/  -~||  __||_  __//  || |  | |   | | / __/| .\~~
         / . . ||  __| | |  / ' || |__| |__ | || (__ |   \
        / / ~| ||____| |_| /_/|_||____|____||_| \___\| |\ \
       / /   |-~                                     ~-| \ \

------------------------------------------------------------------------------
------------------------------------------------------------------------------

Contents....
1.  Hit The Lights      : Greg and or Paul Halvorson (gregh@tcs.itis.com)
2.  The Four Horsemen   : "Bill"?
3.  Motorbreath         : Tony 'Bony' Asplund (ep93tas@t.hfb.se)
4.  Jump In The Fire    : Brant Katkansky (bmk@teleport.com, brantk@atlas.com)
5.  Pulling Teath       : R. Allen Canterbury (acanterb@vt.edu)
6.  Whiplash            : Tony 'Bony' Asplund (ep93tas@t.hfb.se)
7.  Phantom Lord        : Paul Halvorson
8.  No Remorse          : Tony Asplund (ep93tas@t.hfb.se)
9.  Seek and Destroy    : Peter Adamkovics (adamkp@rpi.edu)
10. Metal Militia       : Paul Halvorson (gregh@tcs.itis.com)

------------------------------------------------------------------------------
--------------------------      MetallicA      -------------------------------
Hit The Lights
--------------
From: gregh@tcs.itis.com (Greg and or Paul Halvorson)
    Here's the main riff.

                 Repeat a whole bunch of times
||---------------------|---------------------||
||---------------------|---------------------||
||*--------5--7--5--7--|--------------------*||
||*--------5--7--5--7--|--------5h7p5-------*||
||---0--0--------------|--0--0---------7--6--||
||---------------------|---------------------||

--------------------------      MetallicA      -------------------------------
The Four Horsemen
-----------------
I'll tab up the riffs, but you have to listen to the song for timing.

intro

g --5-----7--5----------------------------------------------------------
d --5--5--7--5----------------------------------------------------------
a --3--5--5--3----------------------------------------------------------
e -----3----------------------------------------------------------------

a --5--7--5--7--5--7--5--7--5--7--5--7--5-------------------------------
e --0--0--0--0--0--0--0--0--0--0--0--0--0--7----------------------------

d -----------------------------------------7p-5-------------------------
a --5--7--5--7--5--7--5--7--5--7--5-----5--------7p-5-------------------
e --0--0--0--0--0--0--0--0--0--0--0--7----------------------------------

a --5--7--5--7--5--7--5--7--5--7--5--7--5-----5-------------------------
e --0--0--0--0--0--0--0--0--0--0--0--0--0--7--0-------------------------

g --5-----7--5----------------------------------------------------------
d --5--5--7--5----------------------------------------------------------
a --3--5--5--3----------------------------------------------------------
e -----3----------------------------------------------------------------

verse

d -----------9-----------9-----------9--7--7----------------------------
a -----------7-----------7-----------7--5--5----------------------------
e --0--0--0-----0--0--0-----0--0--0-------------------------------------

d -----------9-----------9-----------9--5--7----------------------------
a -----------7-----------7-----------7--3--5----------------------------
e --0--0--0-----0--0--0-----0--0--0-------------------------------------

d -----------9-----------9-----------9--12--9---------------------------
a -----------7-----------7-----------7--10--7---------------------------
e --0--0--0-----0--0--0-----0--0--0-------------------------------------

g --5-----7--5----------------------------------------------------------
d --5--5--7--5----------------------------------------------------------
a --3--5--5--3----------------------------------------------------------
e -----3----------------------------------------------------------------

chorus ( I'm not sure about this. Please correct it.)

g --9--9--9s--7--7--7s--5--5--5s--4---pickslide-------------------------
d --9--9--9s--7--7--7s--5--5--5s--4---pickslide-------------------------
a --7--7--7s--5--5--5s--3--3--3s--2---pickslide-------------------------

g --9--9--9s--7--7--7s--5--5--5s--4--4--5-------------------------------
d --9--9--9s--7--7--7s--5--5--5s--4--4--5--5----------------------------
a --7--7--7s--5--5--5s--3--3--3s--2--2--3--5----------------------------
e -----------------------------------------3----------------------------

bridge

e --0--0--0--0--0-------------------------------------------------------

g -----------------5s--4--4--------------------5------------------------
d -----------------3s--2--2--------------------3------------------------
a ----------------------------------------------------------------------
e --0--0--0--0--0---------------0--0--0--0--0---------------------------

a --7--5-----5--------------------------7--5-----5----------------------
e --------7-----7--6--5--3--5--0--3--5--------7-----7--6-5--------------

d --5--6--7-------------------------------------------------------------
a --3--4--5--------------8--7--5--7-------------------------------------
e -----------0--0--5--7--------------0--0-------------------------------

d --5--6--7-------------------------------------------------------------
a --3--4--5-------------------------------------------------------------
e -----------0--0--0--0--0--0--0--0--0--0-------------------------------

a --7--5-----5----------------------------------------------------------
e --------7-----7--6--5--3--5--0--3--5----------------------------------

1st solo

d --------9--------------7--------------9--------------7----------------
a --7--7-----7--7--5--5-----5--5----------------------------------------
e --------------------------------8--8-----8--8--7--7-----7--7----------

I don't remember how the little part after this goes. The rest of the song
uses riffs that I already tabbed, so I'm done.

Bill

--------------------------      MetallicA      -------------------------------
MotorBreath
-----------
Transcribed by Tony 'Bony' Asplund (ep93tas@t.hfb.se)

RIFF A
I----------------------------I----------------------------I
I----------------------------I----------------------------I
I----------------------------I----------------------------I
I-9--9-9-9--9-9-9--9-9-9-9-9-I-5--5-5-5--5-5-5--5-5-5-5-5-I
I-9--9-9-9--9-9-9--9-9-9-9-9-I-5--5-5-5--5-5-5--5-5-5-5-5-I
I-7--7-7-7--7-7-7--7-7-7-7-7-I-3--3-3-3--3-3-3--3-3-3-3-3-I
                                                 END RIFF A
I----------------------------I----------------------------I
I----------------------------I----------------------------I
I----------------------------I----------------------------I
I-7--7-7-7--7-7-7--7-7-7-7-7-I-4--4-4-4--4-4-4--4-4-4-4-4-I
I-7--7-7-7--7-7-7--7-7-7-7-7-I-4--4-4-4--4-4-4--4-4-4-4-4-I
I-5--5-5-5--5-5-5--5-5-5-5-5-I-2--2-2-2--2-2-2--2-2-2-2-2-I

RIFF B                                                             END RIFF B
I------------------I------------------I------------------I------------------I
I------------------I------------------I------------------I------------------I
I------------------I------------------I------------------I------------------I
I-9-9---7--9-9---7-I-5-5---4--5-5---4-I-7-7---5--7-7---5-I-4-4---2--4-4-----I
I-9-9---7--9-9---7-I-5-5---4--5-5---4-I-7-7---5--7-7---5-I-4-4---2--4-4-----I
I-7-7---5--7-7---5-I-3-3---2--3-3---2-I-5-5---3--5-5---3-I-2-2---0--2-2-----I

RIFF C                   END RIFF C
I---------------------------------I
I---------------------------------I
I---------------------------------I
I-9-9---7-9-9---7-9-9---7-9-9---7-I
I-9-9---7-9-9---7-9-9---7-9-9---7-I
I-7-7---5-7-7---5-7-7---5-7-7---5-I

RIFF D                                    END RIFF D
I--------------------------------------------------I
I--------------------------------------------------I
I-------------7-7----------------------------------I
I-9-9---5-5---7-7---4-4---5-5---2-2---4-4-4-2-4----I
I-9-9-x-5-5-x-5-5-x-4-4-x-5-5-x-2-2---4-4-4-2-4----I
I-7-7-x-3-3-x-----x-2-2-x-3-3-x-0-0---2-2-2-0-2----I

RIFF E (2 guitars)
I--------------------------------I--------------------------------I
I--------------------------------I--------------------------------I
I--------------------------------I--------------------------------I
I--------------------------------I--------------------------------I
I-9---7---9---7---9-7-9-7-9---7--I-9---7---9---7---9-7-9-7-9---7--I
I--------------------------------I--------------------------------I
I                                I                                I
I                                I                                I
I--------------------------------I--------------------------------I
I--------------------------------I--------------------------------I
I--------------------------------I--------------------------------I
I--------------------------------I--------------------------------I
I--------------------------------I--------------------------------I
I-7#############################-I-7#############################-I

                                                         END RIFF E
I--------------------------------I--------------------------------I
I--------------------------------I--------------------------------I
I--------------------------------I--------------------------------I
I--------------------------------I--------------------------------I
I-9---7---9---7---9-7-9-7-9---7--I-9---7---9---7---9-7-9-7-9---7--I
I--------------------------------I--------------------------------I
I                                I                                I
I                                I                                I
I--------------------------------I--------------------------------I
I--------------------------------I--------------------------------I
I--------------------------------I--------------------------------I
I--------------------------------I--------------------------------I
I--------------------------------I--------------------------------I
I-5#############################-I-7#############################-I

RIFF F
I--------------------------------------------------------I
I--------------------------------------------------------I
I--------------------------------------------------------I
I-11------------11-9--9---11-9-11-------------11--6---6--I
I-11------------11-9--9---11-9-11-------------11--6---6--I
I-9-9-########--------------------9-########--9---4---4--I
                                                END RIFF F
I--------------------------------------------------------I
I--------------------------------------------------------I
I--------------------------------------------------------I
I-11------------11-9--9---11-9-11-------------6---6---6--I
I-11------------11-9--9---11-9-11-------------6---6---6--I
I-9-9-########--------------------9-########--4---4---4--I
                                              .   .   .

RIFF G
I--------------------------------------------------------I
I--------------------------------------------------------I
I--------------------------------------------------------I
I-11------------11-9--9---11-9-11-------------11--6---6--I
I-11------------11-9--9---11-9-11-------------11--6---6--I
I-9-9-########--------------------9-########--9---4---4--I
                                                END RIFF G
I--------------------------------------------------------I
I--------------------------------------------------------I
I--------------------------------------------------------I
I-11------------11-9--9---11-9-11-------------11--10-----I
I-11------------11-9--9---11-9-11-------------11--10-----I
I-9-9-########--------------------9-########--9---8------I


Here's the song:

A5 A#5

RIFF A x 2

RIFF B x 2

RIFF B x 2
 Living and dying laughing and crying
 Once you have seen it you will never be the same
 Life in the fast lane is just how it seems
 Hard and it is heavy dirty and mean

RIFF C x 1

RIFF D x 2
    Motorbreath
    Its how I live my life
    I can't take it any other way
    Motorbreath
    The sign of living fast
    It is going to take
    Your breath away

RIFF E x 2

RIFF B x 2
 Don't stop for nothing its full speed or nothing
 I am taking down you know whatever is in my way
 Getting your kicks as you are shooting the line
 Sending the shivers up and down your spine

RIFF C x 1

RIFF D x 2
    Motorbreath
    Its how I live my life
    I can't take it any other way
    Motorbreath
    The sign of living fast
    It is going to take
    Your breath away

RIFF E x 2

B5 B5 C5

RIFF F x 1 \
            (solo)
RIFF G x 1 /

RIFF B x 2

RIFF B x 2
 Those people who tell you not to take chances
 They are all missing on what life is about
 You only live once so take hold of the chance
 Don't end op like others the same song and dance

RIFF C x 1

RIFF D x 2
    Motorbreath
    Its how I live my life
    I can't take it any other way
    Motorbreath
    The sign of living fast
    It is going to take
    Your breath away

B5 C5

RIFF F x 6 (solo)

B5 B5 B5 F#5 F#5 F#5 C#5
.  .  .   .   .   .   .

--------------------------      MetallicA      -------------------------------
Jump In The Fire
----------------

~~      Vibrato
===     Tied notes
__3__   Triplets
R       Rest

Numbers above staff show duration of note/rest (8=eighth, 4=quarter, 2=half,
1=whole,4.5=dotted quarter, etc.)

I've attempted to get the exact timing, but there's some parts (in the
second riff, for example) where I'm not sure I transcribed perfectly.
Listen to the song if you can't seem to get it.

I didn't transcribe the lead because I don't know it.

Riff 1

  8 8 8 8 8 8 8 8   8 8 8 8 8 8 8 8   2       2
|-----------------|-----------------|-----------------|
|-----------------|-----------------|-----------------|
|o---------------o|-----------------|-5-------3-------|
|o--------3------o|---------3-------|-5-------3-------|
|-----5-3---5-4-3-|-----5-3---5-4-3-|-3-------1-------|
|-3-6-------------|-3-6-------------|-----------------|

  8 8 8 8 8 8 8 8   8 8 8 8 8 8 8 8   2       2
|-----------------|-----------------|-----------------|
|-----------------|-----------------|-----------------|
|o---------------o|-----------------|-5-------3-------|
|o--------3------o|-3-------3-------|-5-------3-------|
|-----3-5---5-4-3-|---5-4-3---5-4-3-|-3-------1-------|
|-3-6-------------|-----------------|-----------------|

  8 8 8 8 8 8 8 8   8 8 8 8 8 8 8 8   8 8 8 8 8 4.5
|-----------------|-----------------|-----------------|
|-----------------|-----------------|-----------------|
|o---------------o|-----------------|-----------------|
|o--------3------o|-5-3---3---------|---------3-5~~~~-|
|-----3-5---5-4-3-|-----5---5-4-3---|-----3-5---------|
|-3-6-------------|---------------6-|-3-6-------------|

  8 8 8 8 8 8 8 8   8 8 8 8 8 8 8 8   2       2
|-----------------|-----------------|-----------------|
|-----------------|-----------------|-----------------|
|o---------------o|-----------------|-5-------3-------|
|o--------3------o|-3-------3-------|-5-------3-------|
|-----3-5---5-4-3-|---5-4-3---5-4-3-|-3-------1-------|
|-3-6-------------|-----------------|-----------------|

Riff 2 (Don't play repeat 4 during lead)
                                                       1. 2. 3.
                                                      +-----------------+
                            __3__                           __3__
  8 8 8 8 8 8 8 8   2       4 4 4     8 8 8 8 8 8 8 8   2   8 8 8   4
|-----------------|-----------------|-----------------|-----------------|
|-----------------|-----------------|-----------------|-----------------|
|o--------------3===3---------------|---------------5===5---x-x-x---6--o|
|o--------------3===3-------3-3-3---|---------------5===5---x-x-x---6--o|
|---------------1===1-------3-3-3---|---------------3===3---x-x-x---4---|
|-1-3-1-3-1-3-1---|---------1-1-1---|-1-3-1-3-1-3-1---|-----------------|

                                                       4.
                                                      +-----------------+
                                                        2  8  8  8  8
                                                      |-----------------|
                                                      |-----------------|
                                                      ==5-----6-----6--o|
                                                      ==5--R--6--R--6--o|
                                                      ==3-----4-----4---|
                                                      |-----------------|

Riff 3

  8 8 8 8  4  8 8   8 8  4  8 8 8 8   8 8 8 8  4  8 8   8 8  4  8 8 8 8
|-----------------|-----------------|-----------------|-----------------|
|-----------------|-----------------|-----------------|-----------------|
|-----------------|-----------------|-----------------|-----------------|
|-8-8-8-8--R--8-8-|-8-8--R--6-R-8-R-|-5-5-5-5--R--5-5-|-5-5--R--3-R-5-R-|
|-8-8-8-8-----8-8-|-8-8-----6---8---|-5-5-5-5-----5-5-|-5-5-----3---5---|
|-6-6-6-6-----6-6-|-6-6-----4---6---|-3-3-3-3-----3-3-|-3-3-----1---3---|

[RIFF 1]

[Verse 1, play RIFF 2 underneath]
Down in the depths of my firey home
The summons bell will chime
Tempting you and all the earth
To join our sinful kind

There is a job to be done and I'm the one
You people make me do it
Now it is time for your fate and I won't hesitate
To pull you down into this pit

[Chorus, play RIFF 1 underneath]
        So come on
        Jump in the fire
        So come on
        Jump in the fire

[Verse 2, play RIFF 2 underneath]
With hell in my eyes and with death in my veins
The end is closing in
Feeding on the minds of man
And from their souls within
My disciples all shout to search out
And they always shall obey
Follow me now my child not the meek or the mild
But do just as I say

[Repeat Chorus]

[Play RIFF 3 several times behind lead (not transcribed)]

[Verse 3, play RIFF 2 underneath]
Jump by your will or be taken by force
I'll get you either way
Trying to keep the hellfire lit
I am stalking you as prey
Living your life as me I am you you see
There is part of me in everyone
So reach down grab my hand walk with me through the land
Come home where you belong

[Repeat Chorus]

[Play RIFF 2 several times behind lead (not transcribed)]
[Fade]

--------------------------      MetallicA      -------------------------------
Pulling Teeth
-------------
Wah and distortion are used throughout the song.  The distortion is on all
of the time, but the wah is applied only at certain points.  The points are
marked with a + when the wah is closed (trebly sound) and a o when the wah
is open (normal bass sound).
A lot of bended notes are used.  My notation is, for example 17b(18)r(17).
This means, fret and strike the 17th fret, bend up to the pitch of the 18th
fret, then release back to the 17th fret.  If there is no 'r(17) then it means
to bend up to the 18th fret but don't release back to the original tone.
When Tapping technique is used, a "T" above the tapped note is used.  At the
end of the song, artifical harmonics are produced by tapping.  A fret is
pressed down, and another fret is tapped.  In notation form, the fretted note
is written and the tapped fret is in paren's, i.e., 12(19) means hold on 12th
fret and tap the 19th fret with a left hand finger.  This has to be done
quickly and precisely to get the harmonic tone.  Practice it--sounds nice.
Cliff does some tremelo picking toward the end of the song also.  This is
denoted by slashes underneath the note that is being tremelo picked.  Tremelo
picking is done by very quickly picking the note--as fast as you can (as in
like 32nd notes).
Lastly, the very end of the song has some weird stuff going on.  Cliff drags
his right-hand nails along the E and A strings from the first fret up the
neck, then begins tapping the open D and G strings against the pick-ups
in a sixteenth note rhythm pattern.  This is how the song ends, and Whiplash
comes in.
    This is a masterpiece bass solo, in my opinion.  It's hard to learn, esp.
the triplets and different techniques he uses...but once you learn it, it
sounds great!  Good luck.

R. Allen Canterbury

-------------------------------------
Intro
    FREE TIME
                  harm.    sl.   sl.
G:------------------------------------|
D:--0-------0--0---12--------/-19-\---|
A:------------------------------------|
E:------------------------------------|

  * w/ wah & dist.  +=closed  o=open

    TIME = 152
                                                    sl.
G:------10-14----10-14----10-14----10-14----10-14---------9--12----9--12----9|
D:*--12-------12-------12-------12-------12-------12-\-10-------10-------10--|
A:*--------------------------------------------------------------------------|
E:---------------------------------------------------------------------------|

G:--12----9--12----9--12--|
D:-----10-------10-------*|
A:-----------------------*|
E:------------------------|

G:-----10-14----10-14----10-14----10-14----10-14----12-16----12-16----12-16--|
D:--12-------12-------12-------12-------12-------14-------14-------14--------|
A:---------------------------------------------------------------------------|
E:---------------------------------------------------------------------------|

G:---12-16----12-16-------14-17----14-17----14-17----17----12-16----12-16----|
D:14-------14-------14-15-------15-------15-------15----14-------14-------14-|
A:---------------------------------------------------------------------------|
E:---------------------------------------------------------------------------|

                                   Time=132
                                                                          +
G:16---------------------------------------14-------10--------------------12-|
D:---14-----------12--------12-12--12-----------12------12--14-----10-----10-|
A:---12-----------10---------------------------------------------------------|
E:---------------------------------------------------------------------------|

   o                                           +   o
G:--------------14-------10--------------------------------------14--------10|
D:------12-----------12------12--14-----10-----14-------12------------12-----|
A:---------------------------------------------12----------------------------|
E:---------------------------------------------------------------------------|

                       +   o                                            sl.
G:---------------------12------------------14--------10----------------------|
D:---12--14-----10-----10---------12------------12--------12--14------10-/---|
A:--------------------------------------------------------------------------0|
E:---------------------------------------------------------------------------|

G:-------------------------------------------14--15--------------------------|
D:-------------------13-12---------------15------------------------13-12-----|
A:---13---12---------------15-12-13------------------0--12---------------15--|
E:---------------------------------------------------------------------------|

                                                                           +
G:----------------14-15p14-----------------------------------------14--15----|
D:-----------15-------------15------------13-12---------------15-------------|
A:12-13--------------------------12--------------15-12-13------------------0-|
E:---------------------------------------------------------------------------|

  o
G:-------------------------------------14-15p14-----|
D:------------13-12---------------15-------------15-|
A:-12---------------15-12-13------------------------|
E:--------------------------------------------------|

G:---------16--------------14----14----------13-------------14----14------|
D:*-----16----16--------14----14----14----11----11-------12----12----12--*|
A:*--14-----------14-12----------------11----------11-12-----------------*|
E:------------------------------------------------------------------------|

G:-------16--------------17----17----------19-------------19----19----|
D:----16----16--------17----17----17----17----17-------19----19----19-|
A:-14----------14--15----------------17----------17-17----------------|
E:--------------------------------------------------------------------|

         sl. first time only
G:--------/12--------------12----------------11----12-------14-----12h14p12--|
D:*-----14----14--------14----14----14----12----12----12---------------------|
A:*--15----------15--14----------14----12----------------12------------------|
E:---------------------------------------------------------------------------|

                               1.
                              |~~~~~~~~~~~~~~~~~~~~~~~~~~~~~~~~~~~~~~~~~~~~~~
G:---12------------------------------12----------17--19--17h19p17-16--17--16h|
D:16----16-14--12-----------------14----14----0------------------------------|
A:----------------15-14-12-14--15----------15--------------------------------|
E:---------------------------------------------------------------------------|

  ~~~~~~~~~~~~~~~~~~~~~~~~~~~~~~~~~~~~~~~~~~~~~~~~~~~~~~~~~~~~~~~~~~
G:17p16------16-------------------------------------------16---------|
D:-------17------17------17--17-----17-17-17-19--19-19-19-----------*|
A:-------------------17-------------____3___-----____3___-------0---*|
E:-------------------------------------------------------------------|
                                    triplet.     triplet.

   2.
  |~~~~~~~~~~~~~~~      full bend.
G:--------12------------19b(21)r19--17h19p17-16---17---16h17p16------16------|
D:-----14----14-----0-------------------------------------------19-------17--|
A:--15----------15-----------------------------------------------------------|
E:---------------------------------------------------------------------------|

                                        sl.
G:------------------------------------16\------|
D:----17--17----17-17-17-19--19-19-19----------|
A:17------------____3___-----____3___-------0--|
E:---------------------------------------------|
                triplet.     triplet.

                    +               sl. o
G:---------------------------------------------------------------------------|
D:*--------10-------------14----14------------14----14-----------------------|
A:*-----10----10-------14----14----14/--0--12----12----12--12--12-12-12-10---|
E:---8-----------8--12-----------------------------------------____3___------|
                    *wah second time only                      triplet.
                                                            (triplets on
                                                             second time only)

                     + o                         sl.    sl. + o
G:-------------------------10----10-------------7-/-9---9-/-12--------12-----|
D:----------------------10----10----10------7----------------------12----12--|
A:10-10-10-7---7-7-7--8-----------------5-----------------------10-----------|
E:____3___-----__3__---------------------------------------------------------|
  triplet.   triplet.                                   *wah first time only


          1.                       2.
         |~~~~~~~~~~~~~~~~~~~~~   |~~~~~~~~~~~~~~~~~~~~~~~~~~~~~~~
G:12----------------------------|-----------------------------------|
D:---12------------------------*|-----------------------------------|
A:-----------------------------*|------------------------------0----|
E:--------3------5------7-------|----3-----5-----7-b(8)r---5--------|
                                                1/2 bend.

    TIME = 200

G:---------------------------------------------------------------------------|
D:*--7--7-----9--9-----10-10----9--9-----7--7-----6--6-----7---------7--7----|
A:*--------0--------0--------0--------0--------0--------0--------0---------0-|
E:---------------------------------------------------------------------------|

                               1.
                              |~~~~~~~~~~~~~~~~~~~~~~~~~
G:-----------------------------------------------sl.-------|
D:-9--9-----10-10----9--9-----10-10----14-14----13-\------*|
A:-------0--------0--------0--------0--------0---------0--*|
E:---------------------------------------------------------|

    2.
   |~~~~~~~~~~~~~~~~~                                         sl.
G:---------------------------------------------------------------------------|
D:---10-10----14-14----13-----14---13-----14---13-----14---13--/19---19---19-|
A:---------0--------0------0-----------0-----------0------------------0----0-|
E:---------------------------------------------------------------------------|

                       +
G:--18--------19--------18-----18-----18--------18--------19--------18-------|
D:--19---19---19---19---19-----19-----19---19---19---19---19---19---19---19--|
A:---0---------0---------0------0------0---------0---------0---------0-------|
E:---------------------------------------------------------------------------|

                                                    o             sl.+ sl. o
G:-19-----18--------19--------18--------19--------18-------------------------|
D:-19-----19---19---19---19---19---19---19---19---19-------------------------|
A:--0------0---------0---------0---------0---------0----(0)------------------|
E:------------------------------------------------------------------/-X-\----|

   (drums enter)
G:---------------------------------------------------------------------------|
D:-----------------------------------------------------------------------5---|
A:-----------2---0--------------------5------------5---7-------5---5--7-----7|
E:0------3-----------3---3---5-/-7-------------7-----------0-----------------|

G:---------------------------------------7b(9)r(7)---------------------------|
D:--5--7b(8)r(7)b(8)r(7)--5-----------5--------------5-------5--7b(9)r(7)--5-|
A:---------------------------------X---------------------7-------------------|
E:----------------------------0--------------------------------full-bend.----|
     3 1/2 step bends.                  full bend.

                                                                          sl.
G:-------------------------14b(16)---14-14-14b(16)---14-14-14b(16)---14--14\-|
D:-------5-------------------------------------------------------------------|
A:--7------------------------------------------------------------------------|
E:------------0--------------------------------------------------------------|
                          full bend.      full bend.      full bend.

                                                           Tap and pull-off
                                                          |~~~~~~~~~~~~~~~~~~
                                                          T      T      T
G:---------------12-----11---12-----11---12-12-12-11-------------------------|
D:-------------------0-----------0--------------------0---17p14--19p14--19p14|
A:---------------------------------------------------------------------------|
E:---0-----0-----------------------------------------------------------------|

  ~~~~~~~~~~~~~~~~~~~~~~~~~~~~~~~~~~~~~~|
    T      T      T      T      T      T            + o        + o        + o
G:-------------------------------------------16-----12--16-----12--16-----12-|
D:--21p14--19p14--17p14--19p14--21p14--17------------------------------------|
A:---------------------------------------------------------------------------|
E:---------------------------------------------------------------------------|

          + o                                                         +
G:-16-----12--16-----16----16p12----12-16p12----12-16p12-12-12-12-12--14--(14|
D:-------------------------------14----------14------------------------------|
A:---------------------------------------------------------------------------|
E:---------------------------------------------------------------------------|

                                   o sl.
G:)b(16)r(14)--12------12b(13)r(12)------------------------------------------|
D:-----------------14----------------14\--------------21-----17-17----20b(21)|
A:-----------------------------------------------------------------19--------|
E:------------------------------------------0-----0--------------------------|

        +
G:----------------------------------------------19-----------19-----------19-|
D:--20--20b(21)--20--19--17-------19b(21)r(19)------19b(20)------19b(20)-----|
A:---------------------------------------------------------------------------|
E:---------------------------------------------------------------------------|

                                                           sl. o
G:----------19----------19---19---19---19b(21)r(19)--------------------------|
D:-19b(20)------19b(20)-----------------------------------17\----------------|
A:---------------------------------------------------------------------------|
E:----------------------------------------------------------------0----0--0--|

                    +  o       +  o
G:---------------------------------------------------------------------------|
D:------------------------------------------------2---0----------------------|
A:--------------------------------------------------------3---2---1---0------|
E:----0-0--0--0--0--0-----0----0-----0---0--0-----------------------------3--|

                                         sl.
G:--------------------------------------------------15-14-12-14p12----12-----|
D:--------------------5---------5--------5/---0--------------------14--------|
A:--------------5--7-----5---7-----5--7--------------------------------------|
E:------0---0----------------------------------------------------------------|

G:15-14-12-14p12----12---15-14-12-14p12----12--------------------------------|
D:--------------14----------------------14----14-12-14p12----12--------------|
A:--------------------------------------------------------14-------14--12-13-|
E:---------------------------------------------------------------------------|

                             sl.
G:---------------------------------------------------------------------------|
D:---12-14p12---12------12--12\---------------------------------------------2|
A:14----------------14------------------------------------------------2------|
E:--------------------------------0--0--0--0--0--0--0--0-----0--0--0-----0---|

G:-------------------------------------------12------11--------------11--12--|
D:-------------------------------------14-14-11--11------11--14--11----------|
A:--------------------------------------------0------------------------------|
E:--0-----0--0----0--0--0--0---0---0-----------------------------------------|

                  harm.
G:----14--14--12-------------------------------------------------------------|
D:11--------------------------------------6---6-6-6--10---7-7-7-7---8----11--|
A:------------------9----7--0--9---10--0------------------------/---/--------|
E:--------------------------------------------------------------/---/--------|
                                                                /   /

               +
G:---------------------------------------------------------------------------|
D:9--9---12--10--10---------11-11-14-14-11-11-14-12---15-12-14-16-14-16-15-17|
A:---/------------/----------------------------------------------------------|
E:---/------------/----------------------------------------------------------|
     /            /

G:-------------------|
D:-17-16-17-19-17-19-|
A:-------------------|
E:-------------------|

                       hold.
G:--16-15-16-17-19-19/~~~~~~~~~~\--19-19-19-19-19-16----16---19-16-19p16-----|
D:------------0--------------------------------------17------------------17--|
A:---------------------------------------------------------------------------|
E:---------------------------------------------------------------------------|
                      full bend.

G:16h19p16----16h19p16----16h19p16-----16h19--19b(21)r(19)-16----16----------|
D:---------17----------17----------17-------------------------17----17----17-|
A:---------------------------------------------------------------------19----|
E:---------------------------------------------------------------------------|

                     sl. o                              +  o        +  o
G:---------------------------------------------------------------------------|
D:------- -17-19------19\----------------------------------------------------|
A:19-17-19-------------------------------------------------------------------|
E:--------------------------0-----0--0-----0--0--0--0----0-----0-----0------0|

G:---------------------------------------------------------------------------|
D:---------------------------------------------------------------------------|
A:-----------5/7--\5/7--\5----2-------------------0--------0--0--0--4h5--0---|
E:--0--0--0-----------------------0---0--0--0--0-----3--0--------------------|

                                                                    Harm.
                                                      + o          |~~~~~~~~~
G:---------------------------------------------------------------------------|
D:-----------------------------------------------------------------5-----5--5|
A:4h5--0--4h5--0--4h5--0----4h5--0--0--0--0--0--0--0--0----------------------|
E:-------------------------------------------------------0----0--------------|

  ~~~~~~~~~~~~~~~~~~~~~       T         T        T        T         T      T
G:------------------------12(19)----10(17)----9(16)----9(16)-----------------|
D:-----5--------------5-----------------------------------------10(17)--9(16)|
A:---------------------------------------------------------------------------|
E:---------4----4--4---------------------------------------------------------|

        T      T       T      T       T      T       T          T       T
G:----------9(16)------------------------------------------------------------|
D:--10(17)---------10(17)--9(16)-----------------------------9(16)--10(17)---|
A:--------------------------------10(17)--9(16)--10(17)----------------------|
E:---------------------------------------------------------------------------|

  harm.
   T        T        T     +   T  o
G:---------------------------------------------------------------------------|
D:------10(17)----9(16)------------------------------------------------------|
A:19-----------------------12(19)\-----------------------------14-----14-----|
E:------------------------------------0----0----0----0----0-----0------0-----|
                                sl.

  FREE TIME
  +                                  o  sl.
G:--------------------------------------X\-----------------------------------|
D:16------------------------------------X\-----------------------------------|
A:14--------------------------------------------X-/--------------------------|
E:-0--------------------------------------------X-/--------------------------|
                                                drag R.H. nails along E
                                                and A strings start at 1st
                                                fret

       **                                                          *
G:-----X--X--X--X--X--X--X--X--X--X--X--X--X--X--X--X--X--X--X--X--X/--X--X--|
D:-----X--X--X--X--X--X--X--X--X--X--X--X--X--X--X--X--X--X--X--X--X/--X--X--|
A:---------------------------------------------------------------------------|
E:---------------------------------------------------------------------------|
       ** Tap open D and G strings against pickups in rhythm     *nail
                                                                  scrape

G:X--X--X--X--X--X--X--X--X--X--X--X--X--X--X|
D:X--X--X--X--X--X--X--X--X--X--X--X--X--X--X|
A:-------------------------------------------|
E:-------------------------------------------|
                           Segue: "Whiplash"

--------------------------      MetallicA      -------------------------------
Whiplash
--------
Transcribed by Tony 'Bony' Asplund

INTRO
I------------------I------------------I------------------I------------------I
I------------------I------------------I------------------I------------------I
I------------------I------------------I------------------I------------------I
I-9-9-9-9----------I-9-9-9-9----------I-9-9-9-9----------I-9-9-9-9----------I
I-9-9-9-9----------I-9-9-9-9----------I-9-9-9-9----------I-9-9-9-9----------I
I-7-7-7-7----------I-7-7-7-7----------I-7-7-7-7----------I-7-7-7-7----------I

I------------------I------------------I------------------I------------------I
I------------------I------------------I------------------I------------------I
I-12---------------I------------------I------------------I------------------I
I-12---------------I------------------I------------------I------------------I
I-10---------------I------------------I------------------I------------------I
I-0----------------I------------------I------------------I------------------I
                                                                    END INTRO
I------------------I------------------I------------------I------------------I
I------------------I------------------I------------------I------------------I
I------------------I------------------I------------------I------------------I
I-9----------------I-9----------------I-9----------------I-9----------------I
I-9----------------I-9----------------I-9----------------I-9----------------I
I-7----------------I-7----------------I-7----------------I-7----------------I

RIFF A      END RIFF A
I--------------------I
I--------------------I
I------------7-6-5-2-I
I------------7-6-5-2-I
I--------------------I
I-0#########---------I

RIFF B      END RIFF B
I--------------------I
I--------------------I
I--------------------I
I------------------5-I
I------------------5-I
I-0###############---I
RIFF C                  END RIFF C
I--------------------------------I
I--------------------------------I
I-5--5-4-2-----------------------I
I-5--5-4-2-----4-4-4--4-4-4--4---I
I-3--3-2-0---4-4-4-4--4-4-4--4---I
I----------0-2-2-2-2--2-2-2--2-0-I

RIFF D     END RIFF D
I-------------------I
I-------------------I
I-7--6--5-----------I
I-7--6--5--7--6--5--I
I-5--4--3--7--6--5--I
I----------5--4--3--I

RIFF E           END RIFF E
I-------------------------I
I-------------------------I
I-------------------------I
I---------5-----5---------I
I-8-7-5---5-----5---------I
I-------7-----7---0-0-0-0-I

RIFF F
I------------------------I------------------------I------------------------I
I------------------------I------------------------I------------------------I
I------------------------I------------------------I------------------------I
I-2---4-4-4---2---4---2--I-2---4-4-4---2---4---2--I-2---4-4-4---2---4---2--I
I-2---4-4-4---2---4---2--I-2---4-4-4---2---4---2--I-2---4-4-4---2---4---2--I
I-0---2-2-2---0---2---0--I-0---2-2-2---0---2---0--I-0---2-2-2---0---2---0--I
                                                                  END RIFF F
I------------------------I------------------------I------------------------I
I------------------------I------------------------I------------------------I
I------------------------I------------------------I------------------------I
I-2---4-4-4---2---4---2--I-(2)--------------------I-2---4-4-4---2----4---4-I
I-2---4-4-4---2---4---2--I-(2)--------------------I-2---4-4-4---2----4---4-I
I-0---2-2-2---0---2---0--I-(0)--------------------I-0---2-2-2---0----2---2-I

Here's the song:

INTRO

RIFF A x 8

RIFF B x 4

RIFF B x 4
 Late at night all systems go
 You have come to see the show
 We do our best You're the rest
 You make it real you know
 There is a feeling deep inside
 That drives you fuckin' mad
 A feeling of a hammerhead
 You need it oh so bad

RIFF C x 3
    Adrenalin starts to flow
    You're thrashing all around
    Acting like a maniac

    WHIPLASH

RIFF A x 4

RIFF B x 4
 Bang your head against the stage
 Like you never did before
 Make it ring Make it bleed
 Make it really sore
 In a frenzied madness
 with your leather and your spikes
 Heads are bobbing all around
 It is hot as hell tonight

RIFF C x 3
    Adrenalin starts to flow
    You're thrashing all around
    Acting like a maniac

    WHIPLASH

RIFF A x 4

RIFF B x 4
 Here on the stage the Marshal noise
 is piercing through your ears
 It kicks your ass kick your face
 Exploding feeling nears
 Now is the time to let it rip
 To let it fuckin' loose
 We are gathered here to maim and kill
 Cause this is what we choose

RIFF C x 3
    Adrenalin starts to flow
    You're thrashing all around
    Acting like a maniac

    WHIPLASH

RIFF D

RIFF E x 24 (last 16 with solo)

E5 (VII fret)

RIFF A x 4 (with solo)

RIFF B x 4
 The show is through the metal is gone
 It is time to hit the road
 Another town Another gig
 Again we will explode
 Hotel rooms and motorways
 Life out here is raw
 But we will never stop
 We will never quit
 cause we are Metallica

RIFF C x 3
    Adrenalin starts to flow
    You're thrashing all around
    Acting like a maniac

RIFF C x 1

RIFF F x 1

--------------------------      MetallicA      -------------------------------
Phantom Lord
------------
Tabbed by Paul Halvorson

Intro after fading in Bass.
||-----------------------------------------------------------------------------
||-----------------------------------------------------------------------------
||-2-----2--2-----2--2--2-----2--2-----2-----4-----4--4-----4--4--4-----4--4---
||-2-----2--2-----2--2--2-----2--2-----2-----4-----4--4-----4--4--4-----4--4---
||-0-----0--0-----0--0--0-----0--0-----0-----2-----2--2-----2--2--2-----2--2---
||-----------------------------------------------------------------------------


 Main Riff. This is played all throughout the song, including right after the
 intro and between verses.
||------------------------|---------------------||
||------------------------|---------------------||
||*-----------------7--9--|--------------------*||
||*--7--9--9--9--9--5--7--|--7--9--9--9--9--7--*||
||---5--7--7--7--7--------|--5--7--7--7--7--5---||
||------------------------|---------------------||


   This part is played after the non-distorted part in the middle
||-----------------------------------------------------------------||
||-----------------------------------------------------------------||
||*---------------------------------------------------------------*||
||*---2-----2--2--2-----5--5--5--5-----4--4--4--4-----3--3--3--3--*||
||----2-----2--2--2-----5--5--5--5-----4--4--4--4-----3--3--3--3---||
||----0-----0--0--0-----3--3--3--3-----2--2--2--2-----1--1--1--1---||
            \___________Extremely_Heavy_Palm_Muting!___________/

  This is played after repeating the above line the 4th time.
||------------------||
||------------------||
||------------------||
||---2--2--2--2--2--||
||---2--2--2--2--2--||
||---0--0--0--0--0--||

--------------------------      MetallicA      -------------------------------
No Remorse
----------

RIFF A
I--------------------------------------------------I
I--------------------------------------------------I
I------------------------------------------2-------I
I------------------------------------------2-------I
I-2-4---4-4---4-2---2-2--2-4---4-4---4-2---0-------I
I-0-2---2-2---2-0---0-0--0-2---2-2---2-0-----------I
                                          END RIFF A
I--------------------------------------------------I
I--------------------------------------------------I
I------------------------------------------4-------I
I------------------------------------------4-------I
I-2-4---4-4---4-2---2-2--2-4---4-4---4-2---2-------I
I-0-2---2-2---2-0---0-0--0-2---2-2---2-0-----------I

RIFF B
I--------------------------------------I
I--------------------------------------I
I-----------------------------5--------I
I-----------------------------5--------I
I-----5-7-----5-7-----5-7-----3--------I
I-0-0-----0-0-----0-0-----0-0----------I
                              END RIFF B
I--------------------------------------I
I--------------------------------------I
I--------------------------------------I
I--------------------------------------I
I-----5-7-----5-7-----5-7--------------I
I-0-0-----0-0-----0-0-----5-6-7--------I

RIFF C           END RIFF C
I-------------------------I
I-------------------------I
I-------------------------I
I-5---2-5---2-5---2-5---2-I
I-5---2-5---2-5---2-5---2-I
I-3---0-3---0-3---0-3---0-I

RIFF D              END RIFF D
I----------------------------I
I----------------------------I
I----------------------------I
I----------------------------I
I-----10---9---7---5---5/7---I
I-0-0----0---0---0---0-------I

RIFF E
I----------------------------I----------------------------I
I----------------------------I----------------------------I
I---------------9------------I---------------7------------I
I---------------9------------I---------------7------------I
I---------------7------------I---------------5------------I
I-0-0-3-2-2-0-0--------------I-0-0-3-2-2-0-0--------------I
                                                 END RIFF E
I----------------------------I----------------------------I
I----------------------------I----------------------------I
I---------------5------------I---------------7------------I
I---------------5------------I---------------7------------I
I---------------3------------I---------------5------------I
I-0-0-3-2-2-0-0--------------I-0-0-3-2-2-0-0--------------I

RIFF F
I-------------------------------I-------------------------------I
I-7---5-4-5---4---4-------------I-7---5-4-5---4---4-------------I
I---------------7-----7-5-4-5-7-I---------------7-----7-5-4-5-7-I
I-------------------------------I-------------------------------I
I-------------------------------I-------------------------------I
I-------------------------------I-------------------------------I
                                                       END RIFF F
I-------------------------------I-------------------------------I
I-7---5-4-5---4---4-------------I-------------------------------I
I---------------7-----7-5-4-5-7-I-7-------------2---------------I
I-------------------------------I-7-------------2---------------I
I-------------------------------I-5-------------0---------------I
I-------------------------------I-------------------------------I

RIFF G                                                              END RIFF G
I------------------I------------------I------------------I-------------------I
I------------------I------------------I------------------I-------------------I
I-2----------------I-7----------------I-5----------------I-4--------4--5--4--I
I-2----------------I-7----------------I-5----------------I-4--------4--5--4--I
I-0-0#############-I-5-0#############-I-3-0#############-I-2#######-2--3--2--I
I------------------I------------------I------------------I-------------------I

RIFF H                                           END RIFF H
I---------------------------------------------------------I
I---------------------------------------------------------I
I-2-2-----5-2---2-2-----7-5---2-2-----5-2---0-0---4-5-4---I
I-2-2--X--5-2---2-2--X--7-5---2-2--X--5-2---0-0---4-5-4---I
I-0-0--X--3-0---0-0--X--5-3---0-0--X--3-0---0-0---2-3-2---I
I---------------------------------------------------------I

I----------------------------I----------------------------I
I----------------------------I----------------------------I
I---------------7------------I----------------------------I
I---------------7------------I---------------2------------I
I---------------5------------I---------------2------------I
I-0-0-3-2-2-0----------------I-0-0-3-2-2-0---0------------I

Here's the song:

RIFF A x 10 ( 6 in the middle with solo)

RIFF B x 4

RIFF B x 2
 No mercy for what we are doing
 No thought to even what we have done
 We don't need to feel the sorrow
 No remorse for the helpless one

RIFF C x 4

RIFF D x 8
    War without end
    No remorse No repent
    We don't care what it meant
    Another day Another death
    Another sorrow Another breath
    No remorse No repent
    We don't care what it meant
    Another day Another death
    Another sorrow Another breath

RIFF B x 4

RIFF B x 2
 Blood feeds the war machine
 as it eats its way across the land
 We don't need the feel the sorrow
 No remorse is the one command

RIFF C x 4

RIFF D x 8
    War without end
    No remorse No repent
    We don't care what it meant
    Another day Another death
    Another sorrow Another breath
    No remorse No repent
    We don't care what it meant
    Another day Another death
    Another sorrow Another breath

 (listen to the record and you'll know what I mean)

RIFF E x 10

RIFF F x 1

RIFF B x 2

RIFF B x 2
 Only the strong survive
 No one to save the weaker race
 We are ready to kill all comers
 Like a loaded gun right at your face

RIFF C x 4

RIFF D x 8
    War without end
    No remorse No repent
    We don't care what it meant
    Another day Another death
    Another sorrow Another breath
    No remorse No repent
    We don't care what it meant
    Another day Another death
    Another sorrow Another breath

Attack

RIFF G x 4

RIFF H x 2
 Bullets are flying
 People are dying
    with madness surrounding all hell's breaking loose
 Soldiers are hounding
 Bodies are mounting
    cannons are shouting to take their abuse

RIFF G x 2

RIFF H x 2
 With war machines going
 Blood starts to flowing
 No mercy given to anyone hear
 The furious fighting
 Swords are like lighting
 It all becomes frightening to you
 Know death is near
RIFF G x 2

C5 B5 E5#################
No Re-morse

RIFF I x 1

--------------------------      MetallicA      -------------------------------
Seek And Destroy
----------------

     G5           A5          C5          D5          F#5         F5

e|--------|   e|-------|  e|-------|  e|-------|  e|-------|  e|-------|
B|--------|   B|-------|  B|-------|  B|-------|  B|-------|  B|-------|
G|--------|   G|-------|  G|---5---|  G|---7---|  G|----6--|  G|----5--|
D|----5---|   D|---7---|  D|---5---|  D|---7---|  D|--4----|  D|--3----|
A|----5---|   A|---7---|  A|-------|  A|-------|  A|-------|  A|-------|
E|--------|   E|-------|  E|-------|  E|-------|  E|-------|  E|-------|

   G5(V)           A

e|-------|    e|-------|
B|-------|    B|-------|
G|----7--|    G|---2---|
D|--5----|    D|---2---|
A|-------|    A|---0---|
E|-------|    E|-------|

Riff A.  (Play 8 times)

e|| ---------------------------------|--------------------------------- ||
B|| ---------------------------------|--------------------------------- ||
G||.----------7h8-7------------------|-----------------------5---------.||
D||.--------------------------7h8-7--|--------------5-------------7----.||
A|| -0---0-----------------0---------|--0---8---7--------7------------- ||
E|| ---------------------------------|--------------------------------- ||
     ^   ^                 ^            ^   ^   ^        ^
      P.M.                P.M.             P.M.         P.M.

Riff B.

e||---------------------------------||
B||---------------------------------||
G||-9---7-------7-------------------||
D||---------9-------9---8---7sl5----||
A||---------------------------------||
E||---------------------------------||

Rhy. Fig. 1   (Play three times)

                 G5  A5  G5  A5
e|| -----------------------------|---------------------------- ||
B|| -----------------------------|---------------------------- ||
G||.-----------------------------|----------------------------.||
D||.---------------5--7--5--7----|----------------------------.||
A|| ---------------5--7--5--7----|---------------7--5--------- ||
E|| -0--0--0--0------------------|--0--0--0--0----------7--6-- ||
     ^  ^  ^  ^                     ^  ^  ^  ^
        P.M.                           P.M.

Riff C.      (Play twice)

e|| ---------------------------------|--------------------------------- ||
B|| ---------------------------------|--------------------------------- ||
G||.---------------------------------|---------------------------------.||
D||.---------------------------------|-------------------------5-------.||
A|| ---------------------------------|-----------------------------7--- ||
E|| -0---0---0---0---0---0---0---0---|-0---0---0---0---7---6----------- ||

1st, 2nd,  3rd verses  with Riff. C

1st :   Scanning the scene in the city tonight,
        We're looking for you to start up a fight.
        There's an evil feeling in our brains,
        but it's nothing new. You know it drives us insane.

Pre-Chorus :  Running.  On our way. Hiding.  You will pay.  Dying 1000 deaths.

Chorus     :  Searching.......   Seek and destroy

2nd :   There is no escape and that's for sure.
        This is the end we won't take anymore.
        Say goodbye to the world you live in
        You've always been taking, but now you're giving.

3rd :   Our brains are on fire with the feeling to kill
        And it wont go away until our dreams are fulfilled,
        there is only one thing on our minds.
        Don't try running away 'cause youre the one we will find.

Rhy. Fig. 2

C5  A          C5  D5   C5
 -----------    -----
 |   |  |  |    |   |    |
 |   |  |  |    |   |    |
 |   |  |  |    |   |    |
/   /  /  /    /   /    /

Rhy. Fig. 3  (Played during chorus)

G5(V)  F#5   F5

Fill 1

e|| ---------------------------------|
B|| ---------------------------------|
G|| ---7--5--------------------------|
D|| ---------7--6--5-----------------|
A|| ------------------7--6--5--------|
E|| ---------------------------------|

Rythm Fill 1

e|| ---------------------------------|
B|| ---------------------------------|
G||.---------------------------------|
D||.--5--------7---------7-----------|
A|| -----0--0------0--0------0-------|
E|| ---------------------------------|

Substitute Rhythm Fill 1 (2nd 3rd and 4th times)

e|| --------------------------|-------------------------|----------------------|
B|| --------------------------|-------------------------|----------------------|
G||.--------------------------|-5-----------------------|-4--------------------|
D||.-5---7------7--------7----|-5--------7--------7-----|-4-------7--------7---|
A|| -0---0---0-----0--0-----0-|----0--0-----0--0------0-|----0--0----0--0---\--|
E|| --------------------------|-------------------------|------------------sl\-|
             ^     ^  ^     ^      ^  ^     ^  ^      ^      ^  ^    ^  ^
           P.M. (all the marked notes)

e| ------------------------------ ||
B| ------------------------------ ||
G| ------------------------------.||
D| ----------3--2--0-------------.||
A| -3--2--0-----------3--0------- ||
E| ------------------------------ ||
    ^  ^  ^
      P.M.

Rhythm Fig.  4

e|------------------|--------------------|------------------|------------------|
B|------------------|--------------------|------------------|------------------|
G|------------------|--------------------|------------------|------------------|
D|------------------|-5------------------|-4----------------|------------------|
A|-5h7---7------7---|-5-------7------7---|-4------7------7--|-------3-2-0------|
E|-----0---0--0---0-|---0--0----0--0---0-|---0--0----0-0--\-|-3-2-0-------3-0--|
                                                         sl\

Rhythm Fill 2         Rhythm Fill 3

e|-----------------|------------------------------|
B|-----------------|------------------------------|
G|-----------------|------------------------------|
D|-9---------------|-4-----------------7sl5-------|
A|-7-----------7---|-4-----------------7sl5-------|
E|---0-0-0-0-0--\--|-2--0--0--0--0--0--5sl3--0--0-|
               sl\

Notation : P.M. = palm mute,  sl = slide, h = hammer on,  p = pull-off

--------------------------      MetallicA      -------------------------------
Metal Militia
-------------
From: gregh@tcs.itis.com (Greg and or Paul Halvorson)
This is the newest version of this tab. I found  2 errors in it, and added
another riff to it (one played during verses).

Tabbed By Paul Halvorson

  Intro
||-----------------------------------------------------------------------------
||-----------------------------------------------------------------------------
||-----------------------------------------------------------------------------
||-----------------------------------------------------------------------------
||-3/5~~~-----8\7---------------------------------------------------5--7-------
||-1/3~~~-----6\5---0--0--0--0--0--0--0--0--0--0--0--0--0--0--0--0--3--5-------



-------------------------------------------------------------------------------
-------------------------------------------------------------------------------
-------------------------------------------------------------------------------
-------------------------------------------------------------------------------
------------------------------------------------8--7---------------------------
0--0--0--0--0--0--0--0--0--0--0--0--0--0--0--0--6--5-----0--0--0--0--0--0------



------------------------------------------------------------------------||
------------------------------------------------------------------------||
------------------------------------------------------------------------||
------------------------------------------------------------------------||
------------------------------5--7-----------------------------8--7--5--||
0--0--0--0--0--0--0--0--0--0--3--5-----0--0--0--0--0--0--0--0--6--5--3--||


Before Main Riff
||----------------------------------------||
||----------------------------------------||
||----------------------------------------||
||----------------------------------------||
||-8--7--5-----8--7--5-----8--7--5-----7--||
||-6--5--3-----6--5--3-----6--5--3-----5--||


  Repeat a few times.              Not sure about this part.
||-------------------------------||------------------------||
||-------------------------------||------------------------||
||*-----------------------------*||---3-----2--------------||
||*-----7-----5-----2-----1--0--*||---1--5--0-----x--x--2--||
||---0-----0-----0-----0---------||------3--------x--x--0--||
comments
print report bad tab
8 comments total. Showing first comments.
-1 reply
CvPrEpKiLLaH wrote on February 7 2004, 12:00 am

This is great, but where are the solos?

+1 reply
r_lightning wrote on May 29 2004, 12:00 am

you cant call this an album tab when you guys only tabs 69% of the songs:-/

+2 reply
strumntheguitar wrote on July 4 2004, 12:00 am

no... this isn't even close to being right... the solo for Four Horsemen is a LOT longer than what you've tabbed out... as is true for most of the songs you've tabbed. Nice try, you got most of the main riffs down for the songs, but there are a lot of good solos on this album, and you didn't tab them all

I want to post or [tab]
guest
You may want to rate the tab now too:
select rating
Please do not post tabs as comments. Select "correction" instead!