Oops, an error
Loading. Please wait.

Killem All Bass Tab

ver2
ver2

Album

More versions @911Tabs.com
2,407 views 1 this week
1 commentread comment
1 2 3 4 5
worth learning
x 2
add to favorites launch autoscroll
font size
0
reset
Autoscroll
+/-
esc
set tempo
stop
Contributor
WARNING: You are trying to view
                                    content from Ultimate-Guitar.com
                                    in an unauthorized application,
                                    which is prohibited.

                                    Please use an official Ultimate
                                    Guitar Tabs application for iPhone,
                                    iPad or Android to access legitimate
                                    chords, guitar, bass, and drum tabs
                                    from Ultimate-Guitar.com database.

                                    Type "ultimate guitar tabs" in Apple
                                    App Store's or Android Market's
                                    search to find the application.
Band- Metallica
Album- Kill Em All

1.HIT THE LIGHTS

Intro

G---------------------------------------------------------------|
D---------------------------------------------------------------|
A---------------------------------------------------------------|
E-000000000000000000000000~---2222222222222222222222222222222~--|

G----------------------------------|
D-----------------------7H5---5----|
A---------3-5-0-------------7---7--|
E-5555555-------5555555------------| X2

G-------------------------|
D-------------------------|
A-5-5-5-------5-5-5-3-2---|
E-------3-3-3-----------3-|

G----------------------------------|
D-----------------------7H5---5----|
A---------3-5-0-------------7---7--|
E-5555555-------5555555------------| X2

G-------------------------|
D-------------------------|
A-5-5-5-------5-5-5-3-2---|
E-------3-3-3-----------3-|

G----------------------------------|
D-----------------------7H5---5----|
A---------3-5-0-------------7---7--|
E-5555555-------5555555------------| X2

G-----------------|
D-----------------|
A-----------3-2---|
E-0-0-3-2-3-----3-|

G----------------------|
D-----------------3----|
A-5-5-3H5-5-3H5-5---3--|
E----------------------| X3

G----------------------------------|
D-----------------------7H5---5----|
A---------3-5-0-------------7---7--|
E-5555555-------5555555------------| X2

G----------------|
D-7-5------------|
A-----7-6-5------|
E-----------8-5--| X5

G---------------------|
D---------------------|
A---------5---------7-|
E-7-7-7-7---7-7-7-7---|

G----------------------------------------|
D---------------------9-7----------------|
A---------5---------7-----9-8-7----------|
E-7-7-7-7---7-7-7-7-------------10-7 X12-|

G--------------|
D-7-5----------|
A-----7-6-5----|
E-----------8--| X3

2.THE FOUR HORSEMEN

cresc. - crescendo  (Play louder and louder, 'fade in')

||--  --||
||-o  o-||  - a repeat
||-o  o-||
||--  --||

|  X  |
|-----|  - X bar rest
|-----|
|     |

|-----|
|  %  |  - repeat previous bar
|-----|
|-----|

                                                   Have fun,
                                                   Wilbert Pol
-----------------------------------------------------------------------------

                      THE FOUR HORSEMEN
                      -----------------

204 bpm   with triplet feel  ( e e = q e )
                                     [3]
Intro                                              2 times
|---------||-------|---|---|---------|---|---|-----------||
|---------||-o---R-|-R-|-R-|---------|---|---|---------o-||
|-3---5-3-||-o-7---|---|---|-R---R---|-R-|-R-|-3---5-3-o-||
|---3-----||-------|---|---|---0---0-|---|---|---3-------||
  q q q q      q h.  w   w   q q q q   w   w   q q q q

fig.1
|-----------------|-------------|-----------------|-------------|
|-----------------|-------------|-----------------|-------------|
|-------7-------7-|-------7-5-5-|-------7-------7-|-------7-3-5-|
|-0-0-0---0-0-0---|-0-0-0-------|-0-0-0---0-0-0---|-0-0-0-------|
  e e e q e e e q   e e e q q q   e e e q e e e q   e e e q q q
  [ 3 ]   [ 3 ]     [ 3 ]         [ 3 ]   [ 3 ]     [ 3 ]

                                   end fig.1
|-----------------|-------------|---------||
|-----------------|---------5---|---------||
|-------7-------7-|-------7---7-|-3---5-3-||
|-0-0-0---0-0-0---|-0-0-0-------|---3-----||
  e e e q e e e q   e e e q q q   q q q q
  [ 3 ]   [ 3 ]     [ 3 ]

  Verses 1,2                 Chorus
||--                         |---------------|-----------------|
||-o  play fig.1  2 times    |---------------|-----------------|
||-o                         |-7-7-7-7-0-7-0-|-7-0-7-0-7-0-7-0-|
||--                         |---------------|-----------------|
                               q e e e e e e   e e e e e e e e

|-----------------|-----------------|-----------------|-----------------|
|-----------------|-----------------|-----------------|-----------------|
|-5-5-5-5-5-0-5-0-|-5-0-5-0-5-0-5-0-|-3-3-3-0-3-0-3-0-|-3-0-3-0-3-0-3-0-|
|-----------------|-----------------|-----------------|-----------------|
  e e e e e e e e   e e e e e e e e   e e e e e e e e   e e e e e e e e

|---------|--------------|---------------|-----------------|
|---------|------7-7-8-9-|---------------|-----------------|
|-2-3-5-7-|-9-10---------|-7-7-0-7-0-7-0-|-7-0-7-0-7-0-7-0-|
|---------|--------------|---------------|-----------------|
  q q q q   q q  q e e e   q e e e e e e   e e e e e e e e
                   [ 3 ]

                   2nd & 3rd time fill 1
|-----------------|-----------------|-----------------|---------|
|-----------------|-----------------|-----------------|---------|
|-5-5-5-0-5-0-5-0-|-5-0-5-0-5-0-5-0-|-3-3-3-0-3-0-3-0-|-2-3-2---|
|-----------------|-----------------|-----------------|-------3-|
  e e e e e e e e   e e e e e e e e   e e e e e e e e   q q q q

                   fill 1
                  |-----------------|
                  |-7-------7---7---|
                  |---5-5-5---5---5-|
                  |-----------------|
                    e e e e e e e e

fig.2
|-----------------|-----------------|-----------------|-------------------|
|-----------------|-----------------|-----------------|-----------7-5-----|
|-7-5-7-5-7-5-7-5-|-7-5-7-5-7-5---5-|-7-5-7-5-7-5-7-5-|-----5-7-5-----7-5-|
|-----------------|-------------7---|-----------------|-6-7---------------|
  e e e e e e e e   e e e e e e e e   e e e e e e e e   e e e e e e e e e
                                                        [ 3 ]

                                      end fig.2            3rd time to coda
|-----------------|-----------------|---------|              --||
|-----------------|-----------------|---------|  play fig.2  o-||
|-7-5-7-5-7-5-7-5-|-7-5-7-5-7-5-----|-3---5-3-|              o-||
|-----------------|-------------7-5-|---3-----|              --||
  e e e e e e e e   e e e e e e e e   q q q q

                              fig.3
|---||-----|  6  |-----------||-----------------------|
|---||-----|-----|-R-R-------||-o---------------------|
|-7-||---R-|-----|-----8p7-7-||-o-7---------7---------|
|-0-||-0---|     |-----------||-----0-0-0-0---0-0-0-0-|
  w    e h..       q e e q q      e e e e e e e e e e
                                    [ 3 ]       [ 3 ]

                                             end fig.3 4 times
|------------------|---------------------|-----------------||
|------------------|---------------------|---------------o-||
|-7---------8\7--7-|-7---------7---------|-7---------8-8-o-||
|---0-0-0-0--------|---0-0-0-0---0-0-0-0-|---0-0-0-0-------||
  e e e e e s e. q   e e e e e e e e e e   e e e e e q q
      [ 3 ]              [ 3 ]     [ 3 ]       [ 3 ]

half time (102 bpm)                      164 bpm straight eights
fill A-------------------| 2/4          4/4-----------------|
|-9-7---7-----------------|-/9-7---7-----|---R--------------|
|-----9---9-8-7-5-7---5-7-|------9---9-8-|-7-----R---R------|
|-------------------7-----|--------------|-----3---4---5----|
|-------------------------|--------------|------------------|
  e e e e e e e e e e e e    e e e e e e   q e e e e e e
  [ 3 ] [ 3 ] [ 3 ] [ 3 ]    [ 3 ] [ 3 ]

                                   8 times
||-------------------|-------------------||
||-o-----------------|-----------------o-||
||-o---------8-7-5-7-|-------3---4---5-o-||
||---0-0-5-7---------|-0-0-0---0---0-----||
     e e e e e e e e   e e e e e e e e

Bridge                              8 times
||-------------------|-------------------||
||-o-----------------|-----------------o-||
||-o-----------------|-------3---4---5-o-||
||---0-0-0-0-0-0-0-0-|-0-0-0---0---0-----||
     e e e e e e e e   e e e e e e e e

102 bpm
fill A 2 times

90 bpm
|-------------------------|----------------------|-------------------------|
|-------------------------|----------------------|-------------------------|
|-----7-7-7-7-5-5-5-5-7-5-|-3-3-3-3-3-0-2-2-2-9\-|-------------------------|
|-0-0---------------------|----------------------|-0-0-0-0-0-0-2-2-3-2-0-2-|
  e e s s s s e e s s s s   e e s s s s e e e e    e e s s s s e e s s s s

|---------------------------|--------------------------|
|---------------------------|--------------------------|
|-----------R-------------5-|-7-7-7-7-7/9-9-9-9-9-9/10-|
|-3-3-3-3-3---7-7-7-7-7-7---|--------------------------|
  e e s s s s s s s s s s e   e e s s s s e e s s s s

|----------------------------------|-------------------------------------|
|----------------------------12----|-14-14-14-14-14-14-16-16-16-16-16-16-|
|-10-10-10-10-10/14-14-14-14----14-|-------------------------------------|
|----------------------------------|-------------------------------------|
  e  e  s  s  s  s  s  s  e  e  e    e  e  s  s  s  s  e  e  s  s  s  s

|-----------------------------------------||
|-17-17-17-17-17/21-21-21-21-21-21-21-21\-||
|-----------------------------------------||
|-----------------------------------------||
  e  e  s  s  s  s  s  s  s  s  s  s  e

Guitar solo I
|-----------------------|---------------------|--------------------|
|-------4-5---------4-5-|---------4-5---------|--------------------|
|-----7-----5-5-5-7-----|-3-3-5-7-----2-2-2-2-|-7----7-5-5-7-5-0-5-|
|-0-0-------------------|---------------------|-0--0---------------|
  e e e s s e e s s s s   e e s s s s e e e e   e. s q e e s s s s

|-----------------------|-------------------------|
|-----------------5-4-2-|-2-2-2-2-0-2-4-4-4-4-0-4-|
|-3-3-5-3-0-3-2-2-------|-------------------------|
|-----------------------|-------------------------|
  e e s s s s e e s s e   e e s s s s e e s s s s

|--------------------------|----------------------------|
|-5-5-5-4-2-0--------------|----------------------------|
|-------------2-2-0-2-0-2/-|-/7-----7-7-7-7-5-5-7-5-0-5-|
|--------------------------|--0-0-0---------------------|
  e e s s s s e s s s s e     e s s s s s s e e s s s s

|-----------------------------|---------------------------|
|-----5-4-2-------------------|-2---2-0-2-4-2-4-2-4-2-4-0-|
|-3-3-------5-3-5-3-2-3-2-----|---------------------------|
|-------------------------3-2-|---0-----------------------|
  e e s s s s s s s s s s s s   e e e s s s s s s s s s s

|-------------------------|-----------------------------|
|-------------------------|-----------------------------|
|-3-3-3-5-3-0-3-2-2-2-----|-------7-7-7-7-9-9-9-9-9-9-7-|
|---------------------3-2-|-0-0-0-----------------------|
  e s s s s s s e s s e e   e s s s s s s e s s s s s s

|-----------------------|-------------------------|-------------------------|
|-----5-------------5---|-----------------5-7-----|-----------5-7-----------|
|-3-3---3-0-3-2-2-2---7-|-7---7-7-7-7-5-5-----7-5-|-3-3-3-5-7-----2-2-2-2-2-|
|-----------------------|-0-0---------------------|-------------------------|
  e e s s s s s s e e e   e e s s s s e e s s s s   s s e s s s s s s e e e

                          2/4         4/4
|-------------------------|-----------|-----------------|-----||
|---------------------7---|-----------|-----------------|---R-||
|-7---7-7-7-7-5-5-7-5---5-|-3-3-5-3-5-|-2-3-2-3-2-3-2-3-|-2---||
|---0---------------------|-----------|-----------------|-----||
  e e s s s s e e s s s s   e e s s e   e e e e e e e e   q h.

triplet feel
204 bpm                102 bpm

play fig.3  4 times   |  play fill A 2 times ||

204 bpm
|------|---|---|---------|---|---|---------|---------|---------|---------|
|------|---|---|---------|---|---|---------|---------|---------|---------|
|---R--|-R-|-R-|-R---R---|-R-|-R-|-3---5-3-|---R---R-|---R---R-|---R---R-|
|-0----|---|---|---0---0-|---|---|---3-----|-0---0---|-0---0---|-0---0---|
  e h..  w   w   q q q q   w   w   q q q q   q q q q   q q q q   q q q q

|---------|---------|---------|---------||
|---------|---------|---------|---------||
|---R---R-|---R---R-|---R---R-|-3---5-3-||
|-0---0---|-0---0---|-0---0---|---3-----||
  q q q q   q q q q   q q q q   q q q q

D.S. Verse 3 al Coda

Coda                         Guitar solo II
|---||                      ||                     ||-----------------|
|-R-|| play fig.3  4 times  || play fig.3  8 times ||-----------------|
|---||                      ||                     ||-7-5-7-5-7-5-7-5-|
|---||                      ||                     ||-----------------|
  w                                                   e e e e e e e e

|-----------------|-----------------|-------------------|
|-----------------|-----------------|-----------7-5-----|
|-7-5-7-5-7-5---5-|-7-5-7-5-7-5-7-5-|-----5-7-5-----7-5-|
|-------------7---|-----------------|-6-7---------------|
  e e e e e e e e   e e e e e e e e   e e e e e e e e e
                                      [ 3 ]

|-----------------|-----------------|---------|-----||
|-----------------|-----------------|---------|-----||
|-7-5-7-5-7-5---5-|-7-5-7-5-7-5-----|-3---5-3-|---R-||
|-------------7---|-------------7-5-|---3-----|-0---||
  e e e e e e e e   e e e e e e e e   q q q q   q h.

3.MOTORBREATH

After the drums solo

G:----------------------|
D:----------------------|
A:-0--2--1--------------|
E:----------------------|

Intro

G:----------------------------------------------|
D:----------------------------------------------|
A:-2-2-0-2-2-0----------------------------------|
E:-------------3-3-2-3-3-2--5-5-4-5-5-0-2-2-0-2-|


E:----------------------|
A:----------------------|
D:----------------------|
G:-5-5-4-5-5-4-2-2-0-2--|


Verse

G:----------------------------------------------|
D:----------------------------------------------|
A:-2-2-0-2-2-0----------------------------------|
E:-------------3-3-2-3-3-2--5-5-4-5-5-0-2-2-0-2-|


E:----------------------|
A:----------------------|
D:----------------------|
G:-5-5-4-5-5-4-2-2-0-2--|


Pre-Chorus

E:-------------------------|
A:-------------------------|
D:-2-2-0-2-2-0-2-2-0-2-2-0-|
G:-------------------------|


Chorus

G:---------------------------------------------|
D:---------------------------------------------|
A:-2-2-0------5-5------------------------------|
E:------3-3-2----0-2-2--3--3-3-0--0-0--2-2-0-2-|

Now comes this part

G:----------------------|
D:----------------------|
A:-2-2-2--2-2-2-2-2-2-2-|   x4
E:----------------------|


Verse

G:----------------------------------------------|
D:----------------------------------------------|
A:-2-2-0-2-2-0----------------------------------|
E:-------------3-3-2-3-3-2--5-5-4-5-5-0-2-2-0-2-|


E:----------------------|
A:----------------------|
D:----------------------|
G:-5-5-4-5-5-4-2-2-0-2--|


Chorus

G:---------------------------------------------|
D:---------------------------------------------|
A:-2-2-0------5-5------------------------------|
E:------3-3-2----0-2-2--3--3-3-0--0-0--2-2-0-2-|


Solo

G:----------------------|
D:----------------------|
A:-2-2-2--2-2-2-2-2-2-2-|  x4
E:----------------------|

G:---------------------|
D:---------------------|
A:-0------0--1--2------|
E:---------------------|

G:---------------------------------------|
D:---------------------------------------|
A:-4-4-4-4-4-4-4-2-4-4-4-4-4-4-4-4-4-----|   x4
E:-----------------------------------0-4-|


Then comes this

G:----------------------------------------------|
D:----------------------------------------------|
A:-2-2-0-2-2-0----------------------------------|
E:-------------3-3-2-3-3-2--5-5-4-5-5-0-2-2-0-2-|

E:----------------------|
A:----------------------|
D:----------------------|
G:-5-5-4-5-5-4-2-2-0-2--|

Verse

G:----------------------------------------------|
D:----------------------------------------------|
A:-2-2-0-2-2-0----------------------------------|
E:-------------3-3-2-3-3-2--5-5-4-5-5-0-2-2-0-2-|


E:----------------------|
A:----------------------|
D:----------------------|
G:-5-5-4-5-5-4-2-2-0-2--|


Chorus

G:---------------------------------------------|
D:---------------------------------------------|
A:-2-2-0------5-5------------------------------|
E:------3-3-2----0-2-2--3--3-3-0--0-0--2-2-0-2-|


Then Solo 2

G:---------------------|
D:---------------------|
A:-0------0--1--2------|
E:---------------------|

G:---------------------------------------|
D:---------------------------------------|
A:-4-4-4-4-4-4-4-2-4-4-4-4-4-4-4-4-4-----|   x8
E:-----------------------------------0-4-|


Outro

G:-----------------------|
D:-----------------------|
A:-------2-2-2--------4--|
E:-5-5-5-------2-2-2-----|

4.JUMP IN THE FIRE

176 bpm
fig.1
|---------|---------|---------|-----------|---------|----------|
|---------|---------|---------|-R----R----|---------|----------|
|---------|---------|---------|---3----1--|---------|-1-1-1-1/-|
|-3-3-3-3-|-1-1-1-1-|-0-0-0-0-|-----------|-3-3-3-3-|----------|
  q q q q   q q q q   q q q q   e q. e q.   q q q q   q q q q
  . . . .   etc.

|-----------------|-----------|---------|---------|---------|-----------|
|-----------------|------R----|---------|---------|---------|-R----R----|
|-/8-8-0-8-8-0-8\-|-0-3----1--|---------|---------|---------|---3----1--|
|-----------------|-----------|-3-3-3-3-|-1-1-1-1-|-0-0-0-0-|-----------|
   e e e e e e q    e q. e q.   q q q q   q q q q   q q q q   e q. e q.

                                  end fig.1
|---------|---------|---------|-----------||
|---------|---------|---------|-R----R----||
|---------|-1-1-1-1-|---------|---3----1--||
|-3-3-3-3-|---------|-1-1-1-1-|-----------||
  q q q q   q q q q   q q q q   e q. e q.

fig.2                                             end fig.2  2 times
||-----------------|-----------|---------------|----------------||
||-o---------------|-----------|---------------|--------------o-||
||-o-------------1-|-(1)-------|-------------3-|-(3)-3-3-3-4--o-||
||---1-3-3-1-3-0---|-----1-1-1-|-1-3-3-1-3-0---|----------------||
     e e e e e e q   (q) q q q   e e e e e e q   (q) e e e q.

Verse 1,2
||--                                                     |
||-o  play fig.2  3 times, play first two bars of fig.2  |
||-o                                                     |
||--                                                     |

 fill 1---------------------------------------| Chorus
|---------------|-------||               -----|
|---------------|-R-----||  play fig. 1  o----|
|-------------3-|---4-4-||               o----|
|-1-3-3-1-3-0---|-------||               -----|
  e e e e e e q   h q q

Interlude & Guitar solo                                  8 times
||-----------------|-----------|---------------|-------------||
||-o---------------|-----------|---------------|-----------o-||
||-o---------------|-----------|---------------|-----------o-||
||---6-6-6-6-6-6-6-|-6-6-6-4-6-|-3-3-3-3-3-3-3-|-3-3-3-1-3---||
     e e e e q e e   e e q q q   e e e e q e e   e e q q q

Verse 3 : play fig.2  3 times, play first two bars of fig.2, play fill 1
Chorus 3 : play fig.1  2 times

Outro : play fig.2  10 times and fade

5.PULLING TEETH

free time
3/4       harm       152 bpm
  o                  4/4
|--------|----------||------10-14----10-14----10-|-14----10-14----10-14-----|
|-0--0-0-|-12--/19\-||-o-12-------12-------12----|----12-------12-------12\-|
|--------|----------||-o-------------------------|--------------------------|
|--------|----------||---------------------------|--------------------------|
  q. e q   l    q        e  e  e  e  e  e  e  e    e  e  e  e  e  e  e  e

                                            2 times
|-------9-12----9-12----9-|-12----9-12----9-12---||----10-14----10-14----10-|
|-\(10)------10------10---|----10------10------o-||-12-------12-------12----|
|-------------------------|--------------------o-||-------------------------|
|-------------------------|----------------------||-------------------------|
    e   e e  e  e e  e  e   e  e  e e  e  e q       e  e  e  e  e  e  e  e

                                                                     rit.
|-14----10-14----10-14-|----12-16----12-16----12-|-16----12-16----12-16----|
|----12-------12-------|-14-------14-------14----|----14-------14-------14-|
|----------------------|-------------------------|-------------------------|
|----------------------|-------------------------|-------------------------|
  e  e  e  e  e  e  q    e  e  e  e  e  e  e  e    e  e  e  e  e  e  e  e

a tempo
|----14-17----14-17----17-|----12-16----12-16----16-|---------------||
|-15-------15-------15----|-14-------14-------14----|-14--12--12-12-||
|-------------------------|-------------------------|-12--10--------||
|-------------------------|-------------------------|---------------||
  e  e  e  e  e  e  e  e    e  e  e  e  e  e  e  e    h   l    s  s

132 bpm                   +  o                           +  o
|----14----10----|-------12----|----14----10----|-------------|
|-12----12----12-|-14-10-10----|-12----12----12-|-14-10-14----|
|----------------|-------------|----------------|-------12----|
|----------------|-------------|----------------|-------------|
  q  e  e  e  e    q  q  q       q  e  e  e  e    q  q  q

                          +  o
|----14----10----|-------12----|----14----10----|-------------|
|-12----12----12-|-14-10-10----|-12----12----12-|-14-10/------|
|----------------|-------------|----------------|--------0-13-|
|----------------|-------------|----------------|-------------|
  q  e  e  e  e    q  q  q       q  e  e  e  e    q   e  e q


|------------------|-------14-15---|------------------|-------14-15p14----|
|------13-12-------|----15---------|------13-12-------|----15----------15-|
|-12---------15-12-|-13----------0-|-12---------15-12-|-13----------------|
|------------------|---------------|------------------|-------------------|
  q +q e  e  e  e    q  e  e  e  e   q +q e  e  e  e    q  e. s  e  e  e
     [3]  [  3  ]                       [3]  [  3  ]             [  3  ]

                                 + o
|------------------|-------14-15-----|------------------|-------14-15p14----|
|------13-12-------|----15-----------|------13-12-------|----15----------15-|
|-12---------15-12-|-13----------0---|-12---------15-12-|-13----------------|
|------------------|-----------------|------------------|-------------------|
  q +q e  e  e  e    q  e  e  e  e     q +q e  e  e  e    q  e. s  e  e  e
     [3]  [  3  ]                         [3]  [  3  ]             [  3  ]

5/8                 3/4                 5/8
||---------16-------|-------14----14----|-------13-------|
||-o----16----16----|----14----14----14-|----11----11----|
||-o-14----------14-|-12----------------|-11----------11-|
||------------------|-------------------|----------------|
     e  e  e  e  e    e  e  e  e  e  e    e  e  e  e  e

3/4            2 times 5/8              3/4
|-------14----14------||-------16-------|-------17----17----|
|----12----12----12-o-||----16----16----|----17----17----17-|
|-12----------------o-||-14----------14-|-15----------------|
|---------------------||----------------|-------------------|
  e  e  e  e  e  e       e  e  e  e  e    e  e  e  e  e  e

                    5/8                                3/4
|-------19----------|----19----19----|-------/12-------|-------12----------|
|----17----17-------|-19----19----19-|----14-----14----|----14----14----14-|
|-17----------17-17-|----------------|-15-----------15-|-14----------14----|
|-------------------|----------------|-----------------|-------------------|
  e  e  e  e  e  e    e  e  e  e  e    e  e   e  e  e    e  e  e  e  e  e
                                                                  |    |
                                                                 let ring

                    5/4
|-------11----12----|----14-12h14p12----12----------------------|
|----12----12----12-|----------------16----16-14-12-------------|
|-12----------------|-12----------------------------15-14-12-14-|
|-------------------|-------------------------------------------|
  e  e  e  e  e  e    e  q  s  s  s  e  e  s  s  e  s  s  s  s
                            [  3  ]

3/4
|-------12---------|-17-19-17h19p17-16-17-16h17p16-|----16-------------|
|----14----14----0-|-------------------------------|-17----17----17-17-|
|-15----------15---|-------------------------------|----------17-------|
|------------------|-------------------------------|-------------------|
  e  e  e  e  e  e   e  e  s  s  s  e  e  s  s  s    e  e  e  e  e  e
                           [  3  ]        [  3  ]

5/8                                          3/4
|----------------------16---|-------12-------|-------12----------|
|-17-17-17-19-19-19-19------|----14----14----|----14----14----14-|
|-------------------------0-|-15----------15-|-14----------14----|
|---------------------------|----------------|-------------------|
  s  s  s  e  s  s  s  e  e   e  e  e  e  e    e  e  e  e  e  e
  [  3  ]     [  3  ]                                   |    |
                                                       let ring

                    5/4
|-------11----12----|----14-12h14p12----12----------------------|
|----12----12----12-|----------------16----16-14-12-------------|
|-12----------------|-12----------------------------15-14-12-14-|
|-------------------|-------------------------------------------|
  e  e  e  e  e  e    e  q  s  s  s  e  e  s  s  e  s  s  s  s
                            [  3  ]

5/8              6/4
|-------12-------|---19-b1-r-17h19p17-16-17-16h17p16----16----------|
|----14----14----|-0---------------------------------19----17----17-|
|-15----------15-|--------------------------------------------17----|
|----------------|--------------------------------------------------|
  e  e  e  e  e    e e   (e) s  s  s  e  e  s  s  s  e  e  e  e  e
                             [  3  ]        [  3  ]

3/4                             5/8            3/4
|-------------------------16\---|--------------|--------------------|
|-17-17-17-17-19-19-19-19-----0-|------10------|-------14----14-----|
|-------------------------------|---10----10---|----14----14----14/-|
|-------------------------------|-8----------8-|-12-----------------|
  e  s  s  s  e  s  s  s  e   e   e e  e  e  e   e  e  e  e  e  e
     [  3  ]     [  3  ]

                               +o                               +o
|------------------|---------|------10----10----|-----7/(9)-9/(12)-|
|------14----14----|---------|---10----10----10-|---7--------------|
|-0-12----12----12-|-12-10-7-|-8----------------|-5----------------|
|------------------|---------|------------------|------------------|
  e e  e  e  e  e    q  q  q   e e  e  e  e  e    e e e  e  e  e

                            5/8           3/4 +
|-------12----12----|-------|--------------|--------------------|
|----12----12----12-|-------|------10------|-------14----14-----|
|-10----------------|-------|---10----10---|----14----14----14/-|
|-------------------|-3-5-7-|-8----------8-|-12-----------------|
  e  e  e  e  e  e    q q q   e e  e  e  e   e  e  e  e  e  e

  o                                                    +o
|------------------|---------------------------------|------10----10----|
|------14----14----|---------------------------------|---10----10----10-|
|-0-12----12----12-|-12-12-12-12-10-10-10-10-7-7-7-7-|-8----------------|
|------------------|---------------------------------|------------------|
  e e  e  e  e  e    e  s  s  s  e  s  s  s  e s s s   e e  e  e  e  e
                        [  3  ]     [  3  ]    [ 3 ]

                                       5/4
|-----7/(9)-9/(12)-|-------12----12----|-------------------||
|---7--------------|----12----12----12-|-------------------||
|-5----------------|-10----------------|----------------0--||
|------------------|-------------------|-3-5-7-b1/2-r-5----||
  e e e  e  e  e     e  e  e  e  e  e    q q q.       l q

200 bpm
 4/4
||-----------------------------|-----------------|
||-o-7-7---9-9---10-10---9-9---|-7-7---6-6---7---|
||-o-----0-----0-------0-----0-|-----0-----0---0-|
||-----------------------------|-----------------|
     e e e e e e e  e  e e e e   e e e e e e q q
     [ 3 ] [ 3 ] [  3  ] [ 3 ]   [ 3 ] [ 3 ]

                            |1.                        |2. 2/4
|---------------------------|-------------------------||-----------------|
|-7-7---9-9---10-10---9-9---|-10-10---14-14---13\---o-||-10-10---14-14---|
|-----0-----0-------0-----0-|-------0-------0-----0-o-||-------0-------0-|
|---------------------------|-------------------------||-----------------|
  e e e e e e e  e  e e e e   e  e  e e  e  e q   q      e  e  e e  e  e
  [ 3 ] [ 3 ] [  3  ] [ 3 ]   [  3  ] [  3  ]            [  3  ] [  3  ]

4/4                                                       +
|------------------|----------------|-------18----19----|-18-18-18----18----|
|-13---14--13---14-|-13---14-13-/19-|-19-19-19-19-19-19-|-19-19-19-19-19-19-|
|----0--------0----|----0-----------|-0--0--0-----0-----|-0--0--0-----0-----|
|------------------|----------------|-------------------|-------------------|
  q  e q   q  e q    q  e q  q   q    q  q  e  e  e  e    q  q  e  e  e  e
  [ 3]     [ 3]      [ 3]
     |   |    |   |      let ring    let A-string ring ---------------------
   let ring  let ring

                                               o            +
|-19----18----19-18----|-19----18----19----19-----|--------------||
|-19-19-19-19-19-19-19-|-19-19-19-19-19-19-19-----|--------------||
|-0-----0-----0--0-----|-0-----0-----0-----0--(0)-|-(0)----------||
|----------------------|--------------------------|---------/X\--||
  e  e  e  e  q  e  e    e  e  e  e  e  e  e  (e)   (l)      q

-------------------------------------------------------------|

Drums enter
 o                                   +                                   o
|----------------|---------------|------------------|---------------------|
|----------------|---------------|---------5---5-7-b1/2-r-b/12-r-b1/2-r-5-|
|-----2-0--------|------5----5-7-|---5-5-7---7------|---------------------|
|-0-3-----3-3-5/-|-/(7)----7-----|-0----------------|---------------------|
  q e e e e e e      q  q. e e e   q e s s e e e e  + (h.)              q

        +                          o    +
|-------7-b1-r---|------------------|-----14-b1-14-14-|
|-----5--------5-|---5-7-b1-r-5---5-|-----------------|
|---x------------|-7------------7---|-----------------|
|-0--------------|------------------|-0---------------|
  q e e q.     e   e e q      e e q   h+e q     s   s

                          o
|-14-b1-14-14-14-b1-14-14\-|-----12---11-|-12---11-12-12-12-11---|
|--------------------------|--------0----|----0----------------0-|
|--------------------------|-------------|-----------------------|
|--------------------------|-0-0---------|-----------------------|
  q     s  s  q     e  q     q q e  e q    e  e q  e  s  s  e  e
                                    |  |      |  |
                                 let ring  let ring

  T     T     T     T     T       T     T     T     T        +o    +o
|-------------------------------|----------------------|-16-12-16-12-16-|
|-17p14-19p14-19p14-21p14-19p14-|-17p14-19p14-21p14-17-|----------------|
|-------------------------------|----------------------|----------------|
|-------------------------------|----------------------|----------------|
  e  e  s  e  t  t  e  e  e  e    e  e  e  e  e  e  q    q  e  q  e  q

   +o    +o                                                  +
|-12-16-12-16-16-|-16p12----12-16p12----12-16p12-12-12-12-12-14-|
|----------------|-------14----------14-------------------------|
|----------------|----------------------------------------------|
|----------------|----------------------------------------------|
  e  q  e  q  q    s  s  s  s  s  s  s  s  s  s  s  s  s  s  e.
                                                 [  3  ]

                     o                      +
|-b1-r-12----12-b1/2-----|-------------------------|
|---------14---------14\-|-----21-17-17----20-b1/2-|
|------------------------|--------------19---------|
|------------------------|-0-0---------------------|
 (q)   e  e  q       q     q e q  s  s  e  e

|---------------------R--------|----19----------19---------19---------19-|
|-20-20-b1/2-20-19-17----19-b1-|-------19-b1/2-----19-b1/2----19-b1/2----|
|------------------------------|-----------------------------------------|
|------------------------------|-----------------------------------------|
  e  e       e  e  q  e. s      (e) e  e        e  e       e  e       e

                                o                 +o  +o
|---------19-19-19-b1---r-----|-------------|-----------|-------------|
|-19-b1/2-----------------17\-|-------------|-----------|-------2-0---|
|-----------------------------|-------------|-----------|-----------3-|
|-----------------------------|-0-0-0-0-0-0-|-0-0-0-0-0-|-0-0-0-------|
  e       e  e  q.        q     q e q e e e   e e q q q   q e q e e e

                                   +
|------------|-------------|------------|-15-14-12-14p12----12-15-14-12-|
|------------|-------5-----|-5-----5/-0-|----------------14-------------|
|-2-1-0------|---5-7---5-7-|---5-7------|-------------------------------|
|-------3--0-|-0-----------|------------|-------------------------------|
  e e e q. q   q e e e q e   q q q q  q   e  e  e  e  e  e  q  e  e  e
                             [ 3 ]        [  3  ]  [  3  ]     [  3  ]

|-14p12----12-15-14-12-14p12----|-12-------------------------------|
|-------14-------------------14-|----14-12-14p12----12-------------|
|-------------------------------|----------------14----14-12-13-14-|
|-------------------------------|----------------------------------|
  e  e  e  q  e  e  e  e  e  e    e  e  e  s  s  s  e. e  s  s  e
  [  3  ]     [  3  ]  [  3  ]    [  3  ]

                     o
|-----------------------|-----------------|-----------------|-------------|
|-12-14p12-12----12-12\-|-----------------|---------------2-|-------------|
|-------------14--------|-----------------|-----------2-----|-------------|
|-----------------------|-0-0-0-0-0-0-0-0-|-(0)-0-0-0---0---|-0-0-0-0-0-0-|
  e  s  e. e  e  e  q     e e e e e e e e   (e) e e e e e q   q e q e e e

                                                      Harm
|-------------|-12----11----------11-|-12----14-14-12---|--------------|
|-------14-14-|-11-11----11-14-11----|----11------------|------------6-|
|-------------|-0--------------------|----------------9-|-7-0-9-10-0---|
|-0-0-0-------|----------------------|------------------|--------------|
  q q q e  e    e  e  e  e  e  e  q    e  e  e  e  q  q   e e q e  e q
                let A-string ring

|--------------------|----------------|----------------------------|
|-6-6-6-10-7-7-7-7-7-|-8-11-9-9-12-10-|-10-11-11-14-14-11-11-14-12-|
|--------------------|----------------|----------------------------|
|--------------------|----------------|----------------------------|
  e s s e. s s e s q   q e  e q e  e    h  s  s  s  s  s  s  s  s
                   /   /      /         /
                   /   /      /         /
                   /   /      /         /

|------------------------------------------|-------16-15-16-17-19-19-b1-|
|-(12)-15-12-14-16-14-16-15-17-17-16-17-19-|-17-19----------0-----------|
|------------------------------------------|----------------------------|
|------------------------------------------|----------------------------|
  (s)  e  s  s  s  s  s  e  e  e  e  e  e    e  e  e  e  e  e  e  q
                         [  3  ]  [  3  ]    [  3  ]

|-(19)-19-19-19-19-|-19-b1-r-16----16-19-16-|
|------------------|------------17----------|
|------------------|------------------------|
|------------------|------------------------|
  (h.) s  s  s  s    q       e  e  e  e  q

|-19p16----16h19p16----16h19p16----16h19p16----|-16h19---19-b1-r-16----|
|-------17----------17----------17----------17-|--------------------17-|
|----------------------------------------------|-----------------------|
|----------------------------------------------|-----------------------|
  s  s  s  s  s  s  s  s  s  s  s  s  s  e  s    s  e.+e q.       e  e

                                                    o
|-16----------------------|---------------------------|
|----17----17----------17-|-19-b1/2-r-b1/2-r-b1/2-19\-|
|-------19----19-17-19----|---------------------------|
|-------------------------|---------------------------|
  e  e  e  e  e  e  e  e    h.                    q
       let ring

                  +o  +o
|-------------|---------|----------------|---------------|-----------------|
|-------------|---------|----------------|---------------|-----------------|
|-------------|---------|---------5-b1-r-|-b1-r-b1-r-2---|---------0-----0-|
|-0-0-0-0-0-0-|-0-0-0-0-|-0-0-0-0--------|-------------0-|-0-0-0-0---3-0---|
  q e q e e e   q q q q   e e e q q.       (h)       q q   e e e e e e e e

                                + o                 +o      Harm --
|-----------------|-----------------|-----------------|-----------|
|-----------------|-----------------|-----------------|-----5-5-5-|
|-0-0-4h5-0-4h5-0-|-4h5-0-4h5-0-4h5-|-0-0-0-0-0-0-0-0-|-----------|
|-----------------|-----------------|-----------------|-0-0-------|
  e e e e e e e e   e e e e e e e e   e e e e e e e e   q q q e e

                  A.H.----------------------------------------------------|
---------------|  T      T      T       T     T      T     T--------------|      T
|---------------|-12(19)-10(17)-9(16)-|-9(16)---------------------9(16)---|
|-(5)-5-------5-|---------------------|-------10(17)-9(16)-10(17)---------|
|---------------|---------------------|-----------------------------------|
|-------4-4-4---|---------------------|-----------------------------------|
  (e) e q e e q   q.     q.      q      q     q      e     e      q

                                                    A.H.--|
----------------------------------------------|  Harm-----|             +   +o
  T      T     T      T     T      T     T           T      T     T
|-----------------------------------------------|-------------------------|
|-10(17)-9(16)---------------------9(16)-10(17)-|----10(17)-9(16)---------|
|--------------10(17)-9(16)-10(17)--------------|-19--------------12(19)\-|
|-----------------------------------------------|-------------------------|
  e      e     e      e     q      e     e        q  q      q     q

                    +           o
|---------|------------|------------|   end by sliding over the strings and
|---------|---------16-|-(16)-------|   then tapping the open D and G strings
|---------|---14-14-14-|-(14)-------|   against your pickup.
|-0-0-0-0-|-0-0--0--0--|-(0)--------|
  q q q q   q q q q q    (l)

6.WHIPLASH

Intro:
|------------------------|
|------------------------|
|-7777-7777-7777-7777----|
|---------------------0>-|

4 bar drums then:
|-----------------------|
|-----------------------|
|-7>---7>---7>---7>-----|
|-----------------------|

Riff:
|-------------------------------|
|-------------------------------|
|-------------------------------|  X8
|-0-0-0-0-0-0-0-0-0-0-0-0-5-4-3-|

Verse:
|-------------------------------|
|-------------------------------|
|-------------------------------|  X4 then X4 with vocals added
|-0-0-0-0-0-0-0-0-0-0-0-0-0-0-3-|

Chorus:
|---------------------------|
|---------------------------|
|-3-3-3-2-0-----------------|  X3 then pause for "WHIPLASH!"
|-----------0h2-2-2-2-2-2-2-|

Riff:
|-------------------------------|
|-------------------------------|
|-------------------------------|  X4
|-0-0-0-0-0-0-0-0-0-0-0-0-5-4-3-|

Verse:
|-------------------------------|
|-------------------------------|
|-------------------------------|  X4 with vocals
|-0-0-0-0-0-0-0-0-0-0-0-0-0-0-3-|

Chorus:
|---------------------------|
|---------------------------|
|-3-3-3-2-0-----------------|  X3 then pause for "WHIPLASH!"
|-----------0h2-2-2-2-2-2-2-|

Riff:
|-------------------------------|
|-------------------------------|
|-------------------------------|  X4
|-0-0-0-0-0-0-0-0-0-0-0-0-5-4-3-|

Verse:
|-------------------------------|
|-------------------------------|
|-------------------------------|  X4 with vocals
|-0-0-0-0-0-0-0-0-0-0-0-0-0-0-3-|

Chorus:
|---------------------------|
|---------------------------|
|-3-3-3-2-0-----------------|  X3 then pause for one bar
|-----------0h2-2-2-2-2-2-2-|

Pre Solo 1:
|-------------|
|-------------|
|-5-4-3-------|
|-------5-4-3-|

Pre Solo 2 and Solo Riff:
|---------------------|
|---------------------|
|-7p5---5---5---------|  X8 then X16 with solo
|-----7---7---0-0-0-0-|

|-----------|
|-----------|
|-7>---7\\\-|  X1 then "WHIPLASH!"
|-----------|

Riff:
|-------------------------------|
|-------------------------------|
|-------------------------------|  X4
|-0-0-0-0-0-0-0-0-0-0-0-0-5-4-3-|

Verse:
|-------------------------------|
|-------------------------------|
|-------------------------------|  X4 with vocals
|-0-0-0-0-0-0-0-0-0-0-0-0-0-0-3-|

Chorus:
|---------------------------|
|---------------------------|
|-3-3-3-2-0-----------------|  X4
|-----------0h2-2-2-2-2-2-2-|

Ending:
|-------------|        |-----------------|
|-------------|        |-----------------|
|-------------|  X4    |-----------------|  X1
|-0-2-2-0-2-0-|        |-0-2-2-0-2-2-----|

7.PHANTOM LORD

ntro
108 bpm
                       2 times 3/4  4/4            2 times
-----||----------|----------||----||----------|----------||-----|
-----||-o------R-|--------o-||----||-o------R-|--------o-||-----|
--R--||-o-0--0---|-0--0-0-o-||-0--||-o-2--2---|-2--2-2-o-||-2---|
-----||----------|----------||----||----------|----------||-----|
  l       h. e e   h. e e      h.      h. e e   h. e e      l

152 bpm  fig. 1
|  4  ||----------------------------|--------------------------|
|-----||-o------14----14------------|------14----14------------|
|-----||-o--------------------------|------------------------R-|
|     ||---0-12----12----12-0-0-3-5-|-0-12----12----12-12-10---|
           e s  e  s  e  e  s s e e   e s  e  s  e  e  e  e  e

                                          end fig.1  2 times
|--------------------------|---------------------------||
|------14----14------------|------14----14-----------o-||
|--------------------------|-------------------------o-||
|-0-12----12----12-0-0-3-5-|-0-12----12----12-12-15\---||
  e s  e  s  e  e  s s e e   e s  e  s  e  e  e  q

Verse 1

  fig.2                          end fig.2
|---------------------|-------------------|
|---------------------|-------------------|  play fig.1, fig.2, fig.1
|-0-0-0-0-0-0-0-0-0-0-|-3-3-3-3-3-2-------|
|---------------------|--------------3-3--|
  e e s s e e e s s e   e e s s e e. e e.

Chorus

  fig.3
||-------------------|-----------------|-----------------|
||-o-----------------|-----------------|-----------------|
||-o-----------------|-----------------|-----------------|
||---0-5--3--5--2--3-|-0-5--3--5--2--3-|-0-5--3--5--2--3-|
     e e. e. e. e. e   e e. e. e. e. e   e e. e. e. e. e

         end fig.3  2 times
|-------------------||---------||-----|-----|---|---|              ||
|-----------------o-||---------||-----|-----|---|---| play fig. 1  ||
|-----------------o-||---R-----||-----|-----|-R-|-R-|              ||
|-0-5--3--2--3--2---||-0-----0-||-(0)-|-(0)-|---|---|              ||
  e e. e. e. e. e      q h+e e    (w)   (w)   w   w


Verse 2 : play fig.2, fig.1, fig.2, fig.1
Chorus 2 : play fig.3  2 times

      Guitar solo
|-----||----------------------|-----|-----|-----|--------------------|
|-----||-o-----R---R---R------|  %  |  %  |  %  |-------------R------|
|---R-||-o---3---2---3--------|-----|-----|-----|-----R---R-----3--2-|
|-0---||---0-------------2--3-|-----|-----|-----|-0-3---2---3--------|
  q h.     e e s e s e s e. e                     e e s e s e s e. e

                2 times  66 bpm
|-----|-----|--------||-------------||
|  %  |  %  |  %  -o-||-2-0---------||
|-----|-----|------o-||-----3-2-----||
|-----|-----|--------||---------3-2-||
                        q q q e s s

Interlude
|------------------------|---------------------------|----------------------|
|------------------------|---------------------------|----------------------|
|----------------5-3-5-3-|-----------5-3-2-0-2-0-----|----------------------|
|-0--0-3--3-2--2---------|-0--0-3--3-------------2-3-|-0--0-3--3-2--2-1-1-1-|
  e. s e. s e. s s s s s   e. s e. s s s s s s s s s   e. s e. s e. s s e s

|---------------------|-------------------------|-----|-----|-----|
|---------------------|-------------------------|  %  |  %  |  %  |
|---------------------|---2-----2-----2-----3---|-----|-----|-----|
|-0--0-3--3-2--2-1--1-|-0---0-3---3-2---2-1---1-|-----|-----|-----|
  e. s e. s e. s e. s   e s s e s s e s s e s s

                                  4 times  96 bpm   accel.
||-------------------------------------||---------|-----------|
||-o---------------------------------o-||---------|-----------|
||-o---------------------------------o-||---------|-----------|
||---0-0-0-0-3-3-3-3-2-2-2-2-1-1-1-1---||-0-0-0-0-|-12-12\0-0-|
     s s s s s s s s s s s s s s s s      q q q q   q  q  q q

152 bpm
||-------------------|---------------|---------------------------------|
||-o-----------------|---------------|---------------------------------|
||-o-0-0-0-0-0-0-0-0-|-3-3-3-3-2-----|---------------------------------|
||-------------------|-----------3-3-|-0-0-0-0-0-0-0-0-0-0-0-0-0-0-0-0-|
     e e e e e e e e   e e e e q q q   s s s s s s s s s s s s s s s s
                               [ 3 ]

|1.                              |2.
|-------------------------------||-------------------12-13-14\---||
|-------------------12-13-14\-o-||-----------------------------o-||
|-----------------------------o-||-----------------------------o-||
|-0-0-0-0-0-0-0-0-0-------------||-0-0-0-0-0-0-0-0-0-------------||
  s s s s s s s s e s  s  q        s s s s s s s s e s  s  q

|3.                             |4.
|------------------------------||---------------------------------|
|-------------------------14-o-||---------------------------------|
|-------------------12h14----o-||---------------------------------|
|-0-0-0-0-0-0-0-0-0------------||-0-0-0-0-0-0-0-0-0-0-0-0-0-0-0-0-|
  s s s s s s s s e s  s  q       s s s s s s s s s s s s s s s s

                            Verse 3
|------|---||              ||
|------|---||  play fig.1  || play fig.2, fig.1, fig.2, fig.1, fig.3  3 times
|---R--|-R-||              ||
|-0----|---||              ||
  q h.   w

        7/8          4/4  Free time             138 bpm
|---|---|------------|---|----|-----|-----|-----|---|-----||
|---|---|------------|---|----|-----|-----|-----|---|-----||
|---|-2-|------2-3-4-|-5-|-7--|-(7)-|-(7)-|-(7)-|-R-|---R-||
|-0-|---|-3--3-------|---|-0--|-(0)-|-(0)-|-(0)-|---|-0---||
  w   w   q. e e e e   w   w     w     w   l    w   q h.
                           /     /     /
                           /     /     /

8.NO REMORSE

G-----------------------|
D-----------------------|
A---------------------0-|
E-0h2-2-2h0-2h0-2-2h0---|

53 Seconds
G----------------|
D----------------|
A-3--012--3--012-|
E----------------|

1:02
G-------------------------------------------------|
D-------------------------------------------------|
A-----------------------2-------------------0-1-2-|
E-0-0-2-0-0-2-0-0-2-0-0---0-0-2-0-0-2-0-0-2-------|

1:23
G------------------|
D------------------|
A------------------|
E-3-0-3-0-3-0-3-0--| X4

1:32
G-------------------------|
D-------------------------|
A-----3-----2-------0-1-2-|
E-0-0---0-0---0-0-2-------|

G----------------|
D----------------|
A-3--012--3--012-|
E----------------|

G-------------------------------------------------|
D-------------------------------------------------|
A-----------------------2-------------------0-1-2-|
E-0-0-2-0-0-2-0-0-2-0-0---0-0-2-0-0-2-0-0-2-------|

G------------------|
D------------------|
A------------------|
E-3-0-3-0-3-0-3-0--| X4

G-------------------------|
D-------------------------|
A-----3-----2-------0-1-2-|
E-0-0---0-0---0-0-2-------|

2:55
G-----------------|
D-----------------|
A-----------------|
E-0000000000000000

3:05
G-----------------
D-2222222222222222
A-----------------|
E-----------------|

3:08
G-------------------------------|
D-------------------------------|
A-------------------------------|
E-0-0-3-0-0-3-0-0-3-0-0-3-0-0-3-| Repeat

3:50
G-7-5-4-5-4---4------------|
D-----------7---7-5-4-5-7--|
A--------------------------|
E--------------------------| X3

G-------------------------------------------------|
D-------------------------------------------------|
A-----------------------2-------------------0-1-2-|
E-0-0-2-0-0-2-0-0-2-0-0---0-0-2-0-0-2-0-0-2-------|

G------------------|
D------------------|
A------------------|
E-3-0-3-0-3-0-3-0--| X4

G-------------------------|
D-------------------------|
A-----3-----2-------0-1-2-|
E-0-0---0-0---0-0-2-------|

4:50
G------------------------------------------------|
D---------2----------0---------------------------|
A-0000000---00000000---0000000-3-00000000-2-3-2--|
E------------------------------------------------| X2

5:12
G-------------------------------------------|
D-----------------0-------------------------|
A-0-0-0-3-0-0-0-0---3-0-0-0-3-0-0-0-0-2-3-2-|
E-------------------------------------------|

9.SEEK AND DESTROY

140 bpm
        cresc.
|  6  |-----------------|-----------------||---------------------|
|-----|-----------------|---------7-7-7---||-o-----5h7-----5h7---|
|-----|-0-0-0-0-0-0-0-0-|-0-0-0-0-------0-||-o-0-0-----0-0-----0-|
|     |-----------------|-----------------||---------------------|
        e e e e e e e e   e e e e e e e e      e e   q e e   e e

                 4 times
|---------------5-----||---------|-------|  3  |-----------|-------------|
|-----------5-----7-o-||---------|-------|-----|-----------|-------------|
|-(0)-0-8-7---7-----o-||---R-----|----R--|-----|-R-----R---|-R-----R-----|
|---------------------||-0---12\-|-\0----|     |---0-0---0-|---0-0---0-0-|
  (e) e e e e e e e      q h q      q h.         q e e q q   q e e q e e

|-----------------|-----------------||-------------------|
|-----------------|-----------------||-o-----------------|
|---------7-7-7-7-|---------7-5-----||-o-----------------|
|-0-0-0-0---------|-0-0-0-0-----7-6-||---0-0-0-0-3-5-3-5-|
  e e e e e e e e   e e e e e e e e      e e e e e e e e

              4 times fig.1
|-------------------||-----------------|-----------------|-----------------|
|-----------------o-||-----------------|-------------5---|-----------------|
|---------7-5-----o-||-----------------|---------------7-|-----------------|
|-0-0-0-0-----7-6---||-0-0-0-0-0-0-0-0-|-0-0-0-0-7-6-----|-0-0-0-0-0-0-0-0-|
  e e e e e e e e      e e e e e e e e   e e e e e e e e   e e e e e e e e

|-----------------|-----------------|-----------------|-----------------|
|-----------------|-----------------|-------------5---|-----------------|
|-----------------|-----7-----------|---------------7-|-----7-------7---|
|-0-0-0-0-7-6-3-0-|-0-0---0-0-0-0-0-|-0-0-0-0-7-6-----|-0-0---0-0-0---0-|
  e e e e e e e e   e e e e e e e e   e e e e e e e e   e e e e e e e e

                   S
          end fig.1  Verse 1,2,3  Pre-chorus
|-----------------||            ||-----------------|----------------|
|-----------------|| play fig.1 ||-o---------------|----------5---7-|
|-----7-----------||            ||-o-3-0-0-0-3-5-3-|-3-0-0-/7---7---|
|-0-0---0-7-6-3-0-||            ||-----------------|----------------|
  e e e e e e e e                    e e e e e e q   e e e  e e e q

                |1.                  |2.
|---------------|-7-5---------------||-9-7---7---------|-----------------|
|---------------|-----7-6-5-------o-||-----9---9-8-7-5-|-----------------|
|-0-0-0-0-3-5-3-|-----------7-6-5-o-||-----------------|-7-5---5---------|
|---------------|-------------------||-----------------|-----7---7-6-5-3-|
  e e e e e e q   e e e e e e e e      e e e e e e e e   e e e e e e e e

Chorus                                           |1.
||-------------------|---------|-----------------|---------------------||
||-o---------------5-|---------|-----------------|-------------------o-||
||-o-----------------|---------|-----------------|-------5---7---7---o-||
||---3-3-3-3-3-3-3---|-2-2-1-1-|-0-0-0-0-0-0-0-0-|-0-5-7---0---0---0---||
     e e e e e s s q   q q q q   e e e e e e e e   e s s e e e e e e

|2. 3rd time fill 1  |3.        to coda I,II|4.
|-------------------||---------------------||-----------------|
|-----------------o-||-------------------o-||-----------------|
|-7-5-------------o-||-------5---7---7---o-||-----------------|
|-----7-6-5-7-6-5---||-0-5-7---0---0---0---||-0-0-0-0-3-5-3-5-|
  e e e e e e e e      e s s e e e e e e      e e e e e e e e
      fill 1
   |-----------------|
   |-----------------|
   |-7-5-------------|
   |-----7-5-6-5-7-5-|
     e e e e e e e e

|-----------------|-----------------|-----------------|-----------------|
|-----------------|-----------------|-----------------|-----------------|
|---------7-5-----|-----------------|-----------5-6-7-|-----------------|
|-0-0-0-0-----7-6-|-0-0-0-0-3-5-3-5-|-0-3-5-6-7-------|-0-0-0-0-3-5-3-5-|
  e e e e e e e e   e e e e e e e e   e e e e e e e e   e e e e e e e e

                                                D.S al coda I
|-----------------|-----------------|-----------------||
|-----------------|-----------------|-----------------||
|---------7-5-----|-----------------|---------7-5-----||
|-0-0-0-0-----7-6-|-0-0-0-0-3-5-3-5-|-0-0-0-0-----7-6-||
  e e e e e e e e   e e e e e e e e   e e e e e e e e

Coda I                          208 bpm        (guitar)
|-----------------|---------|---||------|  3  ||  7  |-----------------||
|---------------5-|---------|---||------|-----||-----|-------3-2-0-----||
|-----------------|---------|---||---R--|-----||-----|-3-2-0-------3-0-||
|-3-3-3-3-3-3-3---|-2-2-1-1-|-0-||-0----|     ||     |-----------------||
  e e e e e s s q   q q q q   w    q h.                e e e e e e e e

                                                             2 times
||-------------------|-----------------|-----|-------------------||
||-o-------7-----7---|-------7-----7---|  %  |-------3-2-0-----o-||
||-o-----0---0-0---0-|-0-0-0---0-0---0-|-----|-3-2-0-------3-0-o-||
||---3h5-------------|-----------------|-----|-------------------||
     e e e e e e e e   e e e e e e e e         e e e e e e e e

Guitar solo                                                 3 times
||-------------|---------|-----------------|-------------------||
||-o-----------|---------|-----------------|-----------------o-||
||-o-----------|---------|-----7-7-----7-7-|-----7-7-----7-7-o-||
||---3-3-3-3-3-|-2-2-1-1-|-0-0-----0-0-----|-0-0-----0-0-------||
     q q e e q   q q q q   e e e e e e e e   e e e e e e e e

|-----------|---------||-------------------|-----------------|
|-----------|---------||-o-----------------|-----------------|
|-----------|---------||-o-5h7---7-----7---|-5h7---7-----7---|
|-3-3-3-3-3-|-2-2-1-1-||-------0---0-0---0-|-----0---0-0---0-|
  q q e e q   q q q q      e e e e e e e e   e e e e e e e e

                  |1,2,3.              |4.
|-----------------|-------------------||-----------------|-----------------|
|-----------------|-----------------o-||-----------------|-----------------|
|-4h7---7-----7---|-------3-2-0-----o-||-------3-2-0-----|-------3-2-0-----|
|-----0---0-0---0-|-3-2-0-------3-0---||-3-2-0-------3-2-|-3-2-0-------3-2-|
  e e e e e e e e   e e e e e e e e      e e e e e e e e   e e e e e e e e

      Tempo I
|----||------|--------|------|--------|------|---|-----------------|
|----||---R--|-R------|---R--|-R------|---R--|-R-|-----------------|
|-0--||-0----|----0-0-|-0----|----0-0-|-0----|---|-0-0-0-0-0-0-0-0-|
|----||------|--------|------|--------|------|---|-----------------|
  l     q h.   h. e e   q h.   h. e e   q h.   w   e e e e e e e e

                                                           4 times
|-----------------||---------------------|---------------5-----||
|-----7---7-7-----||-o-----5h7-----5h7---|-----------5-----7-o-||
|-0-0---0-----0-0-||-o-0-0-----0-0-----0-|-(0)-0-8-7---7-----o-||
|-----------------||---------------------|---------------------||
  e e e e e e e e      e e   q e e   e e   (e) e e e e e e e

|---------|-----------------|-----------------|-----------------|
|---------|-----------------|-----------------|-----------------|
|---R-----|-----------------|---------7-5-----|-----------------|
|-0---12\-|-0-0-0-0-3-5-3-5-|-0-0-0-0-----7-6-|-0-0-0-0-3-5-3-5-|
  q h q     e e e e e e e e   e e e e e e e e   e e e e e e e e

|-----------------|-----------------|-----------------|-----------------|
|-----------------|-----------------|-----------------|-----------------|
|-----------5-6-7-|-----------------|---------7-5-----|-----------------|
|-0-3-5-6-7-------|-0-0-0-0-3-5-3-5-|-0-0-0-0-----7-6-|-0-0-0-0-3-5-3-5-|
  e e e e e e e e   e e e e e e e e   e e e e e e e e   e e e e e e e e

                D.S al coda II
|-------------------||
|-------------------||
|-------5---7-5-----||
|-0-5h7---7-----7-6-||
  e s s e e e e e e

Coda II
|-----------------|---------|-----------------|------------------|
|---------------5-|---------|-----------------|------------------|
|-----------------|---------|-----------------|---------------10-|
|-3-3-3-3-3-3-3---|-2-2-1-1-|-0-0-0-0-0-0-0-0-|-0-0-0-0-0-0-0----|
  e e e e e s s q   q q q q   e e e e e e e e   e e e e e e e e

|-----------------|------------------|-----------------|------------------|
|-----------------|------------------|-----------------|------------------|
|-9-----9-8-----8-|-7-------------10-|-9-----9-5-----5-|-7---5---7-7-7-10-|
|---0-0-----0-0---|---0-0-0-0-0-0----|---0-0-----0-0---|---0---0----------|
  e e e e e e e e   e e e e e e e e    e e e e e e e e   e e e e e e e e

|-----------------|------------------|-----------------|----------------|
|-----------------|------------------|-----------------|----------------|
|-9-----9-8-----8-|-7-------------10-|-9-----9-5-----5-|-7---5---7-7-7\-|
|---0-0-----0-0---|---0-0-0-0-0-0----|---0-0-----0-0---|---0---0--------|
  e e e e e e e e   e e e e e e e e    e e e e e e e e   e e e e e e q

                     |1-7.                |8. 5/4               4/4
||-------------------|-------------------||---------------------|------|
||-o-----------------|-----------------o-||---------------------|------|
||-o-----------------|-----------------o-||---------------------|---R--|
||---0-0-0-0-0-3-0-0-|-2-0-0-3-0-0-5-3---||-2-0-0-3-0-0-5-3-0-0-|-0----|
     e e e e e e e e   e e e e e e e e      e e e e e e e e e e   q h.

|------|------|-------------||
|------|------|-----------R-||
|---R--|---R--|---------7---||
|-0----|-0----|-0-0-0-0-----||
  q h.   q h.   e e e e q q

10.METAL MILITIA

168 bpm

|---||  3  |---------|------|---|---|---------||
|---||-----|---------|------|---|---|---------||
|-R-||-----|-R-------|---R--|-R-|-R-|-R-------||
|---||     |---6-5-3-|-0----|---|---|---6-5-3-||
  l          h q q q   q h.   w   w   h q q q
               [ 3 ]                    [ 3 ]

||------------------------------|----------------------------|
||-o----------------------------|----------------------------|
||-o----------------------------|----------------------------|
||---0-0-0-0-0-0-0-0-0-0-0-3--5-|-0-0-0-0-0-0-0-0-0-0-0-6--5-|
     s s s s s s s s s s s e. e   s s s s s s s s s s s e. e

                             |1,2,3.                    |4. 2/4
|----------------------------|-------------------------||-----------------|
|----------------------------|-----------------------o-||-----------------|
|----------------------------|-----------------------o-||-7-7-7-7-7-7-7-7-|
|-0-0-0-0-0-0-0-0-0-0-0-3--5-|-0-0-0-0-0-0-0-0-6-5-3---||-----------------|
  s s s s s s s s s s s e. e   s s s s s s s s q q q      s s s s s s s s
                                               [ 3 ]
4/4
|-------------|---||  4  |------|-----|-----|---------------||
|-------------|---||-----|---R--|  %  |  %  |---------------||
|-------------|-0-||-----|-0----|-----|-----|-6---3---------||
|-6-5-3-6-5-3-|---||     |------|-----|-----|---6-----3-5-6-||
  q q q q q q   w          q h.           q q q+e e e e
  [ 3 ] [ 3 ]                             [ 3 ]

||----------------------|-----|-----|-----------------||
||-o---7---5------------|  %  |  %  |---------------o-||
||-o-0---0---0-7-0-6--5-|-----|-----|-6---3---------o-||
||----------------------|-----|-----|---6-----3-5-6---||
     e e s e s e s e. e               q q q+e e e e
                                      [ 3 ]

Verse 1
|---------------------------------|-----|-----|---------------|
|---------------------------------|  %  |  %  |---------------|
|-0-0-0-0-0-0-0-0-0-0-0-0-0-0-0-0-|-----|-----|-6---3---------|
|---------------------------------|-----|-----|---6-----3-5-6-|
  s s s s s s s s s s s s s s s s               q q q+e e e e
                                                [ 3 ]

 fig.1                                           end fig.1  3 times
||----------------------------|-----|-----|-----------------||
||-o--------------------------|  %  |  %  |---------------o-||
||-o-0-0-0-0-0-0-0-0-7-0-6--5-|-----|-----|-6---3---------o-||
||----------------------------|-----|-----|---6-----3-5-6---||
     s s s s s s s s e s e. e               q q q+e e e e
                                            [ 3 ]

Pre-chorus
|---------------------|-----------------|---------------------|
|---------------------|-----------------|---------------------|
|-5-5-5-5-5-5-5-5-5-5-|-3-3-3-3-3-2-0-0-|-5-5-5-5-5-5-5-5-5-5-|
|---------------------|-----------------|---------------------|
  e e s s e e e s s e   e e s s e q e e   e e s s e e e s s e

                  Chorus
|----------------||------------------------------|
|----------------||-o----------------------------|
|-3-3-3-3-3-2-3/-||-o-0-0-0-0-0-0-0-0-0-0-0-3--5-|
|----------------||------------------------------|
  e e s s e q h       s s s s s s s s s s s e. e
            [3]

|----------------------------|----------------------------|
|----------------------------|----------------------------|
|-0-0-0-0-0-0-0-0-0-0-0-6--5-|-0-0-0-0-0-0-0-0-0-0-0-3--5-|
|----------------------------|----------------------------|
  s s s s s s s s s s s e. e   s s s s s s s s s s s e. e

|1,2,3.                    |4. 2/4           4/4
|-------------------------||-----------------|-------------|---|
|-----------------------o-||-7-7-7-7-7-7-7-7-|-------------|---|
|-0-0-0-0-0-0-0-0-6-5-3-o-||-----------------|-6-5-3-6-5-3-|-5-|
|-------------------------||-----------------|-------------|---|
  s s s s s s s s q q q      s s s s s s s s   q q q q q q   w
                  [ 3 ]                        [ 3 ] [ 3 ]

|---------------------------------|-----|-----|---------------|
|---------------------------------|  %  |  %  |---------------|
|-0-0-0-0-0-0-0-0-0-0-0-0-0-0-0-0-|-----|-----|-6---3---------|
|---------------------------------|-----|-----|---6-----3-5-6-|
  s s s s s s s s s s s s s s s s               q q q+e e e e
                                                [ 3 ]

|---------------------------------|-----|-------------------------------|
|---------------------------------|  %  |---7---7---7---7---7---7---7---|
|-0-0-0-0-0-0-0-0-0-0-0-0-0-0-0-0-|-----|-0---0---0---0---0---0---0---0-|
|---------------------------------|-----|-------------------------------|
  s s s s s s s s s s s s s s s s         e s s s s s s s s s s s s s s

                 Verse 2                 Pre-chorus
|---------------||                      ||---------------------|
|---------------||  play fig.1  4 times ||---------------------|
|-6---3---------||                      ||-5-5-5-5-5-5-5-5-5-5-|
|---6-----3-5-6-||                      ||---------------------|
  q q q+e e e e                            e e s s e e e s s e
  [ 3 ]

|-----------------|---------------------|----------------||
|-----------------|---------------------|----------------||
|-3-3-3-3-3-2-0-0-|-5-5-5-5-5-5-5-5-5-5-|-3-3-3-3-3-2-3/-||
|-----------------|---------------------|----------------||
  e e s s e q e e   e e s s e e e s s e   e e s s e q h
                                                    [3]

Chorus
||------------------------------|----------------------------|
||-o----------------------------|----------------------------|
||-o-0-0-0-0-0-0-0-0-0-0-0-3--5-|-0-0-0-0-0-0-0-0-0-0-0-6--5-|
||------------------------------|----------------------------|
     s s s s s s s s s s s e. e   s s s s s s s s s s s e. e

                             |1,2,3.
|----------------------------|-------------------------||
|----------------------------|-----------------------o-||
|-0-0-0-0-0-0-0-0-0-0-0-3--5-|-0-0-0-0-0-0-0-0-6-5-3-o-||
|----------------------------|-------------------------||
  s s s s s s s s s s s e. e   s s s s s s s s q q q
                                               [ 3 ]

|4. 2/4           4/4                3/4
|-----------------|-------------|---||----||------------------------------|
|-7-7-7-7-7-7-7-7-|-------------|---||-R--||-o----------------------------|
|-----------------|-6-5-3-6-5-3-|-5-||----||-o-----------------------5--7-|
|-----------------|-------------|---||----||---7-7-7-7-7-7-7-7-7-7-7------|
  s s s s s s s s   q q q q q q   w    h.      s s s s s s s s s s s e. e
                    [ 3 ] [ 3 ]

|----------------------------|----------------------------|
|----------------------------|----------------------------|
|-----------------------8--7-|-----------------------5--7-|
|-7-7-7-7-7-7-7-7-7-7-7------|-7-7-7-7-7-7-7-7-7-7-7------|
  s s s s s s s s s s s e. e   s s s s s s s s s s s e. e

|1,2,3.                    |4. 2/4           4/4
|-------------------------||-----------------|-------------|---||
|-----------------------o-||-----------------|-------------|---||
|-----------------8-7-5-o-||-----------------|-8-7-5-8-7-5-|-7-||
|-7-7-7-7-7-7-7-7---------||-7-7-7-7-7-7-7-7-|-------------|---||
  s s s s s s s s q q q      s s s s s s s s   q q q q q q   w
                  [ 3 ]                        [ 3 ] [ 3 ]

160 bpm
|-------------------------|-----|-----|---------------------|
|-7-----7-----7-----7-----|  %  |  %  |-7-----7-----7-----7-|
|---0-0---0-0---0-0---0-0-|-----|-----|---0-0---0-0---0-0---|
|-------------------------|-----|-----|---------------------|
  e s s e s s e s s e s s               e s s e s s e s s q

                     4 times                 4 times               2 times
||----------------------|||----------------------|||----------------------||
||-o------------------o-|||-o------------------o-|||-o------------------o-||
||-o-6-----3----------o-|||-o-8-----5----------o-|||-o-9-----6----------o-||
||------6-----3-3-5-1---|||------8-----5-5-7-3---|||------9-----6-6-8-4---||
     e. e. e. s e e e         e. e. e. s e e e         e. e. e. s e e e

                    2 times
||----------------------||-----------------------|-----------------------|
||-o------------------o-||-----------------------|-----------------------|
||-o-10----7----------o-||-7-7-5-5---------------|-----------------------|
||------10----7-7-9-5---||---------8-8-7-7-5-7-8-|-8-8-7-7-5-5-3-3-2-3-5-|
     e. e. e. s e e e      s e s e s e s e s s e   s e s e s e s e s s e

     Tempo I
|---||-----------------------------------|-----|-----|
|---||-o---------------------------------|  %  |  %  |
|---||-o-0-0-0-0-0-0-0-0-0-0-0-0-0-0-0-0-|-----|-----|
|-0-||-----------------------------------|-----|-----|
  w      s s s s s s s s s s s s s s s s

             2 times  Verse 3            Pre-chorus
|-----------------||                     ||---------------------|
|---------------o-|| play fig.1  4 times ||---------------------|
|-6---3---------o-||                     ||-5-5-5-5-5-5-5-5-5-5-|
|---6-----3-5-6---||                     ||---------------------|
  q q q+e e e e                             e e s s e e e s s e
  [ 3 ]

                       let ring
|-----------------|-----------7-|----------------||
|-----------------|-----7-------|----------------||
|-3-3-3-3-3-2-0-0-|-5-5---5-5---|-3-3-3-3-3-2-3/-||
|-----------------|-------------|----------------||
  e e s s e q e e   e e s s e h   e e s s e q h
                                            [3]

Chorus
||------------------------------|----------------------------|
||-o----------------------------|----------------------------|
||-o-0-0-0-0-0-0-0-0-0-0-0-3--5-|-0-0-0-0-0-0-0-0-0-0-0-6--5-|
||------------------------------|----------------------------|
     s s s s s s s s s s s e. e   s s s s s s s s s s s e. e

                                                   repeat & fade
|----------------------------|-------------------------||
|----------------------------|-----------------------o-||
|-0-0-0-0-0-0-0-0-0-0-0-3--5-|-0-0-0-0-0-0-0-0-6-5-3-o-||
|----------------------------|-------------------------||
  s s s s s s s s s s s e. e   s s s s s s s s q q q
                                               [ 3 ]

ENJOY!!!
comments
We did not receive enough feedback on this tab! Please rate:
1 2 3 4 5
1 comment total.
0 reply
HighMountain wrote on December 21 2006, 08:37 am

It's ok, put lots of effort into it and most of it is right. good job

I want to post or [tab]
guest
You may want to rate the tab now too:
select rating
Please do not post tabs as comments. Select "correction" instead!