Oops, an error
Loading. Please wait.

Killem All Tab

ver2
ver2

Album

More versions @911Tabs.com
70,674 views 51 this week
14 commentsread comments
1 2 3 4 5
excellent!
x 15
add to favorites launch autoscroll
font size
0
reset
Autoscroll
+/-
esc
set tempo
stop
Contributor
WARNING: You are trying to view
                                    content from Ultimate-Guitar.com
                                    in an unauthorized application,
                                    which is prohibited.

                                    Please use an official Ultimate
                                    Guitar Tabs application for iPhone,
                                    iPad or Android to access legitimate
                                    chords, guitar, bass, and drum tabs
                                    from Ultimate-Guitar.com database.

                                    Type "ultimate guitar tabs" in Apple
                                    App Store's or Android Market's
                                    search to find the application.
KILL EM' ALL
1.Hit The Lights
2.The Four Horsemen
3.Motorbreath
4.Jump In The Fire
5.(Anesthesia)Pulling Teeth
6.Whiplash
7.Phantom Lord
8.No Remorse
9.Seek & Destroy
10.Metal Militia

*****************

1.Hit The Lights

Intro
Fade In
  Q=144
 4/4                      2/4     4/4
  Gtr I
  TP                                          TP
  W          Q  Q  Q  Q    Q  Q    W          W          +W           W
|----------|-------------|-------|----------|----------|------------|-------||
|----------|-------------|-------|----------|----------|------------|-------||
|----------|-------------|-------|----------|----------|------------|-------||
|-2--------|-2--2--2--2--|-2--2--|-2--------|----------|------------|-------||
|-2--------|-2--2--2--2--|-2--2--|-2--------|-4--------|-(4)--------|-x\----||
|-0--------|-0--0--0--0--|-0--0--|-0--------|-2--------|-(2)--------|-x\----||


  Faster Q=160
      PM------|                 PM--------|
  E S S S S S S E S S +E  E   E S S S S S S S S S S +S  S E
|---------------------------|-------------------------------|
|---------------------------|-------------------------------|
|---------------5-7-7-(7)-0-|-5-----------------------------|
|-5-------------5-7-7-(7)-0-|-5-------------7p5---5-(5)-----|
|-0-0-0-0-0-0-0-------------|---0-0-0-0-0-0-----7-------6-7-|
|---------------------------|-------------------------------|


    PM--------|
  E S S S S S S E S S +E  S S
|-----------------------------|
|-----------------------------|
|---------------5-7-7-(7)-0-0-|
|-5-------------5-7-7-(7)-0-0-|
|-0-0-0-0-0-0-0---------------|
|-----------------------------|


  Gtr II
  W
                            ~~~~
  E S S S S S S S S S S    +Q
|--------------------------------|
|--------------------------------|
|-5-------------------7b9==(7)r--|
|-5------------------------------|
|---0-0-0-0-0-0-6h7--------------|
|--------------------------------|


  A5
  Q     Q       H             Q     Q       H
  |                           |
  /                           /

      PM------|                 PM--------|
  E S S S S S S E S S +E  E   E S S S S S S S S S S +S  S E
|---------------------------|-------------------------------|
|---------------------------|-------------------------------|
|---------------5-7-7-(7)-0-|-5-----------------------------|
|-5-------------5-7-7-(7)-0-|-5-------------7p5---5-(5)-----|
|-0-0-0-0-0-0-0-------------|---0-0-0-0-0-0-----7-------6-7-|
|---------------------------|-------------------------------|


  Q     Q       H
  |
  /
    PM--------|
  E S S S S S S E S S +E  S S
|-----------------------------|
|-----------------------------|
|---------------5-7-7-(7)-0-0-|
|-5-------------5-7-7-(7)-0-0-|
|-0-0-0-0-0-0-0---------------|
|-----------------------------|


  Q     Q          H             W
  |
  /
                                 Gtrs I, II
                                     PM------|
  E S S S S S  S   E.  S   Q     E S S S S S S E S S +E  S S
|------------------------------|-----------------------------|
|------------------------------|-----------------------------|
|-5-----------------------<5>--|---------------5-7-7-(7)-0-0-|
|-5---------------<5>-<5>------|-5-------------5-7-7-(7)-0-0-|
|---0-0-0-0-0-<5>--------------|-0-0-0-0-0-0-0---------------|
|------------------------------|-----------------------------|
                               |-Rhy Fig 1

    PM--------|                     PM--------|
  E S S S S S S S S S S +S  S E   E S S S S S S E S S +E  S S
|-------------------------------|-----------------------------|
|-------------------------------|-----------------------------|
|-------------------------------|---------------5-7-7-(7)-0-0-|
|-5-------------7p5---5-(5)-----|-5-------------5-7-7-(7)-0-0-|
|-0-0-0-0-0-0-0-----7-------6-7-|-0-0-0-0-0-0-0---------------|
|-------------------------------|-----------------------------|


    PM--------|
  E S S S S S S S S S S +S  S E
|--------------------------------||
|--------------------------------||
|-5------------------------------||
|-5-------------7p5---5-(5)------||
|---0-0-0-0-0-0-----7-------6-7--||
|--------------------------------||
                  end Rhy Fig 1-|

   Verses
    $
    Gtrs I, II
    E Q.   E Q.     E Q.   E. S +E  E
||----------------|-------------------|
||o---------------|-------------------|
||--7-7-----------|-7-7---------------|
||--7-7----5-5----|-7-7---------------|
||o-5-5----5-5----|-5-5----3--2-(2)---|
||---------3-3----|-----------------3-|
 |-Rhy Fig 2            end Rhy Fig 2-|

Rhy Fig 1
Rhy Fig 2
Rhy Fi g 1 (1st 2 bars)

                                                7/8
                  |-3-| |-3-|
  E Q.   +H       Q Q Q Q Q Q   E E Q  S S E Q    S S E Q  E. S +E
|---------------|-------------|-----------------|-------------------|
|---------------|-------------|-----------------|-------------------|
|---9----(9)----|-------------|-----------------|-------------------|
|---9----(9)----|-------------|-2---2----2---2--|---2---2--5--------|
|---7----(7)----|-------3-2---|-0---0----0---0--|---0---0--3--5-(5)-|
|-0-------------|-3-2-3-----3-|--------3--------|-3-----------3-(3)-|


 4/4               7/8                 4/4
  E E Q  S S E Q    S S E Q  E. S +E    E E Q  S S E Q
|-----------------|-------------------|-----------------|
|-----------------|-------------------|-----------------|
|-----------------|-------------------|-----------------|
|-2---2----2---2--|---2---2--5--------|-2---2----2---2--|
|-0---0----0---0--|---0---0--3--5-(5)-|-0---0----0---0--|
|--------3--------|-3-----------3-(3)-|--------3--------|


                     1.
         To Coda
 7/8                 4/4
  S S E Q  E. S +E    E E Q  S S E Q    W
|-------------------|-----------------|------||
|-------------------|-----------------|------||
|-------------------|-----------------|------||
|---2---2--5--------|-2---2----2---2--|------||
|---0---0--3--5-(5)-|-0---0----0---0--|------||
|-3-----------3-(3)-|--------3--------|------||


 Interlude
w/Rhy Gig 1
  Gtr III
   S     S  S  S  S     S  S  S  S     S  S  S  S   S  S  S
|-------17----------------------------17-------20p=17-------|
|----------20p17-------17-20p17----------20p17--------20-17-|
|-19b21----------19b21----------19b21-----------------------|
|-----------------------------------------------------------|
|-----------------------------------------------------------|
|-----------------------------------------------------------|


   S     S  S  S  S  S  S  S  S  S  S  S  S   S  S  S
|----------------20p17--------------------------------|
|-------17-20p17-------20-17s16-17-20p17--------------|
|-19b21----------------------------------19--17----17-|
|-----------------------------------------------19----|
|-----------------------------------------------------|
|-----------------------------------------------------|


   S     S  S  S  S     S  S  S  S     S  S  S  Q
|----------------------------------------------20b22------|
|-------17-20p17-------17-20p17-------17-20p17------------|
|-19b21----------19b21----------19b21---------------------|
|---------------------------------------------------------|
|---------------------------------------------------------|
|---------------------------------------------------------|


   S  S  S  S  S  S  S  S  S     S  S  S  Q
|-20p17-17-17-20p17---------------------------------||
|-------------------20-17-------17-20p17-----------o||
|-------------------------19b21----------19b22------||
|---------------------------------------------------||
|--------------------------------------------------o||
|---------------------------------------------------||


  2.
   W                 W
|------------------|------||
|------------------|------||
|------------------|------||
|------------------|------||
|------------------|------||
|------------------|------||
|
|  E E Q  S S E Q    W
|------------------|------||
|------------------|------||
|------------------|------||
|--2---2----2---2--|------||
|--0---0----0---0--|------||
|---------3--------|------||


 Interlude 2
w/Rhy Fig 2
                                    |----3-----|
   E     S  S      +S    S  E       E  E       E    E     E
|-------17--------------17---------17---------17---------17---|
|-20b22----20b22==(20)r----20b22------20b22--------20b22------|
|-------------------------------------------------------------|
|-------------------------------------------------------------|
|-------------------------------------------------------------|
|-------------------------------------------------------------|


                    |-----3------|
   S     S  E       E    E       E    E       S  S      +S    S  S     S
|-------17---------17-----------17-----------17--------------17-------17--|
|----------20b22--------20b22--------20b22----------------------20b22-----|
|-19b21-----------------------------------------19b21==(19)r--------------|
|-------------------------------------------------------------------------|
|-------------------------------------------------------------------------|
|-------------------------------------------------------------------------|



   S  S  S  S  S  S  S  S  S  S  S  S  S   S  S  S
|-20p17----17-20p17--------------------------------|
|-------20----------20-17-17-17-20p17-19-----------|
|-------------------------------------19--17----17-|
|--------------------------------------------19----|
|--------------------------------------------------|
|--------------------------------------------------|


              PM--------------------|
   S       S  S  S  S  S  S  S  E    E    Q      D.S. al Coda
|------------------------------------------------||
|------------------------------------------------||
|-19b19.5-17-------------------------------------||
|------------19-17----17-19-17-------------------||
|------------------19----------19---17---15------||
|------------------------------------------------||


  &
                   7/8                 4/4
  Gtrs I, II
  E E Q  S S E Q    S S E Q  E. S +E    H    H
|-----------------|-------------------|-----------||
|-----------------|-------------------|-----------||
|-----------------|-------------------|------4----||
|-2---2----2---2--|---2---2--5--------|-2----5----||
|-0---0----0---0--|---0---0--3--5-(5)-|-0----5----||
|--------3--------|-3-----------3-(3)-|------3----||


   4/4
    E S S +S  S E S E S Q    E S S +S  S E S E S Q
||-------------------------|------------------------|
||o------------------------|------------------------|
||----------------------5--|---------------------7--|
||--7---7-(7)---7---7---5--|-7---7-(7)---7---7---7--|
||o-0---0-(0)---0---0------|-0---0-(0)---0---0------|
||-------------------------|------------------------|


                          7/8
  E S S +S  S E S E S Q    E. S +E  E E E E  4x
|------------------------|-------------------||
|------------------------|------------------o||
|---------------------5--|-------------------||
|-7---7-(7)---7---7---5--|-7--5-(5)----------||
|-0---0-(0)---0---0------|----------7-6-5---o||
|------------------------|----------------8--||
                         |-Riff A         ---|

 Guitar Solo
 4/4
  Gtr III
  S    S  S S  S    S  S S S    S  S S S    S  S S
|------7------------7------------------------------|
|--------10p7---------10p7------7-10p7------7-10p7-|
|-9b11---------9b11--------9b11--------9b11--------|
|--------------------------------------------------|
|--------------------------------------------------|
|--------------------------------------------------|
|
| Gtrs I, II
| E       S S +S    S  E   S    E    S Q
|--------------------------------------------------|
|--------------------------------------------------|
|--------------------------------------7-----------|
|-9---------9-(9)------9--------9------7-----------|
|-9---------9-(9)------9--------9------5-----------|
|-7---------7-(7)------7--------7------------------|
|-Rhy Fig 3

  S    S  S S  S    S  S S S    S  S S S    S  S S
|--------------------------------------------------|
|------7-10p7-------7-10p7------7-10p7------7-10p7-|
|-9b11---------9b11--------9b11--------9b11--------|
|--------------------------------------------------|
|--------------------------------------------------|
|--------------------------------------------------|
|
| E       S S +S    S  E   S    E    S Q
|--------------------------------------------------|
|--------------------------------------------------|
|--------------------------------------9-----------|
|-9---------9-(9)------9--------9------9-----------|
|-9---------9-(9)------9--------9------7-----------|
|-7---------7-(7)------7--------7------------------|


                                        7/8
   S S S S  S  S S S  S S S S S S  S S    Q        +E   +E   E E  E
|-10p7-9p7-----7-9p7-10p7-9p7---7-10p7-|--------------------/7-7--7-|
|-----------9-----------------9--------|-10b12====(10)r(10)---------|
|--------------------------------------|----------------------------|
|--------------------------------------|----------------------------|
|--------------------------------------|----------------------------|
|--------------------------------------|----------------------------|
|
|  E   S S +S  S E    S E   S Q           E.    S  +E    E   E E  E
|--------------------------------------|----------------------------|
|--------------------------------------|----------------------------|
|-----------------------------7--------|----------------------------|
|--9-----9-(9)---9------9-----7--------|--9-----7--(7)--------------|
|--9-----9-(9)---9------9-----5--------|-----------------9---8-7----|
|--7-----7-(7)---7------7--------------|-------------------------10-|
                         end Rhy Fig 3-|-Riff B           end Riff B-|

 4/4
w/Rhy Fig 3
             |------5-------|
  S  S S  S  S   S   S    S S S S  S S S S S S
|-7-10p7-----7--10p==7----------------------------|
|--------10--------------10-7-7-7-10-7------------|
|--------------------------------------9-7-7-7----|
|-------------------------------------------------|
|-------------------------------------------------|
|-------------------------------------------------|


  S S S S  S  S S S S S E   E E   S S E    S  S S S S S S S S S S S
|-------------------------------|-----------------------------------|
|-------------------------------|-----------------------------------|
|-9p7---------------------------|-------------------------------7---|
|-----9-7-----7-9-7-------------|---------------7-7-9p7-7-7-7-9---9-|
|----------9--------9-7-5---5---|-----5----7s=9---------------------|
|-----------------------------7-|-5h7-------------------------------|


 7/8
w/Riff B
  E.   S     +S   E.     E       E     E
|------------------------------------------|
|-------------------------------------19---|
|-9b11-9b11==(9)r-9b11---9b12\-/21b23------|
|------------------------------------------|
|------------------------------------------|
|------------------------------------------|


 4/4
w/Rhy Fig 3
   +S   E       S  S     S  S     S  S  S  S  S  S  S  S  S
|-----------------------------------------------------------|
|-(19)---------19-------19-------19-22-19----19-22p19-24p19-|
|------21b23------21b23----21b23----------21----------------|
|-----------------------------------------------------------|
|-----------------------------------------------------------|
|-----------------------------------------------------------|



   S  S  S  S  S   S  S  S  S  S  S  S  S  S  S  S
|--------------------------------------------------|
|-22-19----19-22p=19-24p19-22-19----19-22p19-24p19-|
|-------21-----------------------21----------------|
|--------------------------------------------------|
|--------------------------------------------------|
|--------------------------------------------------|



   S  S  S  S  S   S  S  S  S  S  S  S  S  S  S  S
|--------------------------------------------------|
|-22-19----19-22p=19-------------17----------------|
|-------21-----------21-18s16-18----18-16-14-14-14-|
|--------------------------------------------------|
|--------------------------------------------------|
|--------------------------------------------------|


 7/8
w/Riff B
                            ~~~~~
   E.    S      +E    E     E     E     S  S
|--------------------------------------------|
|-17----17-----(17)--17----17----17----17-14-|
|-16b18-16b18==(16)r-16b18-16b18-16b18-16-14-|
|--------------------------------------------|
|--------------------------------------------|
|--------------------------------------------|


 4/4
w/Rhy Fig 3
                                      |----3-----|
   Q          +E.      +S   Q         S     +S   S  S  S
|-22b24======(22)r====(22)-22b23-----21b22r(21)p19----19-|
|--------------------------------------------------22----|
|--------------------------------------------------------|
|--------------------------------------------------------|
|--------------------------------------------------------|
|--------------------------------------------------------|



   S  S  S  S  S     S  S  S  S  S  S  S  S  S  S  S
|-22p19----------------------------------------------|
|-------22-19-------19-22p19-------------------------|
|-------------21b23----------21-19----19-21p19-------|
|----------------------------------21----------21-19-|
|----------------------------------------------------|
|----------------------------------------------------|


               PM-------------------|
                                        |--3--|
   S  S  S  S  S   S  S  S  S  S  S  S  E  E  E
|-----------------------------------------------|
|-----------------------------------------------|
|-----------------------------------------------|
|----19-21p19-----------------------------19-21-|
|-21----------21--19-17-17-19-17-16-17s21-------|
|-----------------------------------------------|



 7/8
w/Riff B
                                         |--3--|
   a  E.    S      +E    E      +E    E  S  S  S
|------------------------------------19----14p12-|
|------------------------------------------------|
|-19h21b23-21b23==(21)r-21b23==(21)r-------------|
|------------------------------------------------|
|------------------------------------------------|
|------------------------------------------------|



 4/4
w/Rhy Fig 3
   T                  T           T        T          T          T
   |-------6-------|  |--------6--------|  |--------6---------|  |------6------|
   S  S S  S  S    S  S   S    S  S  S  S  S  S    S  S  S    S  S  S  S  S  S S
|-17p14---17p14p==12-17p=14p==12-17p14p12-17p14p==12-17p14p==12-17p14p12---------|
|------------------------------------------------------------------------17p14---|
|--------------------------------------------------------------------------------|
|--------------------------------------------------------------------------------|
|--------------------------------------------------------------------------------|
|--------------------------------------------------------------------------------|


                |---3----|       |---3---|       |--3--|
   T  T  S S S  S   S    S  S S  S  S    S  S S  S  S  S  S S
|-17p14-14-----17p=14p==12------17p14p==12----0-17p14p12----0--|
|----------x-0-------------17-0------------17------------17----|
|--------------------------------------------------------------|
|--------------------------------------------------------------|
|--------------------------------------------------------------|
|--------------------------------------------------------------|


   |--3--|       |---3----|       |3-|
   S  S  S  S S  S   S    S  S S  S  E    S  S  S  S  S  S
|-17p14p12----0-17p=14p==12----0-17p14------14-17p14-------|
|----------17---------------17-----------17----------17-14-|
|----------------------------------------------------------|
|----------------------------------------------------------|
|----------------------------------------------------------|
|----------------------------------------------------------|


 7/8
w/Riff B
   S   S  E    E     E     Q        +S   +S
|----------------------------------------------|
|-----14-17---17b19-17b19-17b19====(17)r(17)\--|
|-16-------------------------------------------|
|----------------------------------------------|
|----------------------------------------------|
|----------------------------------------------|


 4/4
w/Rhy Fig 3
                                                                           ~
                                                             |-3-|
  E E       +Q       S E.   +E  S S       +S   S  S S  S  S  S S S S S S S E E
|---------------------------------------|---------------------------------------|
|---9b10====(9)r------------------------|------7-10p7-----7-10p7-------------9/-|
|---9b11====(9)r-----7----------7-9b12==|=(9)r---------9---------9-7-9p7---7----|
|----------------------9----(9)---------|--------------------------------9------|
|---------------------------------------|---------------------------------------|
|---------------------------------------|---------------------------------------|


                   |--3--|
   S  S  S  S  S   T  T  T  S  S  S     S  S  S  S  S  S  S
|-------14--------14h17p14-----------------------------------|
|-12s14----17p14-----------17-14-------14-17p14--------------|
|--------------------------------16b18----------16-14-14-14--|
|------------------------------------------------------------|
|------------------------------------------------------------|
|------------------------------------------------------------|


 7/8
w/Riff B
   E.    S      +E    E      +E    S     +S   E
|-----------------------------------------------|
|-----------------------------------------------|
|-16b18-16b18==(16)r-16b18==(16)r-16b18r(16)-14-|
|-----------------------------------------------|
|-----------------------------------------------|
|-----------------------------------------------|


 4/4
w/Rhy Fig 3
                            ~~~~~
                                      |----3-----|
   Q          +E.      +S   Q         S     +S   S  S  S
|-22b24======(22)r====(22)-22b23-----21b22r(21)p19-19-19-|
|--------------------------------------------------------|
|--------------------------------------------------------|
|--------------------------------------------------------|
|--------------------------------------------------------|
|--------------------------------------------------------|



   S  S  S  S  S     S  S  S  S  S  S  S  S  S  S  S
|-22p19----------------------------------------------|
|-------22-19-------19-22p19-------------------------|
|-------------21b22----------21-19-19-19-21p19-------|
|----------------------------------------------21-19-|
|----------------------------------------------------|
|----------------------------------------------------|


               PM-------------------|
   S  S  S  S  S   S  S  S  S  S  S  S  S  S  S  S
|---------------------------------------------------|
|---------------------------------------------------|
|---------------------------------------------------|
|----19-21p19--------------------------------19-21--|
|-21----------21--19-17-17-19-17-16-17-19s21--------|
|---------------------------------------------------|



 7/8
w/Riff B
   S   S  S  S  S   S  S  S  S  S  S  S  S  S
|---------------------------------------------|
|---------------------------------------------|
|-19--19-21p19-19--19-21p19-21-19----19s20----|
|---------------------------------21-18s19-21-|
|---------------------------------------------|
|---------------------------------------------|



 4/4
w/Rhy Fig 3
   S  S  S  S   S   S  S  S  S  S  S  S  S  S  S  S
|---------------------------------------------------|
|-15-15-12----/13--16-13-14-17p14----15-18p15----16-|
|----------13---------------------15----------16----|
|---------------------------------------------------|
|---------------------------------------------------|
|---------------------------------------------------|


                                        ~~
   S  S  S  S  S   S  S  S  S  S  S  S  E  S  S
|--------------------------------------------13-|
|-19p16----17-20p=17----18-21p18----18-21-15----|
|-------17-----------18----------18-------------|
|-----------------------------------------------|
|-----------------------------------------------|
|-----------------------------------------------|



                                                    7/8
                                                   |-w/Riff B              ~~~~~~~~~~~~
   S  S  S  S  S   S  S  S  S  S  S  S  S  S  S  S    E.    S      +E    E      +Q     +E
|-17p14----15-19p=16----16-20p17----18-21p18----19-|-22b24-22b24==(22)r-22b24==(22)r==(22)\---||
|-------16-----------18----------20----------20----|------------------------------------------||
|--------------------------------------------------|------------------------------------------||
|--------------------------------------------------|------------------------------------------||
|--------------------------------------------------|------------------------------------------||
|--------------------------------------------------|------------------------------------------||



 4/4
  |--3--|
  S  S  S  S  S  S   S S  S  S  S  S  S  S  S  S  S
|---------------------------------------------------|
|---17-17-20p17-19p=17-x-17-22p17-20p17----17s16-17-|
|---------------------------------------20----------|
|---------------------------------------------------|
|---------------------------------------------------|
|---------------------------------------------------|
|
| E        S  S +S   S E     S  E     S  Q
|---------------------------------------------------|
|---------------------------------------------------|
|----------------------------------------5----------|
|-7-----------7-(7)----7--------7--------5----------|
|-7-----------7-(7)----7--------7--------3----------|
|-5-----------5-(5)----5--------5-------------------|
|-Rhy Fig 4

   S  S  S  S  S   S  S  S  S  S  S  S  S  S  S  S
|---------------------------------------------------|
|-22p17-20p17-19p=17----17-22p17-20p17-19p17-17-17--|
|--------------------20-----------------------------|
|---------------------------------------------------|
|---------------------------------------------------|
|---------------------------------------------------|
|
|  E     S  S +S   S  E     S  E     S  Q
|---------------------------------------------------|
|---------------------------------------------------|
|---------------------------------------7-----------|
|--7--------7-(7)-----7--------7--------7-----------|
|--7--------7-(7)-----7--------7--------5-----------|
|--5--------5-(5)-----5--------5--------------------|


                                                    7/8
   S  S  S  S  S   S  S  S  S  S  S  S  S  S  S  S    H             Q.
|--------------------------------------------------|-20b22---------20b20.5-----|
|-22p17-20p17-19p=17----17-22p17-20p17-19p17-17-17-|---------------------------|
|--------------------20----------------------------|---------------------------|
|--------------------------------------------------|---------------------------|
|--------------------------------------------------|---------------------------|
|--------------------------------------------------|---------------------------|
|
|  E     S  S +S   S  E     S  E     S  Q             E.   S +E  E  E      E E
|--------------------------------------------------|---------------------------|
|--------------------------------------------------|---------------------------|
|---------------------------------------5----------|---------------------------|
|--7--------7-(7)-----7--------7--------5----------|--7----5-(5)---------------|
|--7--------7-(7)-----7--------7--------3----------|-------------7--6------5---|
|--5--------5-(5)-----5--------5-------------------|-------------------------8-|
                                     end Rhy Fig 4-|


 4/4
w/Rhy Fig 4
   S  S  S  S  S   S  S  S  S  S  S  S  S  S  S  S
|-20p17-17-17-20p=17-------------------------------|
|--------------------20-17-17-17-20p17-------------|
|--------------------------------------19-17----19-|
|--------------------------------------------19----|
|--------------------------------------------------|
|--------------------------------------------------|



         |---3---|
   S  S  S  S    S  S   S  S  S  S  S  S  S  S  S  E
|-------------------------------------------------------|
|-------------------------------------------------------|
|-17-17-17h19p==17--------------------------------------|
|------------------19--17----17-19p17-------------------|
|-------------------------19----------19-17-15----------|
|----------------------------------------------17-17b18-|



   S  S  S  S  E     S  S  S  S  S  S  S  S  S  S
|-------------------------------------------------|
|----------------------------------------------17-|
|----------------------------------------17-19----|
|-------------------17-17-19p17----17-19----------|
|-------15-17s19----------------19----------------|
|-15-17-------------------------------------------|



 7/8
w/Riff A x3
   |--3---|                                    |--3--|
   S   S  S  S  S  S   S  S  S  S  T  T  S  S  S  S  S
|------------------------20p17-------------------------|
|-20--17s16-20p17-20p=17-------20-17-17-17-20-17s16-17-|
|------------------------------------------------------|
|------------------------------------------------------|
|------------------------------------------------------|
|------------------------------------------------------|



   |--3--|  |---3---|
   S  S  S  S  S    S  S   S  S  S  S  S  S     S  S  S
|-------------------------------------------------------|
|-20p17----------------------------------------17-20p17-|
|-------19-17-17---17-19--17----17-19-17-19b21----------|
|----------------------------19-------------------------|
|-------------------------------------------------------|
|-------------------------------------------------------|



   |--3--|  |---3---|
   S  S  S  S  S    S  S   T  T  S  S  S  S  S  S  S  S
|-20p17--------------------------------------------------|
|-------20-17-17---17-20p=17-17--------------------------|
|-------------------------------19-17-17-17-19p17-17-17--|
|--------------------------------------------------------|
|--------------------------------------------------------|
|--------------------------------------------------------|


                       H.=H
 4/4
   Q      Q      Q      Q        Q      Q      Q      Q
|-----------------------------|-----------------------------|
|-20-----20-----20-----20-----|-20-----20-------------------|
|-19b21--19b21--19b21--19b21--|-19b21--19b21--19b21--19b21--|
|-----------------------------|-----------------------------|
|-----------------------------|-----------------------------|
|-----------------------------|-----------------------------|
|
|  TP                            TP
|  W                            +W
|-----------------------------|-----------------------------|
|-----------------------------|-----------------------------|
|-----------------------------|-----------------------------|
|--7--------------------------|-(7)-------------------------|
|--7--------------------------|-(7)-------------------------|
|--5--------------------------|-(5)-------------------------|


                            Q=160
   W              W            Q      q     H
|--------------|------------|--------------------*|
|-20-----------|------------|-20-----20----------*|
|-19b21--------|------------|-19b21--19b21-------*|
|--------------|------------|--------------------*|
|--------------|------------|--------------------*|
|--------------|------------|--------------------*|
|
| +W             +W            Q      Q     H
|--------------|------------|--------------------*|
|--------------|------------|--------------------*|
|--------------|------------|--------------------*|
|-(7)----------|-(7)--------|--7------7----------*|
|-(7)----------|-(7)--------|--7------7----------*|
|-(5)----------|-(5)--------|--5------5----------*|

2.The Four Horseman

intro 

2a) 
D-----------------------------------------5h7p5---- 
A--7-5-7-5-7-5-7-5---5-7-5-7-5-7-5----5h7-------7p5 
E--0-0-0-0-0-0-0-0-6---0-0-0-0-0-0--7-------------- 
pm........................................... 

2b) continued 
D--------------------------------------5---7-5 
A--7-5-7-5-7-5-7-5---5-7-5-7-5-7-5---5-3-5-5-3 
E--0-0-0-0-0-0-0-0-6---0-0-0-0-0-0-6-----3---- 
pm........................................... 
galloping 


3)                           1st   2nd   3rd 
D--------9-------9-------9-|-7-7-|-5-7-|-12-9-5---7-5 repeat. 
A--------7-------7-------7-|-5-5-|-3-5-|-10-7-3-5-5-3 
E--0-0-0---0-0-0---0-0-0---|-----|-----|--------3---- 
pm......   .....   ..... 
main 


4) 
D--9--9-7--7-5--5-4-*-9--9-7--7-5--4-5-4-- 
A--7--7-5--5-3--3-2-*-7--7-5--5-3--2-3-2-5 
E-------------------*--------------------3 
pm                                 ....... 
The horsemen are drawing nearer. 
*=slide pick 


5) 
D----------------------------------9-9-----------10-10 
A----------------------------------7-7-----------8--8- 
E--0-0-0-0-0--0-0-0-0-0--0-0-0-0-0-----0-0-0-0-0------ 
pm................................     ......... 


6) 
D------------------------------------------- 
A--7-5----5-------------------7-5----5------ 
E------7----7-6-5-3-5--0-3-5------7----7-6-5 


7) 
D--5-6-7----------3-2-0-2-------5-6-7 
A--3-4-5------0-3---------------3-4-5 
E---------0-0-------------0-0-0------ 
pm        ...             ..... 
Time... 


8) 
D--------------------------5-6-7 
A--------------------------3-4-5 
E--0-0-0-0-0-0-0-0-0-0-0-0------ 


9) 
G--------------------------4---------2---- 
D------9---------7---------------------2-- 
A--7-7---7---5-5---5---3-3---3---2-2-----2 
E----------7---------5---------3---------- 
Not often played live (although I have heard it) 


-------------------------------------------------------------------- 

solo 1 
|-----------------------------------------|--15b--12--15--14b~~~----| 
|--15b--15b--15b~~~--(15)p12--15--15b~~~--|-------------------------| 
|-----------------------------------------|---------------------\9--| 
|-----------------------------------------|-------------------------| 
|-----------------------------------------|-------------------------| 
|-----------------------------------------|-------------------------| 
                                                                                 

                                                                                 
7---------9--7------------10--9--7----------| 
---10--7--------10--8--7------------7h10p7--| 
--------------------------------------------| 
--------------------------------------------| 
--------------------------------------------| 
--------------------------------------------| 
                                                                                 

                                                                                 
---------------------------------|-------------------------------------| 
7--10p7--------------------------|-----12--12--12----12----12--12--12--| 
---------9--7--6h7--6------------|--9--11--11--11/11-11/11-11--11--11--| 
-----------------------7---------|-------------------------------------| 
--------------------------7--(7)\|-------------------------------------| 
---------------------------------|-------------------------------------| 
                                                                                 

                                                                                 
---------------------------------------------------------------------| 
---------------------------------------------------------------------| 
14b~~~--(14)--14p11--------------------------------------------------| 
--------------------14--12------12--14b--(14)p12------12~~~--12--12--| 
----------------------------14-------------------14------------------| 
---------------------------------------------------------------------| 
                                                                                 

                                                                                 
------------------------------------------------------------------------| 
-------------------------------------------------12--13p12------12--13--| 
11h12--11------11--12--11h12p11------11--12--14-------------14----------| 
-----------14--------------------14-------------------------------------| 
------------------------------------------------------------------------| 
------------------------------------------------------------------------| 
                                                                                 

                                                                                 
---------------------------------20--------| 
13/15--15/17--17/19--19/20--20~~~-----(20)\| 
-------------------------------------------| 
-------------------------------------------| 
-------------------------------------------| 
-------------------------------------------| 
                                                                                 

Gtr.2                                                                                 
17b--17b--15--17p15--14--15p14\12--14p12---------------------| 
----------------------------------------15--15--14--12--14\--| 
-------------------------------------------------------------| 
-------------------------------------------------------------| 
-------------------------------------------------------------| 
-------------------------------------------------------------| 
                                                                                 

                                                            
-------------------------------------------------------------------| 
12--10--12--10--8--10--8-----8-------------------------------------| 
--------------------------9-----9--7--9--7-------------------------| 
--------------------------------------------9--7-------------------| 
--------------------------------------------------10--7------------| 
---------------------------------------------------------10--7--7--| 
                                                         P.M.----|                      

Gtr.3                                                                                 
17b--17b--15--17p15--14--15p14--12--14p12--10--12p10--8--| 
---------------------------------------------------------| 
---------------------------------------------------------| 
---------------------------------------------------------| 
---------------------------------------------------------| 
---------------------------------------------------------| 
                                                                                 

                                                                                 
10p8--7--8p7--5--7--5-----5--------------------------------------| 
-----------------------8-----8--7--8p7--5--7--5--7---------------| 
----------------------------------------------------7--6---------| 
----------------------------------------------------------7--(7)/| 
-----------------------------------------------------------------| 
-----------------------------------------------------------------| 
                                                                                 

Gtrs.2&3                                                                                 
---------------------------------------------------------------12------12--| 
---------------------------8-----8--10--8--10--12--10--12--15------15------| 
---------7-----7--9--7--9-----9--------------------------------------------| 
9--7--9-----9--------------------------------------------------------------| 
---------------------------------------------------------------------------| 
---------------------------------------------------------------------------| 
P.M.------------------------------|                                           

                                                                                 
15p12--12--12--15p12--12--12--12--15p12--12--12--12--12--12--12--12--15p12------ 
-------------------------------------------------------------------------------- 
-------------------------------------------------------------------------------- 
-------------------------------------------------------------------------------- 
-------------------------------------------------------------------------------- 
-------------------------------------------------------------------------------- 
                                                                                 

                                                                                 
12--12--12--12--12--15b--15b--| 
------------------------------| 
------------------------------| 
------------------------------| 
------------------------------| 
------------------------------| 
                                                                                 

                                                                                 
15b--15--12--15p12--15p12--15--12--12h15p12------12--15p12--12h15p12------12---- 
--------------------------------------------15-----------------------15--------- 
-------------------------------------------------------------------------------- 
-------------------------------------------------------------------------------- 
-------------------------------------------------------------------------------- 
-------------------------------------------------------------------------------- 
                                                                                 

                                                                                 
15p12--12h15p12------12--15p12--12--| 
-----------------15-----------------| 
------------------------------------| 
------------------------------------| 
------------------------------------| 
------------------------------------| 
                                                                                 

Gtr.2                                                                                 
15p12------12--15p12--12h15p12------12--15p12--15p12------12--15b--15b--15b--15\ 
-------15-----------------------15--------------------15------------------------ 
-------------------------------------------------------------------------------- 
-------------------------------------------------------------------------------- 
-------------------------------------------------------------------------------- 
-------------------------------------------------------------------------------- 
        
                                                                          
Gtr.3                                                                              
17p12--12h15p12------12--15p12--17p12--1h15p12------12--15p12--15--12----------- 
-----------------15-----------------------------15---------------------15------- 
-------------------------------------------------------------------------------- 
-------------------------------------------------------------------------------- 
-------------------------------------------------------------------------------- 
-------------------------------------------------------------------------------- 
                                                                                 

                                                                                 
-------------------|------------------------------------------------------| 
12-----------------|------------------------------------------------------| 
----14--12---------|--12h14--12p11h12p11------11--------------------------| 
------------14--12\|----------------------14------14--12p11h12p11\9--11p9\| 
-------------------|------------------------------------------------------| 
-------------------|------------------------------------------------------| 
                                                                                 

                                                                                 
---------------------------------------| 
---------------------------------------| 
---------------------------------------| 
7~~~-----------------------------------| 
---------------------------------------| 
---------------------------------------| 
                                                                                 

                                                                                 
-------------------------------------------------------|-----------------------| 
----------------------------------10--8--7h8p7---------|-----------------------| 
---7--9--7--9b--(9)p7-----7--9--7----------------7-----|-----------------------| 
9---------------------9----------------------------9---|--7~~~-----------------| 
-------------------------------------------------------|-----------------------| 
-------------------------------------------------------|-----------------------| 


solo 2 the faster one 
*There is a lot of riff repetition in this solo, for space sake I'll write the riff 
once and then repeat* 


1) 
e-----------------------------------14 
B--------------------------14----14--- 
G-----------------14----13----12------ 
D--------14----13----12--------------- 
A-----13----12------------------------ 
E--12--------------------------------- 


2)                                 ^   ^   ^  ^  ^ 
e-----12-15-12----12-17-12---    ----------------- 
B--15----------15----------15 8x -15--15--15-15-15 
G----------------------------    ----------------- 
D----------------------------    ----------------- 
A----------------------------    ----------------- 
E----------------------------    ----------------- 


3) 
e-------------    ------------------------------------------------ 
B--15p14p12--- 8x -15p14p12----12--------------------------------- 
G-----------14    ----------14----14-12-14-12----12--------------- 
D-------------    ----------------------------14----14-12-14-12--- 
A-------------    ----------------------------------------------14 
E-------------    ------------------------------------------------ 
                    (or something close) 

4)                            AH 
e------------------------------- 
B-----------------------12-12-12 
G-----------------------12------ 
D-----------------12-14--------- 
A-----------12-14--------------- 
E--12-14-15--------------------- 


5) **************************     ^   ^ 
e--19-19-19-19-19-19-19h22p19    -22--22 
B---------------------------- 6x ------- 
G----------------------------    ------- 
D----------------------------    ------- 
A----------------------------    ------- 
E----------------------------    ------- 
The 19's are picked as fast as possible, probably more than I have written, 
but I couldn't count them. 


6)                                            ^  ^  ^ 
e--19-21-22-21-19----19------------------    --------- 
B-----------------22----22-21-22-21-19--- 3x --------- 
G--------------------------------------21    -21-21-21 
D----------------------------------------    --------- 
A----------------------------------------    --------- 
E----------------------------------------    --------- 


7a)              7b)        7c)        7d)        ^   ^ 
e-----12-15-12  -19p15---  -17p14---  -21p17---  -22--22 
B--15---------  -------17  -------15  -------17  ------- 
G-------------  ---------  ---------  ---------  ------- 
D-------------  ---------  ---------  ---------  ------- 
A-------------  ---------  ---------  ---------  ------- 
E-------------  ---------  ---------  ---------  ------- 

3.Motorbreath

Tempo=180

|---------------|------------------------------|
|---------------|------------------------------|
|---------------|------------------------------|
|---------------|------------------------------|
|--------7---8--|-9----------------------------|
|--------5---6--|-7--7-7-7--7-7-7--7-7-7-7-7-7-|
		    PM........................|


|------------------------------|------------------------------|
|------------------------------|------------------------------|
|------------------------------|------------------------------|
|------------------------------|------------------------------|
|------------------------------|------------------------------|
|-3--3-3-3--3-3-3--3-3-3-3-3-3-|-5--5-5-5--5-5-5--5-5-5-5-5-5-|
 PM..........................................................|


|------------------------------|-------------------------------|
|------------------------------|-------------------------------|
|------------------------------|-------------------------------|
|------------------------------|-------------------------------|
|------------------------------|-------------------------------|
|-2--2-2-2--2-2-2--2-2-3-3-5-5-|-7--7-7-7--7-7-7-7-7-7-7-7-7-7-|
 PM...........................................................|


|-------------------------------|-------------------------------|
|-------------------------------|-------------------------------|
|-------------------------------|-------------------------------|
|-------------------------------|-------------------------------|
|-------------------------------|-------------------------------|
|-3--3-3-3--3-3-3-3-3-3-3-3-3-3-|-5--5-5-5--5-5-5-5-5-5-5-5-5-5-|
 PM............................................................|


|-------------------------------|
|-------------------------------|
|-------------------------------|
|-------------------------------|
|-------------------------------|
|-2--2-2-2--2-2-2-2-2-2-2-2-2-2-|
 PM............................|

 




 S/S
  Rhy Fig 1
||------------------------|---------------------|
||------------------------|---------------------|
||o-----------------------|---------------------|
||o-----------------------|---------------------|
||--9--9---7--9--9---7--7-|-5-5--4-4--5--5--4-4-|
||--7--7---5--7--7---5--5-|-3-3--2-2--3--3--2-2-|
			   PM..................|

			    end Rhy Fig 1
|---------------------|------------------||
|---------------------|------------------||
|---------------------|-----------------o||
|---------------------|-----------------o||
|-7-7--5-5--7--7--5-5-|-4-4-----4-4--7---||
|-5-5--3-3--5--5--3-3-|-2-2--0--2-2--5---||
 PM...................................|


Verses

  Living and dying	   laughing and crying
||------------------------|---------------------|
||------------------------|---------------------|
||o-----------------------|---------------------|
||o-----------------------|---------------------|
||--9--9---7--9--9---7--7-|-5-5--4-4--5--5--4-4-|
||--7--7---5--7--7---5--5-|-3-3--2-2--3--3--2-2-|
			   PM..................|


 Once...	       never be the same
|---------------------|-----------------|
|---------------------|-----------------|
|---------------------|-----------------|
|---------------------|-----------------|
|-7-7--5-5--7--7--5-5-|-4-4-----4-4--7--|
|-5-5--3-3--5--5--3-3-|-2-2--0--2-2--5--|
 PM...................................|


 Life...		 just how it seems
|-----------------------|---------------------|
|-----------------------|---------------------|
|-----------------------|---------------------|
|-----------------------|---------------------|
|-9--9---7--9--9---7--7-|-5-5--4-4--5--5--4-4-|
|-7--7---5--7--7---5--5-|-3-3--2-2--3--3--2-2-|
			 PM..................|







 Hard...		dirty and mean
|---------------------|-----------------|
|---------------------|-----------------|
|---------------------|-----------------|
|---------------------|-----------------|
|-7-7--5-5--7--7--5-5-|-4-4-----4-4--7--|
|-5-5--3-3--5--5--3-3-|-2-2--0--2-2--5--|
 PM...................................|


|----------------|----------------|
|----------------|----------------|
|----------------|----------------|
|----------------|----------------|
|-9-9--7--9-9--7-|-9-9--7--9-9--7-|
|-7-7--5--7-7--5-|-7-7--5--7-7--5-|


 Chorus

 Motorbreath    It's how I live...   I can't take it  any other way
|----------------|------------------|----------------|---------------|
|----------------|------------------|----------------|---------------|
|----------------|------------------|----------------|---------------|
|-4--4-----------|-7--7----4--------|----------------|---------------|
|-2--2----5--5---|-5--5----2--4--4--|-5--5----2--2---|-4-4-4--4--4---|
|---------3--3---|------------2--2--|-3--3----0--0---|-2-2-2--2--2---|


							    3rd time to Coda
 Motorbreath    The sign...	     It's going to    take your breath away
|----------------|------------------|----------------|----------------------|
|----------------|------------------|----------------|----------------------|
|----------------|------------------|----------------|----------------------|
|-4--4-----------|-7--7----4--------|----------------|----------------------|
|-2--2----5--5---|-5--5----2--4--4--|-5--5----2--2---|-4-4-4-4-4-4-4-4--4---|
|---------3--3---|------------2--2--|-3--3----0--0---|-2-2-2-2-2-2-2-2--2---|


|--------------------------------|--------------------------------|
|--------------------------------|--------------------------------|
|--------------------------------|--------------------------------|
|--4p2---4p2---4p2---4p2---4--2--|--4p2---4p2---4p2---4p2---4--2--|
|------2-----2-----2-----2-------|------2-----2-----2-----2-------|
|--------------------------------|--------------------------------|


|--------------------------------|--------------------------------|
|--------------------------------|--------------------------------|
|--------------------------------|--------------------------------|
|--4p2---4p2---4p2---4p2---4--2--|--4p2---4p2---4p2---4p2---4--2--|
|------0-----0-----0-----0-------|------2-----2-----2-----2-------|
|--------------------------------|--------------------------------|




|--------------------------------|--------------------------------|
|--------------------------------|--------------------------------|
|--------------------------------|--------------------------------|
|--4p2---4p2---4p2---4p2---4--2--|--4p2---4p2---4p2---4p2---4--2--|
|------2-----2-----2-----2-------|------2-----2-----2-----2-------|
|--------------------------------|--------------------------------|


|--------------------------------|---------------------------------||
|--------------------------------|---------------------------------||
|--------------------------------|--------------------------------o||
|--4p2---4p2---4p2---4p2---4--2--|--4p2---4p2---4p2---4p2---4--2--o||
|------0-----0-----0-----0-------|------2-----2-----2-----2--------||
|--------------------------------|---------------------------------||


|----------------------|
|----------------------|
|----------------------|
|--4---------4----5----|
|--2---------2----3----|
|----------------------|


Solo 1

*w/Wah
|----------------|-----------------------------------------|
|-12---------9-9-|-12p9----9-12p9----9-12p9----9-12p9----9-|
|-11-------------|------11--------11--------11--------11---|
|----------------|-----------------------------------------|
|----------------|-----------------------------------------|
|----------------|-----------------------------------------|


|-----9----------9----------9----------9------|
|-12^---12p9-12^---12p9-12^---12p9-12^---12p9-|
|---------------------------------------------|
|---------------------------------------------|
|---------------------------------------------|
|---------------------------------------------|


|--------------------------------------|------------------------------------|
|-----9-12p9---------------------------|------------------------------------|
|-11^--------11-9----9-11p9------------|-------------------------------9-11-|
|-----------------11--------11-9-------|--------------9-9-11p9----9-11------|
|--------------------------------11-9\-|-----7-9-9/11----------11-----------|
|--------------------------------------|-/9---------------------------------|


|-------------------------------|
|----------------------------16-|
|-11p9----9-11p9----9-9\/18^----|
|------11--------11-------------|
|-------------------------------|
|-------------------------------|

							     DS al Coda
|-----16-----16-----16-19p16-------------------|-----------------------|
|-19^----19^----19^----------19-16-16-16-19p16-|----16-19p16-19^-------|
|----------------------------------------------|-18--------------------|
|----------------------------------------------|-----------------------|
|----------------------------------------------|-----------------------|
|----------------------------------------------|-----------------------|


Coda

|--------------|
|--------------|
|--------------|
|----4----5----|
|----2----3----|
|--------------|


Solo 2

|--12p9------12p9------12p9------12p9------|
|-------12p9------12p9------12p9------12p9-|
|------------------------------------------|
|------------------------------------------|
|------------------------------------------|
|------------------------------------------|


|--12p9------12p9------12p9------12p9---------|
|-------12p9------12p9------12p9------12p9h12-|
|---------------------------------------------|
|---------------------------------------------|
|---------------------------------------------|
|---------------------------------------------|


|--12p9-12p9-11-8-8-10-7-7-9-6-6-8-5-5-7-4-4-4-4-4-|
|--------------------------------------------------|
|--------------------------------------------------|
|--------------------------------------------------|
|--------------------------------------------------|
|--------------------------------------------------|


|--4----4-7p4--------------------|-----------------------------|
|-----7-------7-4-7-4------------|----4----4----4----6--4------|
|---------------------6-4-4^---4-|----4----4----4----6--4----4-|
|----------------------------6---|--6----6----6----6-------6---|
|--------------------------------|-----------------------------|
|--------------------------------|-----------------------------|





|-----------------------------------|-------------------------------|
|-----4-7p4-------------------------|-------------------------------|
|--6^-------4h6p4---4-6-4-----------|--------------------------4-6--|
|-----------------6-------6-4-------|------------4-4-6p4---4-6------|
|-----------------------------6--4\-|-----2-4/6----------6----------|
|-----------------------------------|--4----------------------------|


|---------------------------------|------9-9-----------9-----------|
|---------------------------------|----------12^--9-9----12^-12^~--|
|--6^---4-6p4---4-6p4---4/-9--11--|--11^---------------------------|
|-----6-------6-------6-----------|--------------------------------|
|---------------------------------|--------------------------------|
|---------------------------------|--------------------------------|


|--------9---------------9-------------|
|------9---12^---9-9-------12^-12^-12^-|
|--11^---------------11^---------------|
|--------------------------------------|
|--------------------------------------|
|--------------------------------------|


|----------------9h12p9---------------------|
|--12p9-9-9-12p9--------12p9----9-12p9------|
|----------------------------12--------11-9-|
|-------------------------------------------|
|-------------------------------------------|
|-------------------------------------------|


|-----------------------------------16-|
|--------------------------------19----|
|--9-9-11p9----------------------------|
|-----------11-9-9-9-11-9--------------|
|-------------------------11-9^--------|
|--------------------------------------|


|--16--16--16--16--16--16-19p16----16-19p16-21p16-|
|--19^-----19^-----19^----------19----------------|
|-------------------------------------------------|
|-------------------------------------------------|
|-------------------------------------------------|
|-------------------------------------------------|


|--19p16----16-19p16-21p16-19p16----16-19p16-------|
|--------19----------------------19----------19-19-|
|--------------------------------------------------|
|--------------------------------------------------|
|--------------------------------------------------|
|--------------------------------------------------|



|---------------16h19p16--------------------19p16-------|
|------16-19p16----------19-16-----16-19p16-------19-16-|
|--18^-------------------------18^----------------------|
|-------------------------------------------------------|
|-------------------------------------------------------|
|-------------------------------------------------------|


|---------------19p16----16-19^--19^----|--19^---------------|
|------16-19p16-------19----------------|--------------------|
|--18^----------------------------------|--------------------|
|---------------------------------------|--------------------|
|---------------------------------------|--------------------|
|---------------------------------------|--------------------|

4.Jump In The Fire

Guitar 1
                                                           
E||---------------------------|---------------------------|
B||---------------------------|---------------------------|
G||---------------------------|---------------------------|
D||--------------3------------|--------------3------------|
A||--------3--4-----5--4--3h0-|--------3--4-----5--4--3h0-|
E||--3--6---------------------|--3--6---------------------|


                                                                            
--------------------------|--------------------|---------------------------|
--------------------------|--------------------|---------------------------|
--------------------------|--5--------3--------|---------------------------|
--------------3-----------|--5--------3--------|--------------3------------|
--------3--4-----5--4--3--|--3--------1--------|--------3--4-----5--4--3h0-|
--3--6--------------------|--------------------|--3--6---------------------|


                                                                           
--------------------------|--------------------------|--------------------|
--------------------------|--------------------------|--------------------|
--------------------------|--------------------------|--5--------3--------|
--------------3-----------|--3-----------3-----------|--5--------3--------|
--------3--4-----5--4--3--|-----5--4--3-----5--4--3--|--3--------1--------|
--3--6--------------------|--------------------------|--------------------|


                                                        
---------------------------|---------------------------|
---------------------------|---------------------------|
---------------------------|---------------------------|
--------------3------------|--------------3------------|
--------3--4-----5--4--3h0-|--------3--4-----5--4--3h0-|
--3--6---------------------|--3--6---------------------|


                                                     
---------------------------|------------------------|
---------------------------|------------------------|
---------------------------|------------------------|
--5--3-----3---------------|--------------3--5------|
--------5-----5--4-4-3-----|-----3--4--5------------|
------------------------3--|--6---------------------|


                                                       
---------------------------|--------------------------|
---------------------------|--------------------------|
---------------------------|--------------------------|
--------------3------------|--------------3-----------|
--------3--4-----5--4--3h0-|--------3--4-----5--4--3--|
--3--6---------------------|--3--6--------------------|


                                                                          
--------------------------|--------------------|-------------------------|
--------------------------|--------------------|-------------------------|
--------------------------|--5--------3--------|--------------------3----|
--3-----------3-----------|--5--------3--------|--------------------3----|
-----5--4--3-----5--4--3--|--3--------1--------|--------------------1----|
--------------------------|--------------------|--1--3--3--1--3--0-------|


                                                                       
---------------------|-------------------------|----------------------|
---------------------|-------------------------|----------------------|
---------------------|--------------------5----|------x--x--x--6------|
------3----3----3----|--------------------5----|------x--x--x--6------|
------3----3----3----|--------------------3----|------x--x--x--4------|
------1----1----1----|--1--3--3--1--3--0-------|----------------------|


                                                                          
-------------------------|---------------------|-------------------------|
-------------------------|---------------------|-------------------------|
--------------------3----|---------------------|--------------------5----|
--------------------3----|------3----3----3----|--------------------5----|
--------------------1----|------3----3----3----|--------------------3----|
--1--3--3--1--3--0-------|------1----1----1----|--1--3--3--1--3--0-------|


                                                                       
----------------------|-------------------------|---------------------|
----------------------|-------------------------|---------------------|
------x--x--x--6------|--------------------3----|---------------------|
------x--x--x--6------|--------------------3----|------3----3----3----|
------x--x--x--4------|--------------------1----|------3----3----3----|
----------------------|--1--3--3--1--3--0-------|------1----1----1----|


                                                                           
-------------------------|----------------------|-------------------------|
-------------------------|----------------------|-------------------------|
--------------------5----|------x--x--x--6------|--------------------3----|
--------------------5----|------x--x--x--6------|--------------------3----|
--------------------3----|------x--x--x--4------|--------------------1----|
--1--3--3--1--3--0-------|----------------------|--1--3--3--1--3--0-------|


                                                                       
---------------------|-------------------------|----------------------|
---------------------|-------------------------|----------------------|
---------------------|--------------------5----|------x--x--x--6------|
------3----3----3----|--------------------5----|------x--x--x--6------|
------3----3----3----|--------------------3----|------x--x--x--4------|
------1----1----1----|--1--3--3--1--3--0-------|----------------------|


                                                                          
-------------------------|---------------------|-------------------------|
-------------------------|---------------------|-------------------------|
--------------------3----|---------------------|--------------------5----|
--------------------3----|------3----3----3----|--------------------5----|
--------------------1----|------3----3----3----|--------------------3----|
--1--3--3--1--3--0-------|------1----1----1----|--1--3--3--1--3--0-------|


                                                                             
--------------------|---------------------------|---------------------------|
--------------------|---------------------------|---------------------------|
----------6----6----|---------------------------|---------------------------|
----------6----6----|--------------3------------|--------------3------------|
----------4----4----|--------3--4-----5--4--3h0-|--------3--4-----5--4--3h0-|
--------------------|--3--6---------------------|--3--6---------------------|


                                                                            
--------------------------|--------------------|---------------------------|
--------------------------|--------------------|---------------------------|
--------------------------|--5--------3--------|---------------------------|
--------------3-----------|--5--------3--------|--------------3------------|
--------3--4-----5--4--3--|--3--------1--------|--------3--4-----5--4--3h0-|
--3--6--------------------|--------------------|--3--6---------------------|


                                                                           
--------------------------|--------------------------|--------------------|
--------------------------|--------------------------|--------------------|
--------------------------|--------------------------|--5--------3--------|
--------------3-----------|--3-----------3-----------|--5--------3--------|
--------3--4-----5--4--3--|-----5--4--3-----5--4--3--|--3--------1--------|
--3--6--------------------|--------------------------|--------------------|


                                                        
---------------------------|---------------------------|
---------------------------|---------------------------|
---------------------------|---------------------------|
--------------3------------|--------------3------------|
--------3--4-----5--4--3h0-|--------3--4-----5--4--3h0-|
--3--6---------------------|--3--6---------------------|


                                                     
---------------------------|------------------------|
---------------------------|------------------------|
---------------------------|------------------------|
--5--3-----3---------------|--------------3--5------|
--------5-----5--4-4-3-----|-----3--4--5------------|
------------------------3--|--6---------------------|


                                                       
---------------------------|--------------------------|
---------------------------|--------------------------|
---------------------------|--------------------------|
--------------3------------|--------------3-----------|
--------3--4-----5--4--3h0-|--------3--4-----5--4--3--|
--3--6---------------------|--3--6--------------------|


                                                                          
--------------------------|--------------------|-------------------------|
--------------------------|--------------------|-------------------------|
--------------------------|--5--------3--------|--------------------3----|
--3-----------3-----------|--5--------3--------|--------------------3----|
-----5--4--3-----5--4--3--|--3--------1--------|--------------------1----|
--------------------------|--------------------|--1--3--3--1--3--0-------|


                                                                       
---------------------|-------------------------|----------------------|
---------------------|-------------------------|----------------------|
---------------------|--------------------5----|------x--x--x--6------|
------3----3----3----|--------------------5----|------x--x--x--6------|
------3----3----3----|--------------------3----|------x--x--x--4------|
------1----1----1----|--1--3--3--1--3--0-------|----------------------|


                                                                          
-------------------------|---------------------|-------------------------|
-------------------------|---------------------|-------------------------|
--------------------3----|---------------------|--------------------5----|
--------------------3----|------3----3----3----|--------------------5----|
--------------------1----|------3----3----3----|--------------------3----|
--1--3--3--1--3--0-------|------1----1----1----|--1--3--3--1--3--0-------|


                                                                       
----------------------|-------------------------|---------------------|
----------------------|-------------------------|---------------------|
------x--x--x--6------|--------------------3----|---------------------|
------x--x--x--6------|--------------------3----|------3----3----3----|
------x--x--x--4------|--------------------1----|------3----3----3----|
----------------------|--1--3--3--1--3--0-------|------1----1----1----|


                                                                           
-------------------------|--------------------|---------------------------|
-------------------------|--------------------|---------------------------|
--------------------5----|----------6----6----|---------------------------|
--------------------5----|----------6----6----|--------------3------------|
--------------------3----|----------4----4----|--------3--4-----5--4--3h0-|
--1--3--3--1--3--0-------|--------------------|--3--6---------------------|


                                                                            
---------------------------|--------------------------|--------------------|
---------------------------|--------------------------|--------------------|
---------------------------|--------------------------|--5--------3--------|
--------------3------------|--------------3-----------|--5--------3--------|
--------3--4-----5--4--3h0-|--------3--4-----5--4--3--|--3--------1--------|
--3--6---------------------|--3--6--------------------|--------------------|


                                                       
---------------------------|--------------------------|
---------------------------|--------------------------|
---------------------------|--------------------------|
--------------3------------|--------------3-----------|
--------3--4-----5--4--3h0-|--------3--4-----5--4--3--|
--3--6---------------------|--3--6--------------------|


                                                                            
--------------------------|--------------------|---------------------------|
--------------------------|--------------------|---------------------------|
--------------------------|--5--------3--------|---------------------------|
--3-----------3-----------|--5--------3--------|--------------3------------|
-----5--4--3-----5--4--3--|--3--------1--------|--------3--4-----5--4--3h0-|
--------------------------|--------------------|--3--6---------------------|


                                                        
---------------------------|---------------------------|
---------------------------|---------------------------|
---------------------------|---------------------------|
--------------3------------|--5--3-----3---------------|
--------3--4-----5--4--3h0-|--------5-----5--4-4-3-----|
--3--6---------------------|------------------------3--|


                                                                                
------------------------|---------------------------|--------------------------|
------------------------|---------------------------|--------------------------|
------------------------|---------------------------|--------------------------|
--------------3--5------|--------------3------------|--------------3-----------|
-----3--4--5------------|--------3--4-----5--4--3h0-|--------3--4-----5--4--3--|
--6---------------------|--3--6---------------------|--3--6--------------------|


                                                                            
--------------------------|--------------------||--------------------------|
--------------------------|--------------------||--------------------------|
--------------------------|--5--------3--------||*-------------------------|
--3-----------3-----------|--5--------3--------||*--8--8--8--8--8----8--8--|
-----5--4--3-----5--4--3--|--3--------1--------||---8--8--8--8--8----8--8--|
--------------------------|--------------------||---6--6--6--6--6----6--6--|


                                                                             
------------------------|-------------------------|------------------------||
------------------------|-------------------------|------------------------||
------------------------|-------------------------|-----------------------*||
--8--8--8----6----8-----|--5--5--5--5--5----5--5--|--5--5--5----3----5----*||
--8--8--8----6----8-----|--5--5--5--5--5----5--5--|--5--5--5----3----5-----||
--6--6--6----4----6--0--|--3--3--3--3--3----3--3--|--3--3--3----1----3-----||


                                                                             
-------------------------|------------------------|-------------------------|
-------------------------|------------------------|-------------------------|
-------------------------|------------------------|-------------------------|
--8--8--8--8--8----8--8--|--8--8--8----6----8-----|--5--5--5--5--5----5--5--|
--8--8--8--8--8----8--8--|--8--8--8----6----8-----|--5--5--5--5--5----5--5--|
--6--6--6--6--6----6--6--|--6--6--6----4----6--0--|--3--3--3--3--3----3--3--|


                                                                           
-----------------------|-------------------------|------------------------|
-----------------------|-------------------------|------------------------|
-----------------------|-------------------------|------------------------|
--5--5--5----3----5----|--8--8--8--8--8----8--8--|--8--8--8----6----8-----|
--5--5--5----3----5----|--8--8--8--8--8----8--8--|--8--8--8----6----8-----|
--3--3--3----1----3----|--6--6--6--6--6----6--6--|--6--6--6----4----6--0--|


                                                                            
-------------------------|-----------------------|-------------------------|
-------------------------|-----------------------|-------------------------|
-------------------------|-----------------------|-------------------------|
--5--5--5--5--5----5--5--|--5--5--5----3----5----|--8--8--8--8--8----8--8--|
--5--5--5--5--5----5--5--|--5--5--5----3----5----|--8--8--8--8--8----8--8--|
--3--3--3--3--3----3--3--|--3--3--3----1----3----|--6--6--6--6--6----6--6--|


                                                                           
------------------------|-------------------------|-----------------------|
------------------------|-------------------------|-----------------------|
------------------------|-------------------------|-----------------------|
--8--8--8----6----8-----|--5--5--5--5--5----5--5--|--5--5--5----3----5----|
--8--8--8----6----8-----|--5--5--5--5--5----5--5--|--5--5--5----3----5----|
--6--6--6----4----6--0--|--3--3--3--3--3----3--3--|--3--3--3----1----3----|


                                                                             
-------------------------|------------------------|-------------------------|
-------------------------|------------------------|-------------------------|
-------------------------|------------------------|-------------------------|
--8--8--8--8--8----8--8--|--8--8--8----6----8-----|--5--5--5--5--5----5--5--|
--8--8--8--8--8----8--8--|--8--8--8----6----8-----|--5--5--5--5--5----5--5--|
--6--6--6--6--6----6--6--|--6--6--6----4----6--0--|--3--3--3--3--3----3--3--|


                                                                           
-----------------------|-------------------------|------------------------|
-----------------------|-------------------------|------------------------|
-----------------------|-------------------------|------------------------|
--5--5--5----3----5----|--8--8--8--8--8----8--8--|--8--8--8----6----8-----|
--5--5--5----3----5----|--8--8--8--8--8----8--8--|--8--8--8----6----8-----|
--3--3--3----1----3----|--6--6--6--6--6----6--6--|--6--6--6----4----6--0--|


                                                                            
-------------------------|-----------------------|-------------------------|
-------------------------|-----------------------|-------------------------|
-------------------------|-----------------------|-------------------------|
--5--5--5--5--5----5--5--|--5--5--5----3----5----|--8--8--8--8--8----8--8--|
--5--5--5--5--5----5--5--|--5--5--5----3----5----|--8--8--8--8--8----8--8--|
--3--3--3--3--3----3--3--|--3--3--3----1----3----|--6--6--6--6--6----6--6--|


                                                                           
------------------------|-------------------------|-----------------------|
------------------------|-------------------------|-----------------------|
------------------------|-------------------------|-----------------------|
--8--8--8----6----8-----|--5--5--5--5--5----5--5--|--5--5--5----3----5----|
--8--8--8----6----8-----|--5--5--5--5--5----5--5--|--5--5--5----3----5----|
--6--6--6----4----6--0--|--3--3--3--3--3----3--3--|--3--3--3----1----3----|


                                                                          
-------------------------|---------------------|-------------------------|
-------------------------|---------------------|-------------------------|
--------------------3----|---------------------|--------------------5----|
--------------------3----|------3----3----3----|--------------------5----|
--------------------1----|------3----3----3----|--------------------3----|
--1--3--3--1--3--0-------|------1----1----1----|--1--3--3--1--3--0-------|


                                                                       
----------------------|-------------------------|---------------------|
----------------------|-------------------------|---------------------|
------x--x--x--6------|--------------------3----|---------------------|
------x--x--x--6------|--------------------3----|------3----3----3----|
------x--x--x--4------|--------------------1----|------3----3----3----|
----------------------|--1--3--3--1--3--0-------|------1----1----1----|


                                                                           
-------------------------|----------------------|-------------------------|
-------------------------|----------------------|-------------------------|
--------------------5----|------x--x--x--6------|--------------------3----|
--------------------5----|------x--x--x--6------|--------------------3----|
--------------------3----|------x--x--x--4------|--------------------1----|
--1--3--3--1--3--0-------|----------------------|--1--3--3--1--3--0-------|


                                                                     
---------------------|-------------------------|--------------------|
---------------------|-------------------------|--------------------|
---------------------|--------------------5----|----------6----6----|
------3----3----3----|--------------------5----|----------6----6----|
------3----3----3----|--------------------3----|----------4----4----|
------1----1----1----|--1--3--3--1--3--0-------|--------------------|


                                                        
---------------------------|---------------------------|
---------------------------|---------------------------|
---------------------------|---------------------------|
--------------3------------|--------------3------------|
--------3--4-----5--4--3h0-|--------3--4-----5--4--3h0-|
--3--6---------------------|--3--6---------------------|


                                                                            
--------------------------|--------------------|---------------------------|
--------------------------|--------------------|---------------------------|
--------------------------|--5--------3--------|---------------------------|
--------------3-----------|--5--------3--------|--------------3------------|
--------3--4-----5--4--3--|--3--------1--------|--------3--4-----5--4--3h0-|
--3--6--------------------|--------------------|--3--6---------------------|


                                                                           
--------------------------|--------------------------|--------------------|
--------------------------|--------------------------|--------------------|
--------------------------|--------------------------|--5--------3--------|
--------------3-----------|--3-----------3-----------|--5--------3--------|
--------3--4-----5--4--3--|-----5--4--3-----5--4--3--|--3--------1--------|
--3--6--------------------|--------------------------|--------------------|


                                                        
---------------------------|---------------------------|
---------------------------|---------------------------|
---------------------------|---------------------------|
--------------3------------|--------------3------------|
--------3--4-----5--4--3h0-|--------3--4-----5--4--3h0-|
--3--6---------------------|--3--6---------------------|


                                                     
---------------------------|------------------------|
---------------------------|------------------------|
---------------------------|------------------------|
--5--3-----3---------------|--------------3--5------|
--------5-----5--4-4-3-----|-----3--4--5------------|
------------------------3--|--6---------------------|


                                                       
---------------------------|--------------------------|
---------------------------|--------------------------|
---------------------------|--------------------------|
--------------3------------|--------------3-----------|
--------3--4-----5--4--3h0-|--------3--4-----5--4--3--|
--3--6---------------------|--3--6--------------------|


                                                                          
--------------------------|--------------------|-------------------------|
--------------------------|--------------------|-------------------------|
--------------------------|--5--------3--------|--------------------3----|
--3-----------3-----------|--5--------3--------|--------------------3----|
-----5--4--3-----5--4--3--|--3--------1--------|--------------------1----|
--------------------------|--------------------|--1--3--3--1--3--0-------|


                                                                       
---------------------|-------------------------|----------------------|
---------------------|-------------------------|----------------------|
---------------------|--------------------5----|------x--x--x--6------|
------3----3----3----|--------------------5----|------x--x--x--6------|
------3----3----3----|--------------------3----|------x--x--x--4------|
------1----1----1----|--1--3--3--1--3--0-------|----------------------|


                                                                          
-------------------------|---------------------|-------------------------|
-------------------------|---------------------|-------------------------|
--------------------3----|---------------------|--------------------5----|
--------------------3----|------3----3----3----|--------------------5----|
--------------------1----|------3----3----3----|--------------------3----|
--1--3--3--1--3--0-------|------1----1----1----|--1--3--3--1--3--0-------|


                                                                       
----------------------|-------------------------|---------------------|
----------------------|-------------------------|---------------------|
------x--x--x--6------|--------------------3----|---------------------|
------x--x--x--6------|--------------------3----|------3----3----3----|
------x--x--x--4------|--------------------1----|------3----3----3----|
----------------------|--1--3--3--1--3--0-------|------1----1----1----|


                                                                           
-------------------------|----------------------|-------------------------|
-------------------------|----------------------|-------------------------|
--------------------5----|------x--x--x--6------|--------------------3----|
--------------------5----|------x--x--x--6------|--------------------3----|
--------------------3----|------x--x--x--4------|--------------------1----|
--1--3--3--1--3--0-------|----------------------|--1--3--3--1--3--0-------|


                                                                       
---------------------|-------------------------|----------------------|
---------------------|-------------------------|----------------------|
---------------------|--------------------5----|------x--x--x--6------|
------3----3----3----|--------------------5----|------x--x--x--6------|
------3----3----3----|--------------------3----|------x--x--x--4------|
------1----1----1----|--1--3--3--1--3--0-------|----------------------|


                                                                          
-------------------------|---------------------|-------------------------|
-------------------------|---------------------|-------------------------|
--------------------3----|---------------------|--------------------5----|
--------------------3----|------3----3----3----|--------------------5----|
--------------------1----|------3----3----3----|--------------------3----|
--1--3--3--1--3--0-------|------1----1----1----|--1--3--3--1--3--0-------|


                                                                       
----------------------|-------------------------|---------------------|
----------------------|-------------------------|---------------------|
------x--x--x--6------|--------------------3----|---------------------|
------x--x--x--6------|--------------------3----|------3----3----3----|
------x--x--x--4------|--------------------1----|------3----3----3----|
----------------------|--1--3--3--1--3--0-------|------1----1----1----|


                                                                           
-------------------------|----------------------|-------------------------|
-------------------------|----------------------|-------------------------|
--------------------5----|------x--x--x--6------|--------------------3----|
--------------------5----|------x--x--x--6------|--------------------3----|
--------------------3----|------x--x--x--4------|--------------------1----|
--1--3--3--1--3--0-------|----------------------|--1--3--3--1--3--0-------|


                                                                       
---------------------|-------------------------|----------------------|
---------------------|-------------------------|----------------------|
---------------------|--------------------5----|------x--x--x--6------|
------3----3----3----|--------------------5----|------x--x--x--6------|
------3----3----3----|--------------------3----|------x--x--x--4------|
------1----1----1----|--1--3--3--1--3--0-------|----------------------|


                                                                          
-------------------------|---------------------|-------------------------|
-------------------------|---------------------|-------------------------|
--------------------3----|---------------------|--------------------5----|
--------------------3----|------3----3----3----|--------------------5----|
--------------------1----|------3----3----3----|--------------------3----|
--1--3--3--1--3--0-------|------1----1----1----|--1--3--3--1--3--0-------|


                                                                       
----------------------|-------------------------|---------------------|
----------------------|-------------------------|---------------------|
------x--x--x--6------|--------------------3----|---------------------|
------x--x--x--6------|--------------------3----|------3----3----3----|
------x--x--x--4------|--------------------1----|------3----3----3----|
----------------------|--1--3--3--1--3--0-------|------1----1----1----|


                                                  
-------------------------|----------------------||
-------------------------|----------------------||
--------------------5----|------x--x--x--6------||
--------------------5----|------x--x--x--6------||
--------------------3----|------x--x--x--4------||
--1--3--3--1--3--0-------|----------------------||

Guitar 2
                                                           
E||---------------------------|---------------------------|
B||---------------------------|---------------------------|
G||---------------------------|---------------------------|
D||--------------3------------|--------------3------------|
A||--------3--4-----5--4--3h0-|--------3--4-----5--4--3h0-|
E||--3--6---------------------|--3--6---------------------|


                                                                            
--------------------------|--------------------|---------------------------|
--------------------------|--------------------|---------------------------|
--------------------------|--5--------3--------|---------------------------|
--------------3-----------|--5--------3--------|--------------3------------|
--------3--4-----5--4--3--|--3--------1--------|--------3--4-----5--4--3h0-|
--3--6--------------------|--------------------|--3--6---------------------|


                                                                           
--------------------------|--------------------------|--------------------|
--------------------------|--------------------------|--------------------|
--------------------------|--------------------------|--5--------3--------|
--------------3-----------|--3-----------3-----------|--5--------3--------|
--------3--4-----5--4--3--|-----5--4--3-----5--4--3--|--3--------1--------|
--3--6--------------------|--------------------------|--------------------|


                                                        
---------------------------|---------------------------|
---------------------------|---------------------------|
---------------------------|---------------------------|
--------------3------------|--------------3------------|
--------3--4-----5--4--3h0-|--------3--4-----5--4--3h0-|
--3--6---------------------|--3--6---------------------|


                                                     
---------------------------|------------------------|
---------------------------|------------------------|
---------------------------|------------------------|
--5--3-----3---------------|--------------3--5------|
--------5-----5--4-4-3-----|-----3--4--5------------|
------------------------3--|--6---------------------|


                                                       
---------------------------|--------------------------|
---------------------------|--------------------------|
---------------------------|--------------------------|
--------------3------------|--------------3-----------|
--------3--4-----5--4--3h0-|--------3--4-----5--4--3--|
--3--6---------------------|--3--6--------------------|


                                                                   
--------------------------|--------------------|------------------|
--------------------------|--------------------|------------------|
--------------------------|--5--------3--------|------------------|
--3-----------3-----------|--5--------3--------|------------------|
-----5--4--3-----5--4--3--|--3--------1--------|------------------|
--------------------------|--------------------|------------------|


                                                                            
------------------|------------------|------------------|------------------|
------------------|------------------|------------------|------------------|
------------------|------------------|------------------|------------------|
------------------|------------------|------------------|------------------|
------------------|------------------|------------------|------------------|
------------------|------------------|------------------|------------------|


                                                                                
-------------------|-----3--------------------------|--------------------------|
-------------------|--------6h3---3-6h3---3-6h3---3-|--6h3-------------6h---8~-|
----------------5--|--7---------5-------5-------5---|------5--3-----3----------|
-------------------|--------------------------------|------------5-------------|
-------------------|--------------------------------|--------------------------|
-------------------|--------------------------------|--------------------------|


                                                                          
-------------------------|---------------------|-------------------------|
-------------------------|---------------------|-------------------------|
--------------------3----|---------------------|--------------------5----|
--------------------3----|------3----3----3----|--------------------5----|
--------------------1----|------3----3----3----|--------------------3----|
--1--3--3--1--3--0-------|------1----1----1----|--1--3--3--1--3--0-------|


                                                                       
----------------------|-------------------------|---------------------|
----------------------|-------------------------|---------------------|
------x--x--x--6------|--------------------3----|---------------------|
------x--x--x--6------|--------------------3----|------3----3----3----|
------x--x--x--4------|--------------------1----|------3----3----3----|
----------------------|--1--3--3--1--3--0-------|------1----1----1----|


                                                                           
-------------------------|----------------------|-------------------------|
-------------------------|----------------------|-------------------------|
--------------------5----|------x--x--x--6------|--------------------3----|
--------------------5----|------x--x--x--6------|--------------------3----|
--------------------3----|------x--x--x--4------|--------------------1----|
--1--3--3--1--3--0-------|----------------------|--1--3--3--1--3--0-------|


                                                                     
---------------------|-------------------------|--------------------|
---------------------|-------------------------|--------------------|
---------------------|--------------------5----|----------6----6----|
------3----3----3----|--------------------5----|----------6----6----|
------3----3----3----|--------------------3----|----------4----4----|
------1----1----1----|--1--3--3--1--3--0-------|--------------------|


                                                        
---------------------------|---------------------------|
---------------------------|---------------------------|
---------------------------|---------------------------|
--------------3------------|--------------3------------|
--------3--4-----5--4--3h0-|--------3--4-----5--4--3h0-|
--3--6---------------------|--3--6---------------------|


                                                                            
--------------------------|--------------------|---------------------------|
--------------------------|--------------------|---------------------------|
--------------------------|--5--------3--------|---------------------------|
--------------3-----------|--5--------3--------|--------------3------------|
--------3--4-----5--4--3--|--3--------1--------|--------3--4-----5--4--3h0-|
--3--6--------------------|--------------------|--3--6---------------------|


                                                                           
--------------------------|--------------------------|--------------------|
--------------------------|--------------------------|--------------------|
--------------------------|--------------------------|--5--------3--------|
--------------3-----------|--3-----------3-----------|--5--------3--------|
--------3--4-----5--4--3--|-----5--4--3-----5--4--3--|--3--------1--------|
--3--6--------------------|--------------------------|--------------------|


                                                        
---------------------------|---------------------------|
---------------------------|---------------------------|
---------------------------|---------------------------|
--------------3------------|--------------3------------|
--------3--4-----5--4--3h0-|--------3--4-----5--4--3h0-|
--3--6---------------------|--3--6---------------------|


                                                     
---------------------------|------------------------|
---------------------------|------------------------|
---------------------------|------------------------|
--5--3-----3---------------|--------------3--5------|
--------5-----5--4-4-3-----|-----3--4--5------------|
------------------------3--|--6---------------------|


                                                       
---------------------------|--------------------------|
---------------------------|--------------------------|
---------------------------|--------------------------|
--------------3------------|--------------3-----------|
--------3--4-----5--4--3h0-|--------3--4-----5--4--3--|
--3--6---------------------|--3--6--------------------|


                                                                          
--------------------------|--------------------|-------------------------|
--------------------------|--------------------|-------------------------|
--------------------------|--5--------3--------|--------------------3----|
--3-----------3-----------|--5--------3--------|--------------------3----|
-----5--4--3-----5--4--3--|--3--------1--------|--------------------1----|
--------------------------|--------------------|--1--3--3--1--3--0-------|


                                                                       
---------------------|-------------------------|----------------------|
---------------------|-------------------------|----------------------|
---------------------|--------------------5----|------x--x--x--6------|
------3----3----3----|--------------------5----|------x--x--x--6------|
------3----3----3----|--------------------3----|------x--x--x--4------|
------1----1----1----|--1--3--3--1--3--0-------|----------------------|


                                                                          
-------------------------|---------------------|-------------------------|
-------------------------|---------------------|-------------------------|
--------------------3----|---------------------|--------------------5----|
--------------------3----|------3----3----3----|--------------------5----|
--------------------1----|------3----3----3----|--------------------3----|
--1--3--3--1--3--0-------|------1----1----1----|--1--3--3--1--3--0-------|


                                                                       
----------------------|-------------------------|---------------------|
----------------------|-------------------------|---------------------|
------x--x--x--6------|--------------------3----|---------------------|
------x--x--x--6------|--------------------3----|------3----3----3----|
------x--x--x--4------|--------------------1----|------3----3----3----|
----------------------|--1--3--3--1--3--0-------|------1----1----1----|


                                                                           
-------------------------|--------------------|---------------------------|
-------------------------|--------------------|---------------------------|
--------------------5----|----------6----6----|---------------------------|
--------------------5----|----------6----6----|--------------3------------|
--------------------3----|----------4----4----|--------3--4-----5--4--3h0-|
--1--3--3--1--3--0-------|--------------------|--3--6---------------------|


                                                                            
---------------------------|--------------------------|--------------------|
---------------------------|--------------------------|--------------------|
---------------------------|--------------------------|--5--------3--------|
--------------3------------|--------------3-----------|--5--------3--------|
--------3--4-----5--4--3h0-|--------3--4-----5--4--3--|--3--------1--------|
--3--6---------------------|--3--6--------------------|--------------------|


                                                       
---------------------------|--------------------------|
---------------------------|--------------------------|
---------------------------|--------------------------|
--------------3------------|--------------3-----------|
--------3--4-----5--4--3h0-|--------3--4-----5--4--3--|
--3--6---------------------|--3--6--------------------|


                                                                            
--------------------------|--------------------|---------------------------|
--------------------------|--------------------|---------------------------|
--------------------------|--5--------3--------|---------------------------|
--3-----------3-----------|--5--------3--------|--------------3------------|
-----5--4--3-----5--4--3--|--3--------1--------|--------3--4-----5--4--3h0-|
--------------------------|--------------------|--3--6---------------------|


                                                        
---------------------------|---------------------------|
---------------------------|---------------------------|
---------------------------|---------------------------|
--------------3------------|--5--3-----3---------------|
--------3--4-----5--4--3h0-|--------5-----5--4-4-3-----|
--3--6---------------------|------------------------3--|


                                                                                
------------------------|---------------------------|--------------------------|
------------------------|---------------------------|--------------------------|
------------------------|---------------------------|--------------------------|
--------------3--5------|--------------3------------|--------------3-----------|
-----3--4--5------------|--------3--4-----5--4--3h0-|--------3--4-----5--4--3--|
--6---------------------|--3--6---------------------|--3--6--------------------|


                                                                            
--------------------------|--------------------||--------------------------|
--------------------------|--------------------||--------------------------|
--------------------------|--5--------3--------||*-------------------------|
--3-----------3-----------|--5--------3--------||*--8--8--8--8--8----8--8--|
-----5--4--3-----5--4--3--|--3--------1--------||---8--8--8--8--8----8--8--|
--------------------------|--------------------||---6--6--6--6--6----6--6--|


                                                                             
------------------------|-------------------------|------------------------||
------------------------|-------------------------|------------------------||
------------------------|-------------------------|-----------------------*||
--8--8--8----6----8-----|--5--5--5--5--5----5--5--|--5--5--5----3----5----*||
--8--8--8----6----8-----|--5--5--5--5--5----5--5--|--5--5--5----3----5-----||
--6--6--6----4----6--0--|--3--3--3--3--3----3--3--|--3--3--3----1----3-----||


                                                                 
--------------------------------|-------------------------------|
--------------------------------|-------------------------------|
--------------------------------|-------------------------------|
--------------------------------|-------------------------------|
--8--8-8-8--8-8-8-8-8-8-8-8-8-8-|--8-8-8-8-8-8-8-8-8-8-8-8-8/---|
--6--6-6-6--6-6-6-6-6-6-6-6-6-6-|--6-6-6-6-6-6-6-6-6-6-6-6-6/---|


                                                       
-------------------------|----------------------------|
-------------------------|----------------------------|
--------------4----4--4--|--4--4--4-------------------|
--------------5----5--5--|--5--5--5-------------------|
--5--5--5--5--5----5--5--|--5--5--5----5-5-5-5-5--x-x-|
--3--3--3--3--3----3--3--|--3--3--3----3-3-3-3-3--x-x-|


                                                        
--------------------------|----------------------------|
--------------------------|----------------------------|
--------------------------|----------------------------|
--------------------------|----------------------------|
--8----8------------8--8--|--8------------8------------|
--6----6/-18--18/---6--6--|--6/-18--18----6/-18--18----|


                                                             
-----------------------------|------------------------------|
-----------------------------|------------------------------|
--4--4--4--4--4-4-4-4-4--4-4-|--4---------------------------|
--5--5--5--5--5-5-5-5-5--5-5-|--5---------------------------|
--5--5--5--5--5-5-5-5-5--5-5-|--5---------------------------|
--3--3--3--3--3-3-3-3-3--3-3-|--3--3-3-3-3-3-3-1-1-1-1-3/---|


                                                              
------------------------------|------------------------------|
--6-3h0---------6h3h0---------|--6-3h0---------6h3h0---------|
---------5h3h0---------5h3h0--|---------5h3h0---------5h3h0--|
------------------------------|------------------------------|
------------------------------|------------------------------|
------------------------------|------------------------------|


                                                                             
-----3----------------|--------3---------------|----3-----------------------|
--3--3----------6--3--|-----3--3--6------3-----|-------6h3------------------|
----------------------|--5------------------5b-|-----------5---5h3----3/-15-|
----------------------|------------------------|-------------------5--------|
----------------------|------------------------|----------------------------|
----------------------|------------------------|----------------------------|


                                                                   
---------15-----------------------------|-------------------------|
------15----18h15-----------------------|-------------------------|
--17--------------17h15-17h15-----15/---|-----3b------15----------|
------------------------------17--------|-----3b------15-------3b-|
----------------------------------------|--0-------0--------0--3b-|
----------------------------------------|-------------------------|


                                                             
-------------------------|----------------------------------|
-----------------0-------|--3--6h3---3--6h3---3-6h3---------|
-----15----15/---0--5b---|---------5--------5-------5/4-5h4-|
-----15----15/---0-------|----------------------------------|
--0----------------------|----------------------------------|
-------------------------|----------------------------------|


                                                          
-----------------------------|---------------------------|
--6h3------------------------|---------------------------|
------5--3-----3--5--5h7h5-3-|-----3--5h3----------------|
------------5----------------|--5---------5--3-----------|
-----------------------------|------------------5--3--1--|
-----------------------------|---------------------------|


                                                             
---------------------------|--------------------------------|
---------------------------|--18r-18--15------15----18r-18--|
---------------------------|--17r-17--15------15----17r-17--|
---------------------------|--------------17----------------|
--3r-3--1-----1------------|--------------------------------|
-----------3-------15--12--|--------------------------------|


                                                                      
--------------------------------|--------------15--------------------|
--15------15----17r17--15-------|------------------18h15-------------|
--15------15----17r17--15-------|--15--19--19------------17--15------|
------17-------------------17---|--------------------------------17--|
--------------------------------|------------------------------------|
--------------------------------|------------------------------------|


                                                                        
----------------------------|--------------------|---------------------|
------------------18b-------|----------20/-------|---------------------|
--17h-19h-17h-15------------|--------------------|---------------------|
----------------------------|--------------------|------3----3----3----|
----------------------------|--------------------|------3----3----3----|
----------------------------|--------------------|------1----1----1----|


                                                                           
-------------------------|----------------------|-------------------------|
-------------------------|----------------------|-------------------------|
--------------------5----|------x--x--x--6------|--------------------3----|
--------------------5----|------x--x--x--6------|--------------------3----|
--------------------3----|------x--x--x--4------|--------------------1----|
--1--3--3--1--3--0-------|----------------------|--1--3--3--1--3--0-------|


                                                                       
---------------------|-------------------------|----------------------|
---------------------|-------------------------|----------------------|
---------------------|--------------------5----|------x--x--x--6------|
------3----3----3----|--------------------5----|------x--x--x--6------|
------3----3----3----|--------------------3----|------x--x--x--4------|
------1----1----1----|--1--3--3--1--3--0-------|----------------------|


                                                                          
-------------------------|---------------------|-------------------------|
-------------------------|---------------------|-------------------------|
--------------------3----|---------------------|--------------------5----|
--------------------3----|------3----3----3----|--------------------5----|
--------------------1----|------3----3----3----|--------------------3----|
--1--3--3--1--3--0-------|------1----1----1----|--1--3--3--1--3--0-------|


                                                                             
--------------------|---------------------------|---------------------------|
--------------------|---------------------------|---------------------------|
----------6----6----|---------------------------|---------------------------|
----------6----6----|--------------3------------|--------------3------------|
----------4----4----|--------3--4-----5--4--3h0-|--------3--4-----5--4--3h0-|
--------------------|--3--6---------------------|--3--6---------------------|


                                                                            
--------------------------|--------------------|---------------------------|
--------------------------|--------------------|---------------------------|
--------------------------|--5--------3--------|---------------------------|
--------------3-----------|--5--------3--------|--------------3------------|
--------3--4-----5--4--3--|--3--------1--------|--------3--4-----5--4--3h0-|
--3--6--------------------|--------------------|--3--6---------------------|


                                                                           
--------------------------|--------------------------|--------------------|
--------------------------|--------------------------|--------------------|
--------------------------|--------------------------|--5--------3--------|
--------------3-----------|--3-----------3-----------|--5--------3--------|
--------3--4-----5--4--3--|-----5--4--3-----5--4--3--|--3--------1--------|
--3--6--------------------|--------------------------|--------------------|


                                                        
---------------------------|---------------------------|
---------------------------|---------------------------|
---------------------------|---------------------------|
--------------3------------|--------------3------------|
--------3--4-----5--4--3h0-|--------3--4-----5--4--3h0-|
--3--6---------------------|--3--6---------------------|


                                                     
---------------------------|------------------------|
---------------------------|------------------------|
---------------------------|------------------------|
--5--3-----3---------------|--------------3--5------|
--------5-----5--4-4-3-----|-----3--4--5------------|
------------------------3--|--6---------------------|


                                                       
---------------------------|--------------------------|
---------------------------|--------------------------|
---------------------------|--------------------------|
--------------3------------|--------------3-----------|
--------3--4-----5--4--3h0-|--------3--4-----5--4--3--|
--3--6---------------------|--3--6--------------------|


                                                
--------------------------|--------------------|
--------------------------|--------------------|
--------------------------|--5--------3--------|
--3-----------3-----------|--5--------3--------|
-----5--4--3-----5--4--3--|--3--------1--------|
--------------------------|--------------------|


                                                 
------------------------------------------------|
------------------------------------------------|
-----------------------------------------15-17--|
--------------------15-15-17h15----15-17--------|
--------13-13-15h17-------------17--------------|
--13h15-----------------------------------------|


                                                   
--------------------------18h15-------------------|
-----------------15-18h15-------18h15----15-18h15-|
--17h15----15-19----------------------17b---------|
--------17----------------------------------------|
--------------------------------------------------|
--------------------------------------------------|


                                                   
--18h15-------------------18h15-------------------|
--------18h15----15-18h15-------18h15----15-15-18-|
--------------17b---------------------17b---------|
--------------------------------------------------|
--------------------------------------------------|
--------------------------------------------------|


                                                                    
---------------------------------|---------------------18b-----18b-|
--18h15--------------------------|--18b---18-20-18-15--------------|
--------17--15------15--17b------|---------------------------------|
----------------17------------0--|---------------------------------|
---------------------------------|---------------------------------|
---------------------------------|---------------------------------|


                                                                                
--18r15-----15--------------15--|--18h15----15-18h15---------------------------|
--------18------18b---18b-------|--------18----------18h15-18h15---------------|
--------------------------------|--------------------------------17--15-----15-|
--------------------------------|----------------------------------------17----|
--------------------------------|----------------------------------------------|
--------------------------------|----------------------------------------------|


                                                                 
--------------------------|--13b---13b13-10---------------------|
------18b---18b-------15--|------------------17--15------15--17h|
--15--19~---19~-----------|--------------------------17---------|
--------------------------|-------------------------------------|
--------------------------|-------------------------------------|
--------------------------|-------------------------------------|


                                                                            
--------------------------------------|------------------------------------|
--------------------------------------|------15--18h15---------------------|
--17h15-----15--17b-15h-17-15-----15--|--17b-----------17--15------15--17r-|
--------17--------------------17------|------------------------17----------|
--------------------------------------|------------------------------------|
--------------------------------------|------------------------------------|


                                       
--------------------------------------|
--------------------------------------|
--17h15-----15--17b-15--17-15-----15--|
--------17--------------------17------|
--------------------------------------|
--------------------------------------|


                                               
----------------------------------------------|
------15--18h15-18h15----15-18h15-18h15----15-|
--17b-----------------17b---------------17b---|
----------------------------------------------|
----------------------------------------------|
----------------------------------------------|


                                                   
--------------------------------------------------|
--18h15-18h15----15-18h15-18h15----15-18h15----15-|
--------------17b---------------17----------17----|
--------------------------------------------------|
--------------------------------------------------|
--------------------------------------------------|


                                                   
--------------------------------------------------|
--18h15----15-18h15-18h15----15-18h15-18h15----15-|
--------17----------------17----------------17----|
--------------------------------------------------|
--------------------------------------------------|
--------------------------------------------------|


                                           
-----------------------------------0--15--|
--18h15-18h15-15h18h15-18h15-18b----------|
------------------------------------------|
------------------------------------------|
------------------------------------------|
------------------------------------------|


                                                   
--17-15-15-15-18-15-15-15-20-15-15-15-18-15-15-15-|
--------------------------------------------------|
--------------------------------------------------|
--------------------------------------------------|
--------------------------------------------------|
--------------------------------------------------|


                                                   
--17-15-15-15-18-15-15-15-20-15-15-15-18-15-15-15-|
--------------------------------------------------|
--------------------------------------------------|
--------------------------------------------------|
--------------------------------------------------|
--------------------------------------------------|


                                                   
--17-15-15-15-18-15-15-15-20-15-15-15-18-15-15-15-|
--------------------------------------------------|
--------------------------------------------------|
--------------------------------------------------|
--------------------------------------------------|
--------------------------------------------------|


                                                   
--17-15-15-15-18-15-15-15-20-15-15-15-18-15-15-15-|
--------------------------------------------------|
--------------------------------------------------|
--------------------------------------------------|
--------------------------------------------------|
--------------------------------------------------|


                                                   
--17-15-15-15-18-15-15-15-20-15-15-15-22-15-15-15-|
--------------------------------------------------|
--------------------------------------------------|
--------------------------------------------------|
--------------------------------------------------|
--------------------------------------------------|


                                                   
--20-15-15-15-18-15-15-15-17-15-15-15-18-15-15-15-|
--------------------------------------------------|
--------------------------------------------------|
--------------------------------------------------|
--------------------------------------------------|
--------------------------------------------------|


                                                   
--20-15-15-15-18-15-15-15-17-15-15-15-18-15-15-15-|
--------------------------------------------------|
--------------------------------------------------|
--------------------------------------------------|
--------------------------------------------------|
--------------------------------------------------|


                                                   
--20-15-15-15-18-15-15-15-17-15-15-15-18-15-15-15-|
--------------------------------------------------|
--------------------------------------------------|
--------------------------------------------------|
--------------------------------------------------|
--------------------------------------------------|


                                                   
--18h15-------18h15-18h15----15-18h15-18h15----15-|
--------18h15-------------18----------------18----|
--------------------------------------------------|
--------------------------------------------------|
--------------------------------------------------|
--------------------------------------------------|


                                                 
--18h15-18h15----15-18h15-18h15----15-18h15-18--|
--------------18----------------18--------------|
------------------------------------------------|
------------------------------------------------|
------------------------------------------------|
------------------------------------------------|


                                                                    
--18b---18b---18h15-----15--18b-|--18-15-----15--18--18b---18r-15--|
--------------------18----------|--------18------------------------|
--------------------------------|----------------------------------|
--------------------------------|----------------------------------|
--------------------------------|----------------------------------|
--------------------------------|----------------------------------|


   **                                                
--18h-15------15----------------------------------|
----------18------18--15--18h-15------15----------|
----------------------------------17------17--15--|
--------------------------------------------------|
--------------------------------------------------|
--------------------------------------------------|


                                                                              
------------------------------------------|----------------------------------|
------------------------------------------|----------------------------------|
--17h-15------15------15--17--19--17--15--|------15--17h-15------15--17--15--|
----------17------17----------------------|--17--------------17--------------|
------------------------------------------|----------------------------------|
------------------------------------------|----------------------------------|


                                                                        
----------------------------------|------------------------------------|
--17h-18h-17h-18h-17h-18----------|------------------------------------|
--17h-19h-17h-19h-17h-19--17--15--|--17h15-----------------------------|
----------------------------------|--------17--15----------------------|
----------------------------------|----------------17--15--13--15--13--|
----------------------------------|------------------------------------|


                                                                        
----------------------------------|------------------------------------|
----------------------------------|--------------------------19--17-15-|
----------------------------------|------------------15--17------------|
----------------------------------|----------15--17--------------------|
--15-17-15-13-----13~---------13--|--15/-17----------------------------|
--------------15----------15------|------------------------------------|


                                    
----------------------------------||
--17--15------15~-----15--17--19--||
----------17------17--------------||
----------------------------------||
----------------------------------||
----------------------------------||
This fades out eventually. Starts to fade at **

5.(Anesthesia)Pulling Teeth

No Guitar

6.Whiplash

|-----------||----------------------||-----------|---------|---------|---------|
|-----------||*--------------------*||-----------|---------|---------|---------|
|-----------||----------------------||-----------|---------|---------|---------|
|--9--9--9--||---9--------9--9--9---||--9--------|--9------|---------|---------|
|--7--7--7--||*--7--------7--7--7--*||--7--------|--7------|---------|---------|
|-----------||----------------------||-----------|---------|---------|---------|




|----------|----------|----------|----------|----------|-----------|----------|
|----------|----------|----------|----------|----------|-----------|----------|
|----------|----------|----------|----------|----------|--9--------|----------|
|----------|----------|----------|----------|----------|--9--------|----------|
|----------|----------|----------|----------|----------|--7--------|----------|
|----------|----------|----------|----------|----------|--0--------|----------|




|-----------|----------|------------|-----------|-----------|--------|
|-----------|----------|------------|-----------|-----------|--------|
|--9--------|----------|--9--9------|--9--------|--9--------|--------|
|--9--------|----------|--9--9------|--9--------|--9--------|--------|
|--7--------|----------|--7--7------|--7--------|--7--------|--------|
|--0--------|----------|--0--0------|--0--------|--0--------|--------|



                                                          play 3 times
||---------------------------------|----------------------------------||
||*--------------------------------|---------------------------------*||
||---------------------------------|----------------------------------||
||---------------------------------|------------------7----6----------||
||*--------------------------------|------------------7----6----5p0--*||
||--0--0-0-0-0-0-0-0-0-0-0-0-0-0-0-|-0-0-0-0-0-0-0-0------------------||
      PM.............................................



|---------------------------------|--------------------------------|
|---------------------------------|--------------------------------|
|---------------------------------|--------------------------------|
|---------------------------------|-------------------7----6----5--|
|---------------------------------|-------------------7----6----5--|
|--0--0-0-0-0-0-0-0-0-0-0-0-0-0-0-|-0-0-0-0-0-0-0-0----------------|
      PM.............................................



  Rhy Fig 1                                            end Rhy Fig 1
||---------------------------------|--------------------------------||
||*--------------------------------|-------------------------------*||
||---------------------------------|--------------------------------||
||---------------------------------|------------------7----6----5---||
||*--------------------------------|------------------7----6----5--*||
||--0--0-0-0-0-0-0-0-0-0-0-0-0-0-0-|-0-0-0-0-0-0-0-0----------------||
      PM.............................................



                                                             play 4 times
  Rhy Fig 2                                                 end Rhy Fig 2
||----------------------------------|------------------------------------||
||*---------------------------------|-----------------------------------*||
||----------------------------------|------------------------------------||
||----------------------------------|------------------------------5-----||
||*---------------------------------|------------------------------5----*||
||--0-0-0-0-0-0-0-0-0-0-0-0-0-0-0-0-|-0-0-0-0-0-0-0-0-0-0-0-0-0-0--------||
   PM............................................................. 


 S/S

 w/ Rhy Fig 2 (4 times)
|--------------------------------------|
|--------------------------------------|
|--------------------------------------|
|--------------------------------------|
|--------------------------------------|
|--------------------------------------|
 1. Late at night... 
 2.3.4.


  Chorus						  
		
                                                 
  Rhy Fig 3                                     end Rhy Fig 3
||--------------------|--------------------------------------||
||--------------------|--------------------------------------||
||--------------------|--------------------------------------||
||--5--------5--4--2--|--------------------------------------||
||--3--------3--2--0--|-------4--4--4----4--4--4----4--4-----||
||--------------------|--0h2--2--2--2----2--2--2----2--2--0--||
                             PM............................. 

 Note: Chorus consists of 3x Rhy Fig 3 plus one bar w/ no guitars.
       


                                     __________________________________
                                    |1,2,3.                            |
 w/ Rhy Fig 1 (4 times)
||----------------------------------|----------------------------------||
||*---------------------------------|---------------------------------*||
||----------------------------------|----------------------------------||
||----------------------------------|----------------------------------||
||*---------------------------------|---------------------------------*||
||----------------------------------|----------------------------------||


  _________________________________
 |4. 

||---------------------------------|---------------------------------||
||---------------------------------|---------------------------------||
||---------------------------------|---------------------------------||
||---------------------------------|---------------------------------||
||---------------------------------|---------------------------------||
||---------------------------------|---------------------------------||


                                                           play 4 times
  Rhy Fig 4                                               end Rhy Fig 4
||----------------------------------|----------------------------------||
||*---------------------------------|---------------------------------*||
||----------------------------------|----------------------------------||
||-----------5-----5----------------|----------5-----5-----------------||
||*--7p5-----5-----5----------------|--7p5-----5-----5----------------*||
||--------7-----7-------0--0--0--0--|-------7-----7-------0--0--0--0---||
                       PM..........                      PM..........


 Guitar solo

 w/ Rhy Fig 4

|--15p14p12------12--15p14p12------12--17p15p12------12--17p15p12------12--|
|------------15----------------15----------------15----------------15------|
|--------------------------------------------------------------------------|
|--------------------------------------------------------------------------|
|--------------------------------------------------------------------------|
|--------------------------------------------------------------------------|



|--17p15p12------12--17p15p12------12--17p15p12------12--17p15p12------12--|
|------------15----------------15----------------15----------------15------|
|--------------------------------------------------------------------------|
|--------------------------------------------------------------------------|
|--------------------------------------------------------------------------|
|--------------------------------------------------------------------------|



|--17p15p12------12--17p15p12------12--17p15p12------12--17p15p12------12--|
|--------------------------------------------------------------------------|
|------------15----------------15----------------15----------------15------|
|--------------------------------------------------------------------------|
|--------------------------------------------------------------------------|
|--------------------------------------------------------------------------|



|-17b19---------------------------|------------------------------------------------|
|--------15--15\-------------x--x-|-----12-------12-------12-------14--12----------|
|-----------------14b16------x--x-|-----12-------12-------12-------14--12-------12-|
|------------------------12-------|-14-------14-------14-------14-----------14-----|
|---------------------------------|------------------------------------------------|
|---------------------------------|------------------------------------------------|



|--------------------12h15p12-----------------------------------------|
|---------12--15p12------------15-----12--------12--15p12-------------|
|--14b16---------------------------14b16--14b16--------------14--12\--|
|---------------------------------------------------------------------|
|---------------------------------------------------------------------|
|---------------------------------------------------------------------|



          AH      AH               AH
|-------------------------------|-----------------------------|
|-------------------------------|-----------------------------|
|--2b4----{2}b4--r{2}-b4----r2--|--{2}b4----rp0------------0--|
|-------------------------------|----------------2------2-----|
|-------------------------------|-----------------------------|
|-------------------------------|-----------------------------|



|--------------------------------------|--------------------------------------|
|--------------------------------------|--------------------------------------|
|--2p0h2p0--4p0h4p0--5p0h5p0--4p0h4p0--|--5p0h5p0--7p0h7p0--9p0h9p0--7p0h7p0--|
|--------------------------------------|--------------------------------------|
|--------------------------------------|--------------------------------------|
|--------------------------------------|--------------------------------------|



|------------------------------------------|--------------------------------------|
|------------------------------------------|------------------------------------7-|
|-9p0h9p0--10p0h10p0--12p0h12p0--10p0h10p0-|-9p0h9p0--7p0h7p0--9b11---9b10---9----|
|------------------------------------------|--------------------------------------|
|------------------------------------------|--------------------------------------|
|------------------------------------------|--------------------------------------|



|-----------------10p7------7-----7--------------|
|--10p7-----10p7--------10--7-----7--10p7--------|
|--------9---------------------9-----------9--7--|
|------------------------------------------------|
|------------------------------------------------|
|------------------------------------------------|



|--------------------------------------------------|
|--------------------------------------------------|
|--7--7--9p7---------------------------------------|
|-------------9p7-----7--9p7-----------------------|
|------------------9----------9--7--5--------------|
|--------------------------------------7--7--~--~--|



|--------------------------------------------------------------------|
|----------------------------------------------------------------12--|
|--------------------------12-----------------12------12--14b16------|
|----------------------12--12--12--14p12------12--14-----------------|
|------12--12--12--14---------------------14-------------------------|
|--14----------------------------------------------------------------|



|-------------12--15p12------------------------------------------------|
|---------12-------------15--12------12--15p12------12--15p12------12--|
|--14b16-------------------------14-------------14-------------14------|
|----------------------------------------------------------------------|
|----------------------------------------------------------------------|
|----------------------------------------------------------------------|



|--------------------------|------------------|
|--15b17----------------0--|------------------|
|-----------------------0--|--15b17--r15-\----|
|--------------------------|------------------|
|--------------------------|------------------|
|--------------------------|------------------|


 w/ Rhy Fig 1 (4 times)

|-----12--12-----12----12--------12--12--12--------12----12--12--12--12--|
|--15b17------15b17-------15b17--------------15b17-----------------------|
|------------------------------------------------------------------------|
|------------------------------------------------------------------------|
|------------------------------------------------------------------------|
|------------------------------------------------------------------------|




|--12-------12----12--12---------12-----12--12---------12--|
|-----15b17----15b17-----------------15b17------15b17------|
|-------------------------14b15----------------------------|
|----------------------------------------------------------|
|----------------------------------------------------------|
|----------------------------------------------------------|




|--15--12------12--15p12------12--15p12-------------------------|
|----------15-------------15-------------15--12--12--12--15p12--|
|---------------------------------------------------------------|
|---------------------------------------------------------------|
|---------------------------------------------------------------|
|---------------------------------------------------------------|




|---------------------------------------------------------|
|---------------------------------------------------------|
|--14--12------12--14p12------12--14p12------12--14--12\--|
|----------14-------------14-------------14---------------|
|---------------------------------------------------------|
|---------------------------------------------------------|
  PM...........................................



|--3p1p0--3p1p0--3p1p0--5p3p0--6p4p0--6p4p0--7p5p0--8p6p0--|
|----------------------------------------------------------|
|----------------------------------------------------------|
|----------------------------------------------------------|
|----------------------------------------------------------|
|----------------------------------------------------------|



|--8p6p0--9p7p0--10p7p0--11p8p0--12p9p0--12p9p0--14p11p0--15p12p0--|
|------------------------------------------------------------------|
|------------------------------------------------------------------|
|------------------------------------------------------------------|
|------------------------------------------------------------------|
|------------------------------------------------------------------|



|-15p12p0--16p13p0--17p13p0--17p14p0--18p15p0--19p16p0--20p17p0--21p18p0-|
|------------------------------------------------------------------------|
|------------------------------------------------------------------------|
|------------------------------------------------------------------------|
|------------------------------------------------------------------------|
|------------------------------------------------------------------------|


                                                  go back to the sign S/S         
|--21p18p0--22p19--22p19--22p19--22b24----22b24--|--22b24----------------|
|------------------------------------------------|-----------------------|
|------------------------------------------------|-----------------------|
|------------------------------------------------|-----------------------|
|------------------------------------------------|-----------------------|
|------------------------------------------------|-----------------------|

7.Phantom Lord

intro
Riff: 1)
G--2---2-2---2-2-2---2-2--2-2-2---4---4-4---4-4-4---4-4---4-4-4
D--2---2-2---2-2-2---2-2--2-2-2---4---4-4---4-4-4---4-4---4-4-4
A--0---0-0---0-0-0---0-0--0-0-0---2---2-2---2-2-2---2-2---2-2-2
E---------------------------------------------------------------


Riff: 2)
e----------------------------------------------
B----------------------------------------------
G--7\-9---9--9--9---7--9-----7\-9---9--9--9---7
D--7\-9---9--9--9---5--7-----7\-9---9--9--9---7
A--5\-7---7--7--7------------5\-7---7--7--7---5
E----------------------------------------------
repeat a bunch of times listen for accurate rhythm		


Riff: 3)
D--2---5---4--5--4
A--0---3---2--3--2  || then riff 2
E----------------- 
verse


chorus(repeat 8 times)
Riff: 4)
D--7---5---7---4---5        -7---5---4---5---4
A--7---5---7---4---5   3X   -7---5---4---5---4
E--5---3---5---2---3        -5---3---2---3---2
 Hear the cry  of  war...    to control the land


Riff: 5)
G---------------
D--5--4--5------
A--3--2--3--4--5
E-----------2--3
This is Solo riff 1


Riff: 6)
G---------------
D-----------5--4
A--5--4--5--3--2
E--3--2--3------
This is solo riff 2
the solo switches from riff 5) to riff 6) and then back to 5)


Riff: 7)
G-------------------
D--5--4--2--1-------
A-------------------
E--------------3-2-0


Riff: 8) Low Overdrive/High clean output
e------------------------------------------------
B-----------------------------------------------0
G--------0-----------0-----------0---------------
D-----------2-----------2-----------2--------2---
A-----2-----------2-----------0-----------0------
E--0-----------3-----------2-----------1---------
 Interlude


Riff: 9)
D--2-2-2-2------------------------
A--2-2-2-2-2-2-2-2-0-0-0-0-0-0-0-0
E--0-0-0-0-3-3-3-3-2-2-2-2-1-1-1-1


Riff: 10)
G--------------------------------------------------
D--2---5---4--5--4---------------------------------
A--0---3---2--3--2---------------------------------
E-------------------0-0-0-0-0-0-0-0-0-0-0-0-0-0-0-0
second solo riff


Riff: 11)
G------4-------7---9-9-9-9-9-9-9-9-9----------------------
D--2---4---5---7---9-9-9-9-9-9-9-9-9----------------------
A--2---2---5---5---7-7-7-7-7-7-7-7-7---------7--5--4-5-4-2
E--0-------3-------0-0-0-0-0-0-0-0-0---------5--3--2-3-2-0


Solo by OrioN

This is The solo at the beginning of the song
                                               
--22p20p17----17-22p20p17----17-22p20p17----17-22p20p17-----|
-----------21-------------20-------------20-------------22--|
------------------------------------------------------------|
------------------------------------------------------------|
------------------------------------------------------------|
------------------------------------------------------------|


                                                                              
 
--22b--22r-----22b--22b--22p19-|-----19-22p19------------------------------12-|
-------------------------------|--22----------22-19----19-22p19---------15----|
-------------------------------|--------------------21----------21-19---------|
-------------------------------|----------------------------------------------|
-------------------------------|----------------------------------------------|
-------------------------------|----------------------------------------------|


                                                   
--15p12----12-15p12-------------------------------|
--------15----------15-12----12-15p12-------------|
--------------------------14b---------14p12----12-|
--------------------------------------------14----|
--------------------------------------------------|
--------------------------------------------------|


                               
------------------------14-15-|
--15---15---15--15------------|
--14b--14b--14b-14b-----------|
------------------------------|
------------------------------|
------------------------------|


                                                   
--17p14-15----------------------------------------|
-----------17-19p15-17-14-15p14----14-------------|
--------------------------------16----16-14-13-14-|
--------------------------------------------------|
--------------------------------------------------|
--------------------------------------------------|


                                                                              
-------------------------------------------|---------------------------------|
-------------------------------------------|---------------------------------|
--16p14p13-14p13p11-13--11-9-8h9p8---------|---------------------------7-9p7-|
-----------------------------------9-------|-------------7-7-9p7---7-9-------|
-------------------------------------9--9\-|-----5-5-7/9---------9-----------|
-------------------------------------------|--7------------------------------|


                       
-------------------12-|
----------------------|
--9r--------7---------|
----------------------|
----------------------|
----------------------|


Use Middle finger Tapping or Pick..
T=Tap
  t        t        t        t        t        t        t        t                
--19p15p12-19p15p12-19p15p12-19p15p12-20p15p12-20p15p12-20p15p12-20p15p12-|
--------------------------------------------------------------------------|
--------------------------------------------------------------------------|
--------------------------------------------------------------------------|
--------------------------------------------------------------------------|
--------------------------------------------------------------------------|


  t        t        t        t        t        t        t        t               
--22p15p12-22p15p12-22p15p12-22p15p12-20p15p12-20p15p12-20p15p12-20p15p12-|
--------------------------------------------------------------------------|
--------------------------------------------------------------------------|
--------------------------------------------------------------------------|
--------------------------------------------------------------------------|
--------------------------------------------------------------------------|


  t     t           t                 t                 t     t               
--18p12-18p19p15p12-20p12-20~20p15p12-22p12-22~22p15p12-20p12-20~20p15p12-|
--------------------------------------------------------------------------|
--------------------------------------------------------------------------|
--------------------------------------------------------------------------|
--------------------------------------------------------------------------|
--------------------------------------------------------------------------|


  t        t        t        t        t        t        t            
--19p15p12-20p15p12-19p15p12-20p15p12-19p15p12-20p15p12-19p15p12---|
-------------------------------------------------------------------|
-------------------------------------------------------------------|
-------------------------------------------------------------------|
-------------------------------------------------------------------|
-------------------------------------------------------------------|


                                                     
-----12--15p12----12-15p12--------------------------|
--15b----------15b---------15-12----12-15p12--------|
---------------------------------14----------14--12-|
----------------------------------------------------|
----------------------------------------------------|
----------------------------------------------------|


                                                   
--------------------------------------------------|
--------------------------------------------------|
--12-12-14p12-------------------------------------|
--------------14-12----12-14p12-------------------|
--------------------14----------14-12-10----------|
-----------------------------------------12-12-12-|


                                                                     
----------------------------------|---------------------------------|
----------------------------------|--------7-10-7-------------------|
----------------------------7-9p7-|--x-7-9b-------9-7---7-9p7-9r--7-|
--------------7-7-9p7---7-9-------|-------------------9-------------|
------5-7-7/9---------9-----------|---------------------------------|
--5/7-----------------------------|---------------------------------|


                                             
-------------------------||
-------------------------||
-------------------------||
--9----7----2----1-------||
-------------------------||
--------------------3-2~-||

8.No Remorse

||-------------------------|-----------------------|------------------------|
||*------------------------|-----------------------|------------------------|
||-------------------------|------------------2----|------------------------|
||-------------------------|------------------2----|------------------------|
||*--2/4--------4----------|--2/4--------4----0----|--2/4--------4----------|
||---0h2--2--2--2p0--0--0--|--0h2--2--2--2p0-------|--0h2--2--2--2p0--0--0--|
          PM..       PM..          PM..                    PM..       PM..


            end Rhy Fig 1
|------------------------||
|-----------------------*||
|------------------4-----||
|------------------4-----||
|--2/4--------4----2----*||
|--0h2--2--2--2p0--------||
        PM..


 SOLO 1 w/ Rhy fig 1 (6 times)

 w/wah

|-14----14----14----14----14----14----|-14----14----14----14----14------14--|
|-17b19-17b19-17b19-17b19-17b19-17b19-|-17b19-17b19-17b19-17b19-17b19-------|
|-------------------------------------|-------------------------------------|
|-------------------------------------|-------------------------------------|
|-------------------------------------|-------------------------------------|
|-------------------------------------|-------------------------------------|
 bend lower note to pitch of higher note (unison bends)


|--17p14------14--17p14--17p14------14--17p14--17p14------14--|
|---------17--------------------17--------------------17------|
|-------------------------------------------------------------|
|-------------------------------------------------------------|
|-------------------------------------------------------------|
|-------------------------------------------------------------|



|--17p14--17p14------14--17p14--17p14------14--17p14h17--|
|----------------17--------------------17----------------|
|--------------------------------------------------------|
|--------------------------------------------------------|
|--------------------------------------------------------|
|--------------------------------------------------------|



|-19b21----19----b21-~--17--14-|-17p14------14--17p14----------------------------|
|------------------------------|--------17-------------17--14--17p14-------------|
|------------------------------|--------------------------------------16--14-----|
|------------------------------|----------------------------------------------16-|
|------------------------------|-------------------------------------------------|
|------------------------------|-------------------------------------------------|



|------------------14-----------------17--14--17--14--|
|------------------14--17p14------14--17--14--17--14--|
|--14--16b19--r16-------------16----------------------|
|-----------------------------------------------------|
|-----------------------------------------------------|
|-----------------------------------------------------|



|----------------------------------------|-------------------------------------|
|--17--14--17p14-------------------------|--2--5p2-----2--5p2--5p2--5p2--2--2--|
|-----------------16--14--\----2--4b6----|----------4--------------------------|
|----------------------------------------|-------------------------------------|
|----------------------------------------|-------------------------------------|
|----------------------------------------|-------------------------------------|



|---------------------------------|----------------------------|
|--5p2----------------------------|----------------------------|
|-------4--2-----2--4--4b6--r4p2--|-----2--4p2-----------------|
|-------------4-------------------|--4----------4--2-----------|
|---------------------------------|-------------------4--2-----|
|---------------------------------|-------------------------5--|
                                                     PM.......


|-------------------------|--------------------------|----------5tr(2)--|
|-------------------------|--------------------------|--5tr(2)----------|
|-------------------------|------------------4tr(2)--|------------------|
|--------------2-~-~---2--|--4tr(2)--4tr(2)----------|------------------|
|--------2--4--------4----|--------------------------|------------------|
|--2--5-------------------|--------------------------|------------------|
  PM.........|

9.Seek & Destroy

Intro
    Q=140
   4/4
    Gtrs I, II
    PM|           PM            PM--|     PM
    E E S S E +E  E S S E   +E  E E E E E E E  8x E E E E E E E E
||------------------------|--------------------||-----------------||
||o-----------------------|-------------------o||-----------------||
||------7h8p7-(7)---------|---------------5----||-9-7---7---------||
||------------------7h8p7-|-(7)-------5-----7--||-----9---9-8-7s5-||
||o-0-0-----------0-------|-----0-8-7---7-----o||-----------------||
||------------------------|--------------------||-----------------||
 |-Riff A                                              end Riff A-|

    Gtr I
    PM----|
    E E E E E E E E   E E E E E E E E
||------------------|------------------||
||o-----------------|-----------------o||
||------------------|------------------||
||----------5-7-5-7-|------------------||
||o---------5-7-5-7-|---------7-5-----o||
||--0-0-0-0---------|-0-0-0-0-----7-6--||
 |-Rhy Fig 1             end Rhy Fig 1-|

        Gtrs I, II
      PM----|
      E E E E E E E E   E E E E E E E E  6x
|-||------------------|------------------||
|-||o-----------------|-----------------o||
|-||------------------|------------------||
|-||----------5-7-5-7-|------------------||
|-||o---------5-7-5-7-|---------7-5-----o||
|-||--0-0-0-0---------|-0-0-0-0-----7-6--||


   Verse
    E E E E E E E E   E E E E E E E E   E E E E E E E E   E E E E E E E E   4x
||------------------|-----------------|-----------------|-------------------||
||o-----------------|-----------------|-----------------|------------------o||
||------------------|-----------------|-----------------|-------------------||
||------------------|-------------5---|-----------------|-------------5-----||
||o-----------------|---------------7-|-----------------|---------------7--o||
||--0-0-0-0-0-0-0-0-|-0-0-0-0-7-6-----|-0-0-0-0-0-0-0-0-|-0-0-0-0-7-6-------||
 |-Rhy Fig 2                                                  end Rhy Fig 2-|

   Pre-Chorus                                        1.

      PM--|            PM--|            PM--|
    E E E E E E Q    E E E E E E Q    E E E E E E Q    E E E E E E E E
||-----------------|----------------|----------------|-------------------||
||o----------------|----------------|----------------|------------------o||
||--5-------5-7-5--|-5-------5-7-5--|-5-------5-7-5--|-7-5---------------||
||--5-------5-7-5--|-5-------5-7-5--|-5-------5-7-5--|-----7-6-5---------||
||o---0-0-0--------|---0-0-0--------|---0-0-0--------|-----------7-6-5--o||
||-----------------|----------------|----------------|-------------------||
 |-Rhy Fig 3

  2.
  E E E E E E E E   E E E E E E E E
|-----------------|-----------------||
|-----------------|-----------------||
|-9-7---7---------|-9-7---7---------||
|-----9---9-8-7-5-|-----9---9-8-7-5-||
|-----------------|-----------------||
|-----------------|-----------------||
                     end Rhy Fig 3-|

   Chorus
                             1.,2.,3.

     W           H     H      E E E E E E E E   E E E E E E E E   3x
||------------|-------------|-----------------|-------------------||
||o-----------|-------------|-----------------|------------------o||
||--12--------|-11----10----|-9---------------|-------------------||
||--12--------|-11----10----|-9---------------|-------------------||
||o-10--------|--9-----8----|-7---------------|------------------o||
||------------|-------------|---0-0-0-0-0-0-0-|-0-0-0-0-0-0-0-0---||
 |-Rhy Fig 4                                        end Rhy Fig 4-|

  4.
  PM----|                               PM----|
  E E E E E E E E   E E E E E E E E     E E E E E E E E   E E E E E E E E  3x
|-----------------|-----------------||------------------|------------------||
|-----------------|-----------------||o-----------------|-----------------o||
|-9---------------|-----------------||------------------|------------------||
|-9-------5-7-5-7-|-----------------||----------5-7-5-7-|------------------||
|-7-------5-7-5-7-|---------7-5-----||o---------5-7-5-7-|---------7-5-----o||
|-0-0-0-0---------|-0-0-0-0-----7-6-||--0-0-0-0---------|-0-0-0-0-----7-6--||


Verse
Rhy Fig 2 x2

Pre - Chorus
Rhy Fig 3

Chorus
Rhy Fig 4 x3

                                     Faster Q=208

   W           H     H      W          Q  Q  H      Wx3
|-----------|-------------|----------|------------|--------||
|-----------|-------------|----------|------------|--------||
|-12--------|-11----10----|-9--------|-9----------|--------||
|-12--------|-11----10----|-9--------|-9----------|--------||
|-10--------|--9-----8----|-7--------|-7----------|--------||
|-----------|-------------|----------|------------|--------||


          PM  PM|         PM|   PM|   PM    PM|   PM|       PM--|
     E  E E E E E E E   E E E E E E E E   E E E E E E Q     E E E E E E E E   4x
||--------------------|-----------------|-----------------|-------------------||
||o-------------------|-----------------|-----------------|------------------o||
||----------------2---|-5---------------|-4---------------|-------------------||
||---5--7---7---------|-5-----7-----7---|-4-----7-----7\--|-------3-2-0-------||
||o-(0)-0-0---0-0---0-|---0-0---0-0---0-|---0-0---0-0-----|-3-2-0-------3-2--o||
||--------------------|-----------------|-----------------|-------------------||


 Guitar Solo
 Gtrs I, II play Rhy Fig 4 x3
  Gtr III
   W           H     E  E  S  E.    S  S  S  S  S  S  S  S  S  S  S  S  S  S  S  S
|-----------|----------------12--|-15p12----12-15p12-17p12-15p12----12-15p12-17p12-|
|-----------|----------12s15-----|-------12----------------------15----------------|
|-----------|--------------------|-------------------------------------------------|
|-----------|--------------------|-------------------------------------------------|
|-----------|--------------------|-------------------------------------------------|
|-----------|--------------------|-------------------------------------------------|



   S  S  E  E  E  E  a      +Q.
|-15p12----12----12-------------------|
|-------15----15----15b17==(15)-------|
|-------------------------------------|
|-------------------------------------|
|-------------------------------------|
|-------------------------------------|



    ~~~~~~~~~~~~
   +H      +Q    Q     W
|-------------------|-------------|
|-(15)----(15)\-----|-------------|
|-------------------|-------------|
|-------------------|-------------|
|-------------------|-------------|
|-------------------|-------------|



                                                            ~~~
  E.   S  S S  S S E  S S  S S E   E E E a     +E  +S  S E +Q
|-7----7-10p7----7-7-------------|---------------------------------|
|-------------10-----10p7-10p7---|---------------------------------|
|------------------------------9-|-7---7-9b11==(9)r(9)p7-----------|
|--------------------------------|---9-------------------9-(9)-----|
|--------------------------------|---------------------------------|
|--------------------------------|---------------------------------|



   ~~~~~~~~~~~~~~~~
  +W           +Q   Q   H       a      +Q.       S  S  E  E  E  E
|------------|---------------|-17b19==(17)r-----------16-15-14----|
|------------|---------------|---------------------15----------15-|
|------------|---------------|------------------15----------------|
|-(9)--------|-(9)-----------|------------------------------------|
|------------|---------------|------------------------------------|
|------------|---------------|------------------------------------|



                                  ~~~~
   E  E  E  a      +E   +E       +Q.
|-----------------------------------------|
|-14-------15b17==(15)r(15)b17==(15)------|
|----16-----------------------------------|
|-------17--------------------------------|
|-----------------------------------------|
|-----------------------------------------|


w/Rhy Fig 4 - 1st 2 bars
    ~~~~
   +H      +E    E Q     H     Q    E  S  S
|---------------------|---------------20-20-|
|-(15)----(15)r\------|-----------/23-------|
|---------------------|---------------------|
|---------------------|---------------------|
|---------------------|---------------------|
|---------------------|---------------------|



                                             |--3--|
   S  S  S  S  S  S  S  S  S  S  S  S  S  S  S  S  S
|-23-20-18-23-19-19-21-21-18-15-19-16-14-14-17-14-12-|
|----------------------------------------------------|
|----------------------------------------------------|
|----------------------------------------------------|
|----------------------------------------------------|
|----------------------------------------------------|
|
|              PM          PM---|            PM
|  E     E     E     E     E     E     E     E
|----------------------------------------------------|
|----------------------------------------------------|
|----------------------------------------------------|
|----------------------------------------------------|
|--5h====7-----------7-----------------7-------------|
|--------------0-----------0-----0-----------0-------|
|-Rhy Fig 5

   S  S  S  S  S  S S S  S S  S S  S S  S S
|-16-12-11-14-12s11-9s7-10p7----7-10p7------|
|----------------------------10--------10-7-|
|-------------------------------------------|
|-------------------------------------------|
|-------------------------------------------|
|-------------------------------------------|
|
|        PM---|          PM--|          PM
|  E     E     E    E    E    E    E    E
|-------------------------------------------|
|-------------------------------------------|
|-------------------------------------------|
|--5----------------------------------------|
|--5----------------7--------------7--------|
|--------0-----0---------0----0---------0---|


             PM                             ~~~
   S S E E E E E a     +E  +S  S   E E E E +Q    E E
|--------------------------------|---------------------|
|-10p7-------7-5-----------------|-5-------------------|
|------9-7-9-----9b11==(9)r(9)p7-|---7---7-(7)---------|
|--------------------------------|-----9---------------|
|--------------------------------|---------------------|
|--------------------------------|---------------5-5---|
|
|      PM|   PM|                   PM--|
|  E   E E E E E        Q          E E E E  E  E E E
|--------------------------------|---------------------|
|--------------------------------|---------------------|
|--------------------------------|---------------------|
|--4-----------------------------|---------------------|
|--4-------7------------7--------|-------3--2--0-------|
|------0-0---0-0-----------------|-3-2-0---------3-0---|
                                         end Rhy Fig 5-|

w/Rhy Fig 5 x2
  E  E  E E S S E S S E   E E a     +E  +S  S E E a    +S  +S  E
|-----------------------|----------------------------------------|
|-----------------------|----------------------------------------|
|-----------------------|-7-9-9b11==(9)r(9)p7-9-7-7b9==(7)r(7)---|
|---------7-9p7---7h9-9-|--------------------------------------9-|
|------/9-------9-------|----------------------------------------|
|-7-10------------------|----------------------------------------|



  E E a     +E   E  S S E E E
|------------------------------|
|----------------7-10p7--------|
|-7-9-9b11==(9)r--------9-7----|
|---------------------------9--|
|------------------------------|
|------------------------------|


               |---3----|
  E a     +E  +E  +E    E a     +Q       E  E
|---------------------------------------------|
|------------------------------------------12-|
|-7-9b11==(9)-(9)r(9)p==7-9b11==(9)r\---14----|
|---------------------------------------------|
|---------------------------------------------|
|---------------------------------------------|


  a      +E    E  S  S  S  S  a      +E    E  S  S  S  S
|--------------12--------------------------12-------------|
|-15b17==(15)r----15p12----12-15b17==(15)r----15p12-12-15-|
|-----------------------14--------------------------------|
|---------------------------------------------------------|
|---------------------------------------------------------|
|---------------------------------------------------------|



   a      +E    E  S  S  E  a      +E    E  E  E
|--------------12-----------------------12----12-|
|-15b17==(15)r----15p12-15-15b17==(15)r----15----|
|------------------------------------------------|
|------------------------------------------------|
|------------------------------------------------|
|------------------------------------------------|



                                                                     ~~      PM-
   |---3---|  |---3---|  |---3---|  |--3--|    |---3---|  |---3---|
   E  E    E  E  E    E  E  E    E  E  E  E    E  E    E  E  E    E  Q    E  E
|-15p12-------------------------------------|----------------------------------|
|---------15-12------12-15p12---------------|----------------------------------|
|---------------14--------------14-12----12-|-14p12----------------------------|
|-------------------------------------14----|---------14-12--------------------|
|-------------------------------------------|---------------14---12---------12-|
|-------------------------------------------|-----------------------15---15----|


w/Rhy Fig 4 - 1st 3 bars
 ------------------------------------------|
   |---3---|  |---3---|  |---3---|  |---3---|    |---3---|  |---3---|  |---3---|  |---3---|
   E  E    E  E  E    E  E  E    E  E  E    E    E  E    E  E  E    E  E  E    E  E  E    E
|---------------------------------------------|----------------------------------12------12---|
|---------------------------------------------|------------12------12-15-12---15----15--------|
|----------------------------------12------12-|-14-12---14----14------------------------------|
|------------12------12-14-12---14----14------|-----------------------------------------------|
|-14-12---14----14----------------------------|-----------------------------------------------|
|---------------------------------------------|-----------------------------------------------|


   |---3---|  |---3---|  |---3---|
   E  E    E  E  E    E  E  E    E  E  +E
|-15p12------------------------------------|
|---------15-12s11---12-15p12--------------|
|-------------------------------14-12-(12)s|
|------------------------------------------|
|------------------------------------------|
|------------------------------------------|



                                      6/4
  Q    Q   H         W                 W
|------------------|-----------------|-------||
|------------------|-----------------|-------||
|-x\---------------|-----------------|-------||
|------------------|-----------------|-------||
|------------------|-----------------|-------||
|------------------|-----------------|-------||
|
| PM---|       PM--------|       PM|
| E  E E E E E E E   E E E E E E E E   W.
|------------------|-----------------|-------||
|------------------|-----------------|-------||
|------------------|-----------------|-2-----||
|------------------|-----------------|-2-----||
|--------3-2-0-----|-------3-2-0-----|-0-----||
|-3--2-0-------3-2-|-3-2-0-------3-2-|-------||


   Re - Intro
    Q=140
   4/4
    Gtrs I, II play Riff A -> Rhy Fig 1 x4


    Verse
    Rhy Fig 2 x4


   Pre-Chorus
   Rhy Fig 3


   Chorus
   Rhy Fig 4 x4


   Outro
     E E E  E  E E E  E   E E E E E E E  E
||----------------------|------------------|
||o---------------------|------------------|
||--11-----11-10-----10-|-9-------------12-|
||--11-----11-10-----10-|-9-------------12-|
||o--9------9--8------8-|-7-------------10-|
||-----0-0-------0-0----|---0-0-0-0-0-0----|


                     1.,2.,3.
   E E E  E E E E E   E E E E E E E  E
|-------------------|--------------------||
|-------------------|-------------------o||
|-11-----11-7-----7-|-9-------------12---||
|-11-----11-7-----7-|-9-------------12---||
|--9------9-5-----5-|-7-------------10--o||
|----0-0------0-0---|---0-0-0-0-0-0------||


  4.                                    1.,2.,3.,4.,5.,6.,7.
    PM------|
  E E E E E E  Q       E E E E E E E E   E E E E E E E E
|------------------||------------------|------------------||
|------------------||o-----------------|-----------------o||
|-9----------------||------------------|------------------||
|-9----------------||------------------|------------------||
|-7----------------||o-----2-----5-----|-4-----5-----7-5-o||
|---0-0-0-0-0-12\--||--0-0-0-0-0-3-0-0-|-2-0-0-3-0-0-5-3--||


  8.
                                              E5     G5
 5/4                     4/4
                                          Gtr II
  W                       W                   E E E E Q  Q
                                              | | | | |
                                              / / / / /

                                          Gtr I
  E E E E E E E E E E     E E E E E E E E  3x E E E E Q  Q
|---------------------||-------------------||---------------*|
|---------------------||o-----------------o||---------------*|
|---------------------||--9-7---7----------||---------9-----*|
|---------------------||------9---9-8-7-5--||---------9-----*|
|-4-----5-----7s5-----||o-----------------o||-7-7-7-7-7-----*|
|-2-0-0-3-0-0-5s3-0-0-||-------------------||-0-0-0-0-0-----*|

10.Metal Militia

Tempo=168
                                Rhythm Fig.1

|------------|----------------||--------------------------------------------|
|------------|----------------||*-------------------------------------------|
|------------|----------------||--------------------------------------------|
|------------|----------------||--------------------------------------------|
|--------3/--|--8----8--7--5--||*-----------------------------------5----7--|
|--------1/--|--6----6--5--3--||---0--0--0--0--0--0--0--0--0--0--0--3----5--|

				  PM..............................]	     



|-------------------------------------------|-------------------------------------------|
|-------------------------------------------|-------------------------------------------|
|-------------------------------------------|-------------------------------------------|
|-------------------------------------------|-------------------------------------------|
|-----------------------------------8----7--|-----------------------------------5----7--|
|--0--0--0--0--0--0--0--0--0--0--0--6----5--|--0--0--0--0--0--0--0--0--0--0--0--3----5--|

  PM..............................]           PM..............................]



|-------------------------------------------|------------------------------------||
|-------------------------------------------|-----------------------------------*||
|-------------------------------------------|------------------------------------||
|-------------------------------------------|------------------------------------||
|-----------------------------------5----7--|--------------------------8--7--5--*||
|--0--0--0--0--0--0--0--0--0--0--0--3----5--|--3--3--3--3--3--3--3--3--6--5--3---||

  PM..............................]           PM.....................]


							 ___________________
 w/ Rhy.Fig.1(4 times) (4th time 1st 3 bars only)       | 1.2.3.            | 

||----------------|------------------|------------------|-------------------||
||*---------------|------------------|------------------|------------------*||
||----------------|------------------|------------------|-------------------||
||----------------|------------------|------------------|-------------------||
||*---------------|------------------|------------------|------------------*||
||----------------|------------------|------------------|-------------------||



 4.                                                                    

|--------------------------|--------------------|---------------|
|--------------------------|--------------------|---------------|
|--------------------------|--------------------|---------------|
|--------------------------|--------------------|---------------|
|--------------------------|--8--7--5--8--7--5--|--7--------12\-|
|--0--0--0--0--0--0--0--0--|--6--5--3--6--5--3--|--5------------|

  PM......................]


  Rhythm Fig. 2      play 3 times          end Rhy. Fig. 2                     play 3 times

||-------------------------------||-----------------------||-------------------------------||
||*-----------------------------*||-----------------------||*-----------------------------*||
||-------------------------------||-----------------------||-------------------------------||
||-----7-----5-----2-----1----0--||--8\3--5---------------||-----7-----5-----2-----1----0--||
||*-0-----0-----0-----0---------*||--6\1-----3---5--7--8--||*-0-----0-----0-----0---------*||
||-------------------------------||--------------3--5--6--||-------------------------------||


			   $
                           w/ Rhy. Fig. 2                                      

||-----------------------||-------------|------------|------------|-------------|
||-----------------------||*------------|------------|------------|------------*|
||-----------------------||-------------|------------|------------|-------------|
||--8\3----5-------------||-------------|------------|------------|-------------|
||--6\1----3----5--7--8--||*------------|------------|------------|------------*|
||--------------3--5--6--||-------------|------------|------------|-------------|
                                                                                


 w/ Rhy. Fig. 2

|---------|---------|---------|---------|---------|---------|---------|---------|--------|
|---------|---------|---------|---------|---------|---------|---------|---------|--------|
|---------|---------|---------|---------|---------|---------|---------|---------|--------|
|---------|---------|---------|---------|---------|---------|---------|---------|--------|
|---------|---------|---------|---------|---------|---------|---------|---------|--------|
|---------|---------|---------|---------|---------|---------|---------|---------|--------|
1. Thunder...       Senseless...         Victims...          Running...         Stabbing..

      

|---------|---------|---------|---------|---------|---------|---------|
|---------|---------|---------|---------|---------|---------|---------|
|---------|---------|---------|---------|---------|---------|---------|
|---------|---------|---------|---------|---------|---------|---------|
|---------|---------|---------|---------|---------|---------|---------|
|---------|---------|---------|---------|---------|---------|---------|
          Leaving...           Suicide...          Ripping...                


 Pre-Chorus                                                    

|-------------------|----------------|-----------|-------------|
|-------------------|----------------|-----------|-------------|
|-------------------|----------------|-----------|-------------|
|--7--7------7------|--5----3--2--2--|--7--------|--5----3--5--|
|--5--5------5------|--3----1--0--0--|--5--------|--3----1--3--|
|-------------------|----------------|-----------|-------------|
 Oh!

 Chorus
 Rhy. Fig. 3

|-------------------------------------------|-------------------------------------------|
|-------------------------------------------|-------------------------------------------|
|-------------------------------------------|-------------------------------------------|
|-----------------------------------3----7--|-----------------------------------8----7--|
|--0--0--0--0--0--0--0--0--0--0--0--1----5--|--0--0--0--0--0--0--0--0--0--0--0--6----5--|
|-------------------------------------------|-------------------------------------------|

  PM..............................]	      PM..............................]


							      3rd time to CODA 2
                                                                  end Rhy. Fig.3  

|-------------------------------------------|-----------------------------------|
|-------------------------------------------|-----------------------------------|
|-------------------------------------------|-----------------------------------|
|-----------------------------------3----7--|--------------------------8--7--5--|
|--0--0--0--0--0--0--0--0--0--0--0--1----5--|--0--0--0--0--0--0--0--0--6--5--3--|
|-------------------------------------------|-----------------------------------|

  PM..............................]           PM.....................]


                                       4th time to CODA 1  __________________
 w/ Rhy. Fig.3(3 times) (3rd time 1st 3 bars only)        | 1.2.             |

||------------------|------------------|------------------|------------------||
||*-----------------|------------------|------------------|-----------------*||
||------------------|------------------|------------------|------------------||
||------------------|------------------|------------------|------------------||
||*-----------------|------------------|------------------|-----------------*||
||------------------|------------------|------------------|------------------||


 Rhy. Fig. 4				        end Rhy. Fig.4
 3.                           

|--------------------------|--------------------|------------|
|--------------------------|--------------------|------------|
|--------------------------|--------------------|------------|
|--------------------------|--8--7--5--8--7--5--|--7---------|
|--0--0--0--0--0--0--0--0--|--6--5--3--6--5--3--|--5---------|
|--------------------------|--------------------|------------|

  PM.....................]


 CODA 1
 w/ Rhy. Fig.4
 
|-------------|-------------|------------|
|-------------|-------------|------------|
|-------------|-------------|------------|
|-------------|-------------|------------|
|-------------|-------------|------------|
|-------------|-------------|------------|


 Solo

|--------------------------------|----8---------------------8--------7--|
|---------12--------10--------9--|--8b9-------r8----b9----8b9-----------|
|-----10------8--9---------8-----|--------------------------------------|
|--9--------------------7--------|--------------------------------------|
|--------------------------------|--------------------------------------|
|--------------------------------|--------------------------------------|



|--10p7------7--10p7---------------------------------|
|--------10-----------10--7--7--7--10p7--------------|
|----------------------------------------9--7-----7--|
|----------------------------------------------9-----|
|----------------------------------------------------|
|----------------------------------------------------|



|---------------------------------------------|--------------------------------|
|---------------------------------------------|--------------------------------|
|--9--7-----7--9--7---------------------------|--------------------------------|
|--------9-----------9--7--9p7-----7--9p7-----|--------------------------------|
|-------------------------------9----------9--|--9\7--5----7--5-------5-~------|
|---------------------------------------------|------------------7-------------|







|--------------------------------------|------------------------10p7--------------------|
|--------------------------------------|----------------7--10p7------10--7------7--10p7-|
|---------------------------------7--9-|-9p7---7--9b11----------------------10----------|
|--------------X--7--9p7----7--9-------|-----9------------------------------------------|
|------5--5/9------------9-------------|------------------------------------------------|
|-5h7----------------------------------|------------------------------------------------|





|--10p7--------------------------------------------|
|--------10--7------7--10p7------------------------|
|---------------10-----------9--7-----{9}b11------r|
|----------------------------------9---------------|
|--------------------------------------------------|
|--------------------------------------------------|





|------------------------------------------7--|
|------------------------------------/7-------|
|--{9}b11----9b11----9b11-~------r9--/7-------|
|---------------------------------------------|
|---------------------------------------------|
|---------------------------------------------|



|--9--7--7--9--10--10--9--10--12--12--10--12--14--14--12--13--15--|
|-----------------------------------------------------------------|
|-----------------------------------------------------------------|
|-----------------------------------------------------------------|
|-----------------------------------------------------------------|
|-----------------------------------------------------------------|



|--15--14--14--15--17----16--17--19----17--19--20----19----|
|----------------------------------------------------------|
|----------------------------------------------------------|
|----------------------------------------------------------|
|----------------------------------------------------------|
|----------------------------------------------------------|





|--22b24----r--b24--22b24------22b25--|--22b25---r--19h22p19----19--19--|
|-------------------------------------|---------------------------------|
|-------------------------------------|---------------------------------|
|-------------------------------------|---------------------------------|
|-------------------------------------|---------------------------------|
|-------------------------------------|---------------------------------|




|--22p19------19--22p19-------------------------19h22p19----------|
|---------22-------------22--19------19--22p19------------22--19--|
|--------------------------------22-------------------------------|
|-----------------------------------------------------------------|
|-----------------------------------------------------------------|
|-----------------------------------------------------------------|



|-----------------19h22p19---------------------------------------|
|------19--22p19------------22--19--19--22p19---------19--22p19--|
|--22------------------------------------------21b23-------------|
|----------------------------------------------------------------|
|----------------------------------------------------------------|
|----------------------------------------------------------------|



|--------------------22p19\18---------------------------22p19\18---------|
|---------19--22p19------------22p19---------19--22p19------------22p19--|
|--21b23------------------------------21b23------------------------------|
|------------------------------------------------------------------------|
|------------------------------------------------------------------------|
|------------------------------------------------------------------------|





|-----------------------------------|-------------------------------------------------|
|---------19--22p19------19--22p19--|--22b24---22b24---22b24---22b24---22b24---22b24--|
|--21b23-------------21-------------|-------------------------------------------------|
|-----------------------------------|-------------------------------------------------|
|-----------------------------------|-------------------------------------------------|
|-----------------------------------|-------------------------------------------------|
 
 
 
|-------------------|
|--22b24-~----------|
|-------------------|
|-------------------|
|-------------------|
|-------------------|
 
 






 
 Interlude

|-----------|----------|--------------------------------------------------|
|-----------|----------|--------------------------------------------------|
|-----------|----------|--------------------------------------------------|
|--2--------|----------|--------------------------------------------------|
|--0--------|----------|--0--0--0--0--0--0--0--0--0--0--0--0--0--0--0--0--|
|-----------|----------|--------------------------------------------------|

			 PM.............................................]

                                                                     play 4 times

|--------------------------------------------------||-------------------------------||
|--------------------------------------------------||*-----------------------------*||
|--------------------------------------------------||-------------------------------||
|--------------------------------------------------||---8----3----5-----------------||
|--0--0--0--0--0--0--0--0--0--0--0--0--0--0--0--0--||*--6----1----3----5--5--7--3--*||
|--------------------------------------------------||------------------3--3--5--1---||

  PM.............................................]

                        play 4 times

||-----------------------------------||-----------------------------------||
||*---------------------------------*||*---------------------------------*||
||-----------------------------------||-----------------------------------||
||--------5----7------------4--------||--------6----8----3--3----5--------||
||*--3----3----5----7--7----2----5--*||*--4----4----6----1--1----3----6--*||
||---1--------------5--5---------3---||---2---------------------------4---||





||-------------------------------------||-------------------------------------------|
||*-----------------------------------*||-------------------------------------------|
||-------------------------------------||-------------------------------------------|
||----------7---------4--4----6--------||-------------------------------------------|
||*--5------5----2----2--2----4----7--*||--7--7----5--5-----------------------------|
||---3-----------0-----------------5---||------------------8--8----7--7----5--7--8--|



                                            D.S.al CODA 2 

|-------------------------------------------|-----------|
|-------------------------------------------|-----------|
|-------------------------------------------|-----------|
|-------------------------------------------|-----------|
|-------------------------------------------|--2--------|
|--8--8----7--7----5--5----3--3----2--3--5--|--0--------|





 CODA 2
 w/ Rhy. Fig. 3		      Repeat and fade

|----------|----------|----------|----------||
|*---------|----------|----------|---------*||
|----------|----------|----------|----------||
|----------|----------|----------|----------||
|*---------|----------|----------|---------*||
|----------|----------|----------|----------||
comments
print report bad tab
14 comments total. Showing first comments.
+1 reply
killemall_46n2 wrote on February 7 2006, 04:49 pm

must of been bored i give you mager credit though

0 reply
MyFuriousNipple wrote on May 6 2006, 09:51 pm

sweet jesus

+1 reply
METSOAD wrote on May 26 2006, 02:59 am

this rules

I want to post or [tab]
guest
You may want to rate the tab now too:
select rating
Please do not post tabs as comments. Select "correction" instead!