Oops, an error
Loading. Please wait.

Killem All Tab

ver3
ver3

Album

More versions @911Tabs.com
4,353 views 6 this week
no commentswrite comment
1 2 3 4 5
excellent!
x 2
Autoscroll
+/-
esc
set tempo
stop
Contributor
Difficulty
advanced
Hey! There's an official Ultimate Guitar app which is ideal
for learning songs when you're away from computer. Get the app
WARNING: You are trying to view
                                    content from Ultimate-Guitar.com
                                    in an unauthorized application,
                                    which is prohibited.

                                    Please use an official Ultimate
                                    Guitar Tabs application for iPhone,
                                    iPad or Android to access legitimate
                                    chords, guitar, bass, and drum tabs
                                    from Ultimate-Guitar.com database.

                                    Type "ultimate guitar tabs" in Apple
                                    App Store's or Android Market's
                                    search to find the application.
1.	Hit the lights 
E||------------------|----------------------|------------|------------------|
B||------------------|----------------------|------------|------------------|
G||------------------|----------------------|------------|------------------|
D||--2---------------|--2----2----2----2----|--2----2----|--2---------------|
A||--2---------------|--2----2----2----2----|--2----2----|--2---------------|
E||--0---------------|--0----0----0----0----|--0----0----|--0---------------|
//
|------------------|-----------------|------------------|
|------------------|-----------------|------------------|
|------------------|-----------------|------------------|
|------------------|-----------------|------------------|
|--4---------------|-----------------|--x\--------------|
|--2---------------|-----------------|--x\--------------|
//
|-----------------------------|-------------------------------|
|-----------------------------|-------------------------------|
|-----------------5--7-7---0--|-------------------------------|
|--5--------------5--7-7---0--|--5--------------7p5---5-------|
|--0--0-0-0-0-0-0-------------|--0--0-0-0-0-0-0-----7----6-7--|
|-----------------------------|-------------------------------|
\
|------------------------------|----------------------------|
|------------------------------|----------------------------|
|-----------------5--7-7--0-0--|--5-------------------7b----|
|--5--------------5--7-7--0-0--|--5-------------------------|
|--0--0-0-0-0-0-0--------------|-----0-0-0-0-0-0-6h7--------|
|------------------------------|----------------------------|

|-----------------------------|-------------------------------|
|-----------------------------|-------------------------------|
|-----------------5--7-7---0--|--5----------------------------|
|--5--------------5--7-7---0--|--5--------------7p5---5-------|
|--0--0-0-0-0-0-0-------------|-----0-0-0-0-0-0-----7----6-7--|
|-----------------------------|-------------------------------|

|------------------------------|----------------------------------|
|------------------------------|----------------------------------|
|-----------------5--7-7--0-0--|----------------------------------|
|--5--------------5--7-7--0-0--|--5-------------------------------|
|--0--0-0-0-0-0-0--------------|--0--0-0-0-0-0--------------------|
|------------------------------|----------------------------------|

|------------------------------|-------------------------------|
|------------------------------|-------------------------------|
|-----------------5--7-7--0-0--|-------------------------------|
|--5--------------5--7-7--0-0--|--5--------------7p5---5-------|
|--0--0-0-0-0-0-0--------------|--0--0-0-0-0-0-0-----7----6-7--|
|------------------------------|-------------------------------|

|------------------------------|-------------------------------|
|------------------------------|-------------------------------|
|-----------------5--7-7--0-0--|--5----------------------------|
|--5--------------5--7-7--0-0--|--5--------------7p5---5-------|
|--0--0-0-0-0-0-0--------------|-----0-0-0-0-0-0-----7----6-7--|
|------------------------------|-------------------------------|
Verses
|----------------------|-----------------------|------------------------------|
|----------------------|-----------------------|------------------------------|
|--7--7----------------|--7--7-----------------|-----------------5--7-7--0-0--|
|--7--7------5--5------|--7--7-----------------|--5--------------5--7-7--0-0--|
|--5--5------5--5------|--5--5------3---2------|--0--0-0-0-0-0-0--------------|
|------------3--3------|--------------------3--|------------------------------|
No life till leather...
|-------------------------------|------------------------------|
|-------------------------------|------------------------------|
|-------------------------------|-----------------5--7-7--0-0--|
|--5--------------7p5---5-------|--5--------------5--7-7--0-0--|
|--0--0-0-0-0-0-0-----7----6-7--|--0--0-0-0-0-0-0--------------|
|-------------------------------|------------------------------|


|-------------------------------|----------------------|-----------------------|
|-------------------------------|----------------------|-----------------------|
|--5----------------------------|--7--7----------------|--7--7-----------------|
|--5--------------7p5---5-------|--7--7------5--5------|--7--7-----------------|
|-----0-0-0-0-0-0-----7----6-7--|--5--5------5--5------|--5--5------3---2------|
|-------------------------------|------------3--3------|--------------------3--|

------------------------------|-------------------------------|
------------------------------|-------------------------------|
-----------------5--7-7--0-0--|-------------------------------|
--5--------------5--7-7--0-0--|--5--------------7p5---5-------|
--0--0-0-0-0-0-0--------------|--0--0-0-0-0-0-0-----7----6-7--|
------------------------------|-------------------------------|

|--------------------|--------------------------------|-----------------------|
|--------------------|--------------------------------|-----------------------|
|--------------------|--------------------------------|-----------------------|
|-----9--------------|--------------------------------|--2----2------2---2----|
|-----7--------------|-----------------3----2---------|--0----0------0---0----|
|--0-----------------|--3----2----3--------------3----|------------3----------|

|---------------------|-----------------------|---------------------|
|---------------------|-----------------------|---------------------|
|---------------------|-----------------------|---------------------|
|----2---2----5-------|--2----2------2---2----|----2---2----5-------|
|----0---0----3---5---|--0----0------0---0----|----0---0----3---5---|
|--3--------------3---|------------3----------|--3--------------3---|

|-----------------------|---------------------|-----------------------|
|-----------------------|---------------------|-----------------------|
|-----------------------|---------------------|-----------------------|
|--2----2------2---2----|----2---2----5-------|--2----2------2---2----|
|--0----0------0---0----|----0---0----3---5---|--0----0------0---0----|
|------------3----------|--3--------------3---|------------3----------|

|-----------------|------------------------------|
|-----------------|------------------------------|
|-----------------|-----------------5--7-7--0-0--|
|-----------------|--5--------------5--7-7--0-0--|
|-----------------|--0--0-0-0-0-0-0--------------|
|-----------------|------------------------------|

|-------------------------------|------------------------------|
|-------------------------------|------------------------------|
|-------------------------------|-----------------5--7-7--0-0--|
|--5--------------7p5---5-------|--5--------------5--7-7--0-0--|
|--0--0-0-0-0-0-0-----7----6-7--|--0--0-0-0-0-0-0--------------|
|-------------------------------|------------------------------|

|-------------------------------|----------------------|-----------------------|
|-------------------------------|----------------------|-----------------------|
|--5----------------------------|--7--7----------------|--7--7-----------------|
|--5--------------7p5---5-------|--7--7------5--5------|--7--7-----------------|
|-----0-0-0-0-0-0-----7----6-7--|--5--5------5--5------|--5--5------3---2------|
|-------------------------------|------------3--3------|--------------------3--|

|------------------------------|-------------------------------|
|------------------------------|-------------------------------|
|-----------------5--7-7--0-0--|-------------------------------|
|--5--------------5--7-7--0-0--|--5--------------7p5---5-------|
|--0--0-0-0-0-0-0--------------|--0--0-0-0-0-0-0-----7----6-7--|
|------------------------------|-------------------------------|

|------------------------------|-------------------------------|
|------------------------------|-------------------------------|
|-----------------5--7-7--0-0--|--5----------------------------|
|--5--------------5--7-7--0-0--|--5--------------7p5---5-------|
|--0--0-0-0-0-0-0--------------|-----0-0-0-0-0-0-----7----6-7--|
|------------------------------|-------------------------------|


|----------------------|-----------------------|------------------------------|
|----------------------|-----------------------|------------------------------|
|--7--7----------------|--7--7-----------------|-----------------5--7-7--0-0--|
|--7--7------5--5------|--7--7-----------------|--5--------------5--7-7--0-0--|
|--5--5------5--5------|--5--5------3---2------|--0--0-0-0-0-0-0--------------|
|------------3--3------|--------------------3--|------------------------------|

|-------------------------------|--------------------|
|-------------------------------|--------------------|
|-------------------------------|--------------------|
|--5--------------7p5---5-------|-----9--------------|
|--0--0-0-0-0-0-0-----7----6-7--|-----7--------------|
|-------------------------------|--0-----------------|

|--------------------------------|-----------------------|---------------------|
|--------------------------------|-----------------------|---------------------|
|--------------------------------|-----------------------|---------------------|
|--------------------------------|--2----2------2---2----|----2---2----5-------|
|-----------------3----2---------|--0----0------0---0----|----0---0----3---5---|
|--3----2----3--------------3----|------------3----------|--3--------------3---|

|-----------------------|---------------------|-----------------------|
|-----------------------|---------------------|-----------------------|
|-----------------------|---------------------|-----------------------|
|--2----2------2---2----|----2---2----5-------|--2----2------2---2----|
|--0----0------0---0----|----0---0----3---5---|--0----0------0---0----|
|------------3----------|--3--------------3---|------------3----------|

|---------------------|-----------------------|----------------|
|---------------------|-----------------------|----------------|
|---------------------|-----------------------|----------------|
|----2---2----5-------|--2----2------2---2----|----------------|
|----0---0----3---5---|--0----0------0---0----|----------------|
|--3--------------3---|------------3----------|----------------|

|------------------------------|-------------------------------|
|------------------------------|-------------------------------|
|-----------------5--7-7--0-0--|-------------------------------|
|--5--------------5--7-7--0-0--|--5--------------7p5---5-------|
|--0--0-0-0-0-0-0--------------|--0--0-0-0-0-0-0-----7----6-7--|
|------------------------------|-------------------------------|

|------------------------------|-------------------------------|
|------------------------------|-------------------------------|
|-----------------5--7-7--0-0--|--5----------------------------|
|--5--------------5--7-7--0-0--|--5--------------7p5---5-------|
|--0--0-0-0-0-0-0--------------|-----0-0-0-0-0-0-----7----6-7--|
|------------------------------|-------------------------------|

|----------------------|-----------------------|------------------------------|
|----------------------|-----------------------|------------------------------|
|--7--7----------------|--7--7-----------------|-----------------5--7-7--0-0--|
|--7--7------5--5------|--7--7-----------------|--5--------------5--7-7--0-0--|
|--5--5------5--5------|--5--5------3---2------|--0--0-0-0-0-0-0--------------|
|------------3--3------|--------------------3--|------------------------------|

|-------------------------------|------------------------------|
|-------------------------------|------------------------------|
|-------------------------------|-----------------5--7-7--0-0--|
|--5--------------7p5---5-------|--5--------------5--7-7--0-0--|
|--0--0-0-0-0-0-0-----7----6-7--|--0--0-0-0-0-0-0--------------|
|-------------------------------|------------------------------|

|-------------------------------|----------------------|-----------------------|
|-------------------------------|----------------------|-----------------------|
|--5----------------------------|--7--7----------------|--7--7-----------------|
|--5--------------7p5---5-------|--7--7------5--5------|--7--7-----------------|
|-----0-0-0-0-0-0-----7----6-7--|--5--5------5--5------|--5--5------3---2------|
|-------------------------------|------------3--3------|--------------------3--|


|------------------------------|-------------------------------|
|------------------------------|-------------------------------|
|-----------------5--7-7--0-0--|-------------------------------|
|--5--------------5--7-7--0-0--|--5--------------7p5---5-------|
|--0--0-0-0-0-0-0--------------|--0--0-0-0-0-0-0-----7----6-7--|
|------------------------------|-------------------------------|

|--------------------|--------------------------------|-----------------------|
|--------------------|--------------------------------|-----------------------|
|--------------------|--------------------------------|-----------------------|
|-----9--------------|--------------------------------|--2----2------2---2----|
|-----7--------------|-----------------3----2---------|--0----0------0---0----|
|--0-----------------|--3----2----3--------------3----|------------3----------|

|---------------------|-----------------------|---------------------|
|---------------------|-----------------------|---------------------|
|---------------------|-----------------------|---------------------|
|----2---2----5-------|--2----2------2---2----|----2---2----5-------|
|----0---0----3---5---|--0----0------0---0----|----0---0----3---5---|
|--3--------------3---|------------3----------|--3--------------3---|

|-----------------------|---------------------|-----------------------|
|-----------------------|---------------------|-----------------------|
|-----------------------|---------------------|-----------------------|
|--2----2------2---2----|----2---2----5-------|--2----2------2---2----|
|--0----0------0---0----|----0---0----3---5---|--0----0------0---0----|
|------------3----------|--3--------------3---|------------3----------|

|---------------------|--------------------||------------------------|
|---------------------|--------------------||------------------------|
|---------------------|-----------4--------||*------------------5----|
|----2---2----5-------|--2--------5--------||*--7---7---7---7---5----|
|----0---0----3---5---|--0--------5--------||---0---0---0---0--------|
|--3--------------3---|-----------3--------||------------------------|
3x
|-----------------------|-----------------------|-----------------------||
|-----------------------|-----------------------|-----------------------||
|------------------7----|------------------5----|----------------------*||
|--7---7---7---7---7----|--7---7---7---7---5----|--7---5---------------*||
|--0---0---0---0--------|--0---0---0---0--------|----------7--6--5------||
|-----------------------|-----------------------|-------------------8---||

|-----------------------|-----------------------|-----------------------|
|-----------------------|-----------------------|-----------------------|
|--4---4---4---4---7----|--4---4---4---4---9----|--4---4---4---4---7----|
|--4---4---4---4---7----|--4---4---4---4---9----|--4---4---4---4---7----|
|--2---2---2---2---5----|--2---2---2---2---7----|--2---2---2---2---5----|
|-----------------------|-----------------------|-----------------------|

|-----------------------|-----------------------|-----------------------|
|-----------------------|-----------------------|-----------------------|
|-----------------------|--4---4---4---4---7----|--4---4---4---4---9----|
|--9---7----------------|--4---4---4---4---7----|--4---4---4---4---9----|
|----------9--8--7------|--2---2---2---2---5----|--2---2---2---2---7----|
|-------------------10--|-----------------------|-----------------------|

|-----------------------|-----------------------|-----------------------|
|-----------------------|-----------------------|-----------------------|
|--4---4---4---4---7----|-----------------------|--4---4---4---4---7----|
|--4---4---4---4---7----|--9---7----------------|--4---4---4---4---7----|
|--2---2---2---2---5----|----------9--8--7------|--2---2---2---2---5----|
|-----------------------|-------------------10--|-----------------------|

|-----------------------|-----------------------|-----------------------|
|-----------------------|-----------------------|-----------------------|
|--4---4---4---4---9----|--4---4---4---4---7----|-----------------------|
|--4---4---4---4---9----|--4---4---4---4---7----|--9---7----------------|
|--2---2---2---2---7----|--2---2---2---2---5----|----------9--8--7------|
|-----------------------|-----------------------|-------------------10--|


|-----------------------|-----------------------|-----------------------|
|-----------------------|-----------------------|-----------------------|
|--4---4---4---4---7----|--4---4---4---4---9----|--4---4---4---4---7----|
|--4---4---4---4---7----|--4---4---4---4---9----|--4---4---4---4---7----|
|--2---2---2---2---5----|--2---2---2---2---7----|--2---2---2---2---5----|
|-----------------------|-----------------------|-----------------------|

|-----------------------|-----------------------|-----------------------|
|-----------------------|-----------------------|-----------------------|
|-----------------------|--4---4---4---4---7----|--4---4---4---4---9----|
|--9---7----------------|--4---4---4---4---7----|--4---4---4---4---9----|
|----------9--8--7------|--2---2---2---2---5----|--2---2---2---2---7----|
|-------------------10--|-----------------------|-----------------------|

|-----------------------|-----------------------|-----------------------|
|-----------------------|-----------------------|-----------------------|
|--4---4---4---4---7----|-----------------------|--4---4---4---4---7----|
|--4---4---4---4---7----|--9---7----------------|--4---4---4---4---7----|
|--2---2---2---2---5----|----------9--8--7------|--2---2---2---2---5----|
|-----------------------|-------------------10--|-----------------------|

|-----------------------|-----------------------|-----------------------|
|-----------------------|-----------------------|-----------------------|
|--4---4---4---4---9----|--4---4---4---4---7----|-----------------------|
|--4---4---4---4---9----|--4---4---4---4---7----|--9---7----------------|
|--2---2---2---2---7----|--2---2---2---2---5----|----------9--8--7------|
|-----------------------|-----------------------|-------------------10--|

|-----------------------|-----------------------|-----------------------|
|-----------------------|-----------------------|-----------------------|
|--4---4---4---4---7----|--4---4---4---4---9----|--4---4---4---4---7----|
|--4---4---4---4---7----|--4---4---4---4---9----|--4---4---4---4---7----|
|--2---2---2---2---5----|--2---2---2---2---7----|--2---2---2---2---5----|
|-----------------------|-----------------------|-----------------------|

|-----------------------|-----------------------|-----------------------|
|-----------------------|-----------------------|-----------------------|
|-----------------------|--4---4---4---4---7----|--4---4---4---4---9----|
|--9---7----------------|--4---4---4---4---7----|--4---4---4---4---9----|
|----------9--8--7------|--2---2---2---2---5----|--2---2---2---2---7----|
|-------------------10--|-----------------------|-----------------------|

|-----------------------|-----------------------|-----------------------|
|-----------------------|-----------------------|-----------------------|
|--4---4---4---4---7----|-----------------------|------------------5----|
|--4---4---4---4---7----|--9---7----------------|--7---7---7---7---5----|
|--2---2---2---2---5----|----------9--8--7------|--7---7---7---7---3----|
|-----------------------|-------------------10--|--5---5---5---5--------|

|-----------------------|-----------------------|----------------------|
|-----------------------|-----------------------|----------------------|
|------------------7----|------------------5----|----------------------|
|--7---7---7---7---7----|--7---7---7---7---5----|--7---5---------------|
|--7---7---7---7---5----|--7---7---7---7---3----|----------7--6--5-----|
|--5---5---5---5--------|--5---5---5---5--------|-------------------8--|

|-----------------------|-----------------------|-----------------------|
|-----------------------|-----------------------|-----------------------|
|------------------5----|------------------7----|------------------5----|
|--7---7---7---7---5----|--7---7---7---7---7----|--7---7---7---7---5----|
|--7---7---7---7---3----|--7---7---7---7---5----|--7---7---7---7---3----|
|--5---5---5---5--------|--5---5---5---5--------|--5---5---5---5--------|

|----------------------|----------------------|----------------------|
|----------------------|----------------------|----------------------|
|----------------------|----------------------|----------------------|
|--7---5---------------|--7---5---------------|--7---5---------------|
|----------7--6--5-----|----------7--6--5-----|----------7--6--5-----|
|-------------------8--|-------------------8--|-------------------8--|


|------------------------------------------------------------------|
|------------------------------------------------------------------|
|--2-2-2-2-2-2-2-2-2-2-2-2-2-2-2-2-2-2-2-2-2-2-2-2-2-2-2-2-2-2-2-2-|
|--2-2-2-2-2-2-2-2-2-2-2-2-2-2-2-2-2-2-2-2-2-2-2-2-2-2-2-2-2-2-2-2-|
|--0-0-0-0-0-0-0-0-0-0-0-0-0-0-0-0-0-0-0-0-0-0-0-0-0-0-0-0-0-0-0-0-|
|------------------------------------------------------------------|

|------------------------------------------------------------------|
|------------------------------------------------------------------|
|--2-2-2-2-2-2-2-2-2-2-2-2-2-2-2-2-2-2-2-2-2-2-2-2-2-2-2-2-2-2-2-2-|
|--2-2-2-2-2-2-2-2-2-2-2-2-2-2-2-2-2-2-2-2-2-2-2-2-2-2-2-2-2-2-2-2-|
|--0-0-0-0-0-0-0-0-0-0-0-0-0-0-0-0-0-0-0-0-0-0-0-0-0-0-0-0-0-0-0-0-|
|------------------------------------------------------------------|

|-----------------|----------------|-------------------||
|-----------------|----------------|-------------------||
|--2--------------|----------------|--2----2-----------||
|--2--------------|----------------|--2----2-----------||
|--0--------------|----------------|--0----0-----------||
|-----------------|----------------|-------------------||
Guitar 2:
First little solo:
|-----17----------------------17-------20p17-------|
|--------20p17----17-20p17-------20p17-------20-17-|
|--19b---------19b---------19b---------------------|
|--------------------------------------------------|
|--------------------------------------------------|
|--------------------------------------------------|

|--------------20p17-------------------------------|
|-----17-20p17-------20-17\16-17-20p17-------------|
|--19b---------------------------------19-17----17-|
|--------------------------------------------19----|
|--------------------------------------------------|
|--------------------------------------------------|

|--------------------------------------20b---|
|-----17-20p17----17-20p17----17-20p17-------|
|--19b---------19b---------19b---------------|
|--------------------------------------------|
|--------------------------------------------|
|--------------------------------------------|

|--20p17-17-17-20p17-------------------------|----------------|
|--------------------20-17----17-20p17-------|----------------|
|--------------------------19b---------19b---|----------------|
|--------------------------------------------|----------------|
|--------------------------------------------|----------------|
|--------------------------------------------|----------------|
Second little solo:
|------17-----17-----17------17------17--|
|--20b----20b----20b-----20b-----20b-----|
|----------------------------------------|
|----------------------------------------|
|----------------------------------------|
|----------------------------------------|

|-----17-----17------17------17-----17----17-|
|--------20b-----20b-----20b-----------20b---|
|--19b--------------------------19b----------|
|--------------------------------------------|
|--------------------------------------------|
|--------------------------------------------|

|--20p17----17-20p17-------------------------------|
|--------20----------20-17-17-17-20p17-19----------|
|--------------------------------------19-17----17-|
|--------------------------------------------19----|
|--------------------------------------------------|
|--------------------------------------------------|


|----------------------------------------|----------------|----------------|
|----------------------------------------|----------------|----------------|
|--19b17---------------------------------|----------------|----------------|
|--------19-17----17-19-17---------------|----------------|----------------|
|--------------19----------19--17--15----|----------------|----------------|
|----------------------------------------|----------------|----------------|
Main solo (w/ wah pedal)
|-----7--------7------------------------|--------------------------------------|
|------10p7------10p7---7-10p7---7-10p7-|----7-10p7---7-10p7---7-10p7---7-10p7-|
|--9b-------9b--------9b-------9b-------|--9b-------9b-------9b-------9b-------|
|---------------------------------------|--------------------------------------|
|---------------------------------------|--------------------------------------|
|---------------------------------------|--------------------------------------|

|--10p7-9p7---7-9p7-10p7-9p7---7-10p7-|-----------------7--7--7--|
|-----------9----------------9--------|--10b12----r10------------|
|-------------------------------------|--------------------------|
|-------------------------------------|--------------------------|
|-------------------------------------|--------------------------|
|-------------------------------------|--------------------------|

|--7-10p7----7-10p7-----------------------|-------------------------------|
|---------10--------10-7-7-7-10-7---------|-------------------------------|
|---------------------------------9-7-7-7-|--9p7--------------------------|
|-----------------------------------------|------9-7---7-9-7--------------|
|-----------------------------------------|----------9-------9-7-5--5-----|
|-----------------------------------------|----------------------------7--|

|---------------------------------|------------------------|
|---------------------------------|--------------------19--|
|-----------------------------7---|--9b--9b--9b-9b-21b-----|
|-------------7-7-9p7-7-7-7-9---9-|------------------------|
|------5--7/9---------------------|------------------------|
|--5h7----------------------------|------------------------|

|----------------------------------------------|
|-------19----19----19-22-19----19-22p19-24p19-|
|---21b----21b---21b---------21----------------|
|----------------------------------------------|
|----------------------------------------------|
|----------------------------------------------|

|--------------------------------------------------|
|--22-19----19-22p19-24p19-22-19----19-22p19-24p19-|
|--------21----------------------21----------------|
|--------------------------------------------------|
|--------------------------------------------------|
|--------------------------------------------------|

|--------------------------------------------------|
|--22-19----19-22p19-------------17----------------|
|--------21----------21-18\16-18----18-16-14-14-14-|
|--------------------------------------------------|
|--------------------------------------------------|
|--------------------------------------------------|

|------------------------------|--22r-------22b---21r-19----19-|
|--17---17---17--17~-17--17-14-|-------------------------22----|
|--16b--16b--16b-16b-16b-16-14-|-------------------------------|
|------------------------------|-------------------------------|
|------------------------------|-------------------------------|
|------------------------------|-------------------------------|

|--22p19-------------------------------------------|
|--------22-19----19-22p19-------------------------|
|--------------21b---------21-19----19-21p19-------|
|--------------------------------21----------21-19-|
|--------------------------------------------------|
|--------------------------------------------------|


|--------------------------------------------------|
|--------------------------------------------------|
|--------------------------------------------------|
|-----19-21p19-----------------------------19--21--|
|--21----------21-19-17-17-19-17-16-17/21----------|
|--------------------------------------------------|

|------------------19---14p12-|
|-----------------------------|
|--21b--21b--21b--------------|
|-----------------------------|
|-----------------------------|
|-----------------------------|

|--17p14--17p14p12-17p14p12-17p14p12-17p14p12-17p14p12-17p14p12--------| 
|---------------------------------------------------------------17p14--|
|----------------------------------------------------------------------|
|----------------------------------------------------------------------|
|----------------------------------------------------------------------|
|----------------------------------------------------------------------|

|--17p14-14-----17p14p12------17p14p12----0-17p14p12----0-|
|-----------x-0----------17-0----------17------------17---|
|---------------------------------------------------------|
|---------------------------------------------------------|
|---------------------------------------------------------|
|---------------------------------------------------------|

|--17p14p12----0-17p14p12----0-17p14-----14-17p14-------|
|-----------17------------17----------17----------17-14-|
|-------------------------------------------------------|
|-------------------------------------------------------|
|-------------------------------------------------------|
|-------------------------------------------------------|

|----------------------------|-----------------------|
|-----14-17--17b-17b-17r-----|----9b-----------------|
|--16b-----------------------|----9b-----7-------7-9b|
|----------------------------|-------------9---------|
|----------------------------|-----------------------|
|----------------------------|-----------------------|

|-----------------------------------|
|---7-10-7---7-10-7-----------------|
|----------9--------9-7-9-7---7~-9\-|
|---------------------------9-------|
|-----------------------------------|
|-----------------------------------|

|--------14-------17p14-------------------------------|
|--12/14----17p14-------17-14----14-17p14-------------|
|-----------------------------16b---------16-14-14-14-|
|-----------------------------------------------------|
|-----------------------------------------------------|
|-----------------------------------------------------|

|--------------------------|--22r-------22b---21r-19-19-19-|
|--------------------------|-------------------------------|
|--16b--16b--16b---16r-14--|-------------------------------|
|--------------------------|-------------------------------|
|--------------------------|-------------------------------|
|--------------------------|-------------------------------|

|--22p19-------------------------------------------|
|--------22-19----19-22p19-------------------------|
|--------------21b---------21-19-19-19-21p19-------|
|--------------------------------------------21-19-|
|--------------------------------------------------|
|--------------------------------------------------|


|--------------------------------------------------|
|--------------------------------------------------|
|--------------------------------------------------|
|-----19-21p19-------------------------------19-21-|
|--21----------21-19-17-17-19-17-16-17-19/21-------|
|--------------------------------------------------|

|--------------------------------------------|
|--------------------------------------------|
|--19-19-21p19-19-19-21p19-21-19----19/20----|
|--------------------------------21-18/19-21-|
|--------------------------------------------|
|--------------------------------------------|

|--------------------------------------------------|
|--15-15-12----13-16-13-14-17p14----15-18p15----16-|
|-----------13-------------------15----------16----|
|--------------------------------------------------|
|--------------------------------------------------|
|--------------------------------------------------|

|---------------------------------------------13-|
|--19p16----17-20p17----18-21p18----18-21~-15----|
|--------17----------18----------18--------------|
|------------------------------------------------|
|------------------------------------------------|
|------------------------------------------------|

|--17p14----15-19p16----16-20p17----18-21p18----19-|--22b--22b--22r-------|
|--------16----------18----------20----------20----|----------------------|
|--------------------------------------------------|----------------------|
|--------------------------------------------------|----------------------|
|--------------------------------------------------|----------------------|
|--------------------------------------------------|----------------------|

|--------------------------------------------------|
|---17-17-20p17-19p17-x-17-22p17-20p17----17\16-17-|
|--------------------------------------20----------|
|--------------------------------------------------|
|--------------------------------------------------|
|--------------------------------------------------|

|--------------------------------------------------|
|--22p17-20p17-19p17----17-22p17-20p17-19p17-17-17-|
|--------------------20----------------------------|
|--------------------------------------------------|
|--------------------------------------------------|
|--------------------------------------------------|

|--------------------------------------------------|--22b-------22b-----|
|--22p17-20p17-19p17----17-22p17-20p17-19p17-17-17-|--------------------|
|--------------------20----------------------------|--------------------|
|--------------------------------------------------|--------------------|
|--------------------------------------------------|--------------------|
|--------------------------------------------------|--------------------|

|--20p17-17-17-20p17-------------------------------|
|--------------------20-17-17-17-20p17-------------|
|--------------------------------------19-17----19-|
|--------------------------------------------19----|
|--------------------------------------------------|
|--------------------------------------------------|

|---------------------------------------------------|
|---------------------------------------------------|
|--17-17-17h19p17-----------------------------------|
|-----------------19-17----17-19p17-----------------|
|-----------------------19----------19-17-15--------|
|--------------------------------------------17-17b-|


|------------------------------------------------|
|---------------------------------------------17-|
|---------------------------------------17-19----|
|------------------17-17-19p17----17-19----------|
|--------15-17/19--------------19----------------|
|--15-17-----------------------------------------|

|-----------------------20p17----------------------------|
|--20-17\16-20p17-20p17-------20-17-17-17-17-20-17\16-17-|
|--------------------------------------------------------|
|--------------------------------------------------------|
|--------------------------------------------------------|
|--------------------------------------------------------|

|--------------------------------------------------|
|--20p17----------------------------------17-20p17-|
|--------19b17-17-17-19-17----17-19-17-19b---------|
|--------------------------19----------------------|
|--------------------------------------------------|
|--------------------------------------------------|

|--20p17----------------------------------------------|
|--------20-17-17-17-20p17-17-------------------------|
|-----------------------------19-17-17-17-19p17-17-17-|
|-----------------------------------------------------|
|-----------------------------------------------------|
|-----------------------------------------------------|

|--------------------------|--------------------------|------------------|
|--20----20----20----20----|--20----20----------------|--20--------------|
|--19b---19b---19b---19b---|--19b---19b---19b---19b---|--19b-------------|
|--------------------------|--------------------------|------------------|
|--------------------------|--------------------------|------------------|
|--------------------------|--------------------------|------------------|

|----------------|---------------------||
|----------------|--20----20-----------||
|----------------|--19b---19b----------||
|----------------|---------------------||
|----------------|---------------------||                                                
|----------------|---------------------|| 
2.	The four horsemen  
E|---------------------|-----------------------------------------|
B|---5---------7----5--|-----------------------------------------|
G|---5----5----7----5--|-----------------------------------------|
D|---5----5----7----5--|-----------------------------------------|
A|---3----5----5----3--|--7---5---7---5---7---5---7---5---7---5--|
E|--------3------------|--0-------0-------0-------0-------0------|

---------------------------|-----------------------------------|
---------------------------|-----------------------------------|
---------------------------|-----------------------------------|
---------------------------|-----------------------------------|
----7---5---7---5---5---5--|--7---5---7---5---7---5---7---5----|
----0-------0-------7------|--0-------0-------0-------0--------|
            E5          E5
|-----------------------------|---------------------------------|
|-----------------------------|---------------------------------|
|-----------------------------|---------------------------------|
|-----------------7P5---------|---------------------------------|
|-------5---7----------7P5----|--7---5---7---5---7---5---5---5--|
|---7-------------------------|--0-------0-------0-------7------|
                                    C   G5    D5   C5
---------------------------------|------------------------|
---------------------------------|------------------------|
---------------------------------|------------------------|
---------------------------------|--5---------7----5------|
--7---5---7---5---7---5---5---5--|--3----5----5----3------|
--0-------0-------0-------7------|-------3----------------|
Verse:
    E5                   D5       E5                  C5 D5
E|-----------------------------|----------------------------|
B|-----------------------------|----------------------------|
G|-----------------------------|----------------------------|
D|------9------9-----9---7--7--|------9-----9-----9---5--7--|
A|------7------7-----7---5--5--|------7-----7-----7---3--5--|
E|--000---000----000-----------|--000----000---000----------|
   E5                  G5  E5     C5   G5   D5   C5
|------------------------------|---------------------|
|------------------------------|---------------------|
|------------------------------|---------------------|
|------7-----7-----7---12--7---|--5---------7----5---|
|------9-----9-----9---10--9---|--3----5----5----3---|
|--000---000---000-------------|-------3-------------|
   E5                   D5       E5                  C5 D5
|-----------------------------|----------------------------|
|-----------------------------|----------------------------|
|-----------------------------|----------------------------|
|------9------9-----9---7--7--|------9-----9-----9---5--7--|
|------7------7-----7---5--5--|------7-----7-----7---3--5--|
|--000---000----000-----------|--000----000---000----------|
   By the last breath of the     Better raise your ears…
     fourth winds blow…
   E5                  G5  E5     C5   G5   D5   C5
|------------------------------|---------------------|
|------------------------------|---------------------|
|------------------------------|---------------------|
|------7-----7-----7---12--7---|--5---------7----5---|
|------9-----9-----9---10--9---|--3----5----5----3---|
|--000---000---000-------------|-------3-------------|
   The sound of hooves knocks at your door.
   E5                   D5       E5                  C5 D5
|-----------------------------|----------------------------|
|-----------------------------|----------------------------|
|-----------------------------|----------------------------|
|------9------9-----9---7--7--|------9-----9-----9---5--7--|
|------7------7-----7---5--5--|------7-----7-----7---3--5--|
|--000---000----000-----------|--000----000---000----------|
   Lock up your wife and         Its time to wield the
       children now…                      blade…
   E5                  G5  E5     C5   G5   D5   C5
|------------------------------|---------------------|
|------------------------------|---------------------|
|------------------------------|---------------------|
|------7-----7-----7---12--7---|--5---------7----5---|
|------9-----9-----9---10--9---|--3----5----5----3---|
|--000---000---000-------------|-------3-------------|
   For now you have got some  Company.
Chorus:       E5                       E5    D5
E|-----------------------------|------------------------------|
B|-----------------------------|------------------------------|
G|-----------------------------|------------------------------|
D|-------------9---------------|--------9-----7---------------|
A|-------------7---------------|--------7-----5---------------|
E|-----------------------------|------------------------------|
       The horsemen are                On the leather
        drawing nearer…               steeds they ride…
        D5     C5                      C5     B5
|------------------------------|------------------------------|
|------------------------------|------------------------------|
|------------------------------|------------------------------|
|--------7------5--------------|--------5------4--------------|
|--------5------3--------------|--------3------2--------------|
|------------------------------|------------------------------|






                 They have come to take your life.
              E5                     E5      D5
|-----------------------------|------------------------------|
|-----------------------------|------------------------------|
|-----------------------------|------------------------------|
|-------------9---------------|-------9------7---------------|
|-------------7---------------|-------7------5---------------|
|-----------------------------|------------------------------|
       On through the                  With the four
       dead of night…                  horsemen ride…
         D5     C5                  B5   C5    B5   G5
|------------------------------|------------------------------|
|------------------------------|------------------------------|
|------------------------------|------------------------------|
|--------7------5--------------|-----4----5----4--------------|
|--------5------3--------------|-----2----3----2----5---------|
|------------------------------|--------------------3---------|
                                  Or choose your fate and die.
Part:
|-----------------------------------------------------------------|
|-----------------------------------------------------------------|
|-----------------------------------------------------------------|
|-----------------------------------------------------------------|
|--7---5---7---5---7---5---7---5---7---5---7---5---7---5---5---5--|
|--0-------0-------0-------0-------0-------0-------0-------7------|
                                               E5         E5
|-----------------------------------|-----------------------------|
|-----------------------------------|-----------------------------|
|-----------------------------------|-----------------------------|
|-----------------------------------|-----------------7P5---------|
|--7---5---7---5---7---5---7---5----|-------5---7----------7P5----|
|--0-------0-------0-------0--------|---7-------------------------|
                                                    Oh! Yeah, Yeah!
|-----------------------------------------------------------------|
|-----------------------------------------------------------------|
|-----------------------------------------------------------------|
|-----------------------------------------------------------------|
|--7---5---7---5---7---5---5---5---7---5---7---5---7---5---5---5--|
|--0-------0-------0-------7-------0-------0-------0-------7------|
   C5   G5   D5   C5
|-----------------------|
|-----------------------|
|-----------------------|[2x. 2nd time without
|---5---------7----5----| the “Oh! Yeah, Yeah!”]
|---3----5----5----3----|
|--------3--------------|
Verse:
    E5                   D5       E5                  C5 D5
E|-----------------------------|----------------------------|
B|-----------------------------|----------------------------|
G|-----------------------------|----------------------------|
D|------9------9-----9---7--7--|------9-----9-----9---5--7--|
A|------7------7-----7---5--5--|------7-----7-----7---3--5--|
E|--000---000----000-----------|--000----000---000----------|
     You have been dying since              You know it has
      the day You were born          all been planned
E5                  G5  E5     C5   G5   D5   C5
|------------------------------|---------------------|
|------------------------------|---------------------|
|------------------------------|---------------------|
|------7-----7-----7---12--7---|--5---------7----5---|
|------9-----9-----9---10--9---|--3----5----5----3---|
|--000---000---000-------------|-------3-------------|








    The quartet of deliverance
             Rides
    E5                   D5       E5                  C5 D5
E|-----------------------------|----------------------------|
B|-----------------------------|----------------------------|
G|-----------------------------|----------------------------|
D|------9------9-----9---7--7--|------9-----9-----9---5--7--|
A|------7------7-----7---5--5--|------7-----7-----7---3--5--|
E|--000---000----000-----------|--000----000---000----------|
         A sinner once                No need for
         a sinner twice              confession now
  E5                  G5  E5     C5   G5   D5   C5
|------------------------------|---------------------|
|------------------------------|---------------------|
|------------------------------|---------------------|
|------7-----7-----7---12--7---|--5---------7----5---|
|------9-----9-----9---10--9---|--3----5----5----3---|
|--000---000---000-------------|-------3-------------|
   Cause now you have got
   The fight of your life
Chorus:       E5                       E5    D5
E|-----------------------------|------------------------------|
B|-----------------------------|------------------------------|
G|-----------------------------|------------------------------|
D|-------------9---------------|--------9-----7---------------|
A|-------------7---------------|--------7-----5---------------|
E|-----------------------------|------------------------------|
       The horsemen are                On the leather
        drawing nearer…               steeds they ride…
        D5     C5                      C5     B5
|------------------------------|------------------------------|
|------------------------------|------------------------------|
|------------------------------|------------------------------|
|--------7------5--------------|--------5------4--------------|
|--------5------3--------------|--------3------2--------------|
|------------------------------|------------------------------|
                 They have come to take your life.
              E5                     E5      D5
|-----------------------------|------------------------------|
|-----------------------------|------------------------------|
|-----------------------------|------------------------------|
|-------------9---------------|-------9------7---------------|
|-------------7---------------|-------7------5---------------|
|-----------------------------|------------------------------|
       On through the                  With the four
       dead of night…                  horsemen ride…
        D5     C5                  B5   C5    B5   G5
|------------------------------|------------------------------|
|------------------------------|------------------------------|
|------------------------------|------------------------------|
|--------7------5--------------|-----4----5----4--------------|
|--------5------3--------------|-----2----3----2----5---------|
|------------------------------|--------------------3---------|
                                  Or choose your fate and die.
Part:
|-----------------------------------------------------------------|
|-----------------------------------------------------------------|
|-----------------------------------------------------------------|
|-----------------------------------------------------------------|
|--7---5---7---5---7---5---7---5---7---5---7---5---7---5---5---5--|
|--0-------0-------0-------0-------0-------0-------0-------7------|
                                               E5         E5
|-----------------------------------|-----------------------------|
|-----------------------------------|-----------------------------|
|-----------------------------------|-----------------------------|
|-----------------------------------|-----------------7P5---------|
|--7---5---7---5---7---5---7---5----|-------5---7----------7P5----|
|--0-------0-------0-------0--------|---7-------------------------|



                                                    Oh! Yeah, Yeah!
|-----------------------------------------------------------------|
|-----------------------------------------------------------------|
|-----------------------------------------------------------------|
|-----------------------------------------------------------------|
|--7---5---7---5---7---5---5---5---7---5---7---5---7---5---5---5--|
|--0-------0-------0-------7-------0-------0-------0-------7------|
   C5   G5   D5   C5
|-----------------------|
|-----------------------|
|-----------------------|[2x. 2nd time without the “Oh! Yeah, Yeah!”
|---5---------7----5----|        and add an E5 at the end]
|---3----5----5----3----|
|--------3--------------|
Brige (1/5):
|---------------------------------|\
|---------------------------------|\ \
|---------------------------------|\  [6x]
|---------------------------------|\ /
|---------------------------------|\
|---0---0-0-0-0---0---0-0-0-0-----|\
                                           F5 E5   E5
|---------------------------------------------------------|
|---------------------------------------------------------|
|---------------------------------------------------------|
|--------------------------------------------10\9---9-----|
|---------------------------------------------8\7---7-----|
|--0---0-0-0-0---0---0-0-0-0---0---0-0-0-0----------------|
Bridge (2/5): [4x]                          F5 E5  E5
|---------------------------------------------------------|
|---------------------------------------------------------|
|---------------------------------------------------------|
|--------------------------------------------10\9---9-----|
|---------------------------------------------8\7---7-----|
|--0---0-0-0-0---0---0-0-0-0---0---0-0-0-0----------------|
                                             F5
|---------------------------------------------------------|
|---------------------------------------------------------|
|---------------------------------------------------------|
|--------------------------------------------10-----------|
|--------------------------------------------8------------|
|--0---0-0-0-0---0---0-0-0-0---0---0-0-0-0----------------|
Bridge (3/5):
|--------------------------------------------------|
|--------------------------------------------------|
|--------------------------------------------------|
|--------------------------------------------------|
|---7---5-------5----------------------------------|
|-----------7------7---6---5---3---5---0---3---5---|
                                  C5  C#5  D5
|------------------------------|---------------|
|------------------------------|---------------|
|------------------------------|---------------|
|------------------------------|---5---6---7---|
|---7---5-------5--------------|---3---4---5---|
|-----------7------7---6---5---|---------------|
Bridge (4/5): [8x]                           C5  C#5  D5
|---------------------------------------------------------|
|---------------------------------------------------------|
|---------------------------------------------------------|
|---------------------------------------------5---6---7---|
|------------------8---7---5---7--------------3---4---5---|
|---0---0---5---7-----------------0---0---0---------------|
Bridge (5/5):
                                            C5  C#5  D5
|---------------------------------------------------------|
|---------------------------------------------------------|
|---------------------------------------------------------|
|---------------------------------------------5---6---7---|
|---------------------------------------------3---4---6---|
|--0---0---0---0---0---0---0---0---0---0---0--------------|
             Time! Has taken its toll on you
                                             C5  C#5  D5
|---------------------------------------------------------|
|---------------------------------------------------------|
|---------------------------------------------------------|
|---------------------------------------------5---6---7---|
|---------------------------------------------3---4---6---|
|--0---0---0---0---0---0---0---0---0---0---0--------------|
                         The lines that crack your face
                                             C5  C#5  D5
|---------------------------------------------------------|
|---------------------------------------------------------|
|---------------------------------------------------------|
|---------------------------------------------5---6---7---|
|---------------------------------------------3---4---6---|
|--0---0---0---0---0---0---0---0---0---0---0--------------|
          Famine! Your body it has torn through
                                             C5  C#5  D5
|---------------------------------------------------------|
|---------------------------------------------------------|
|---------------------------------------------------------|
|---------------------------------------------5---6---7---|
|---------------------------------------------3---4---6---|
|--0---0---0---0---0---0---0---0---0---0---0--------------|
                                Withered in every place
                                             C5  C#5  D5
|---------------------------------------------------------|
|---------------------------------------------------------|
|---------------------------------------------------------|
|---------------------------------------------5---6---7---|
|---------------------------------------------3---4---6---|
|--0---0---0---0---0---0---0---0---0---0---0--------------|
      Pestilence! For what you have had to endure
                                            C5  C#5  D5
|---------------------------------------------------------|
|---------------------------------------------------------|
|---------------------------------------------------------|
|---------------------------------------------5---6---7---|
|---------------------------------------------3---4---6---|
|--0---0---0---0---0---0---0---0---0---0---0--------------|
        And what you have put others through
                                             C5  C#5  D5
|---------------------------------------------------------|
|---------------------------------------------------------|
|---------------------------------------------------------|
|---------------------------------------------5---6---7---|
|---------------------------------------------3---4---6---|
|--0---0---0---0---0---0---0---0---0---0---0--------------|
        Death! Deliverance for you for sure
                                             C5  C#5  D5
|---------------------------------------------------------|
|---------------------------------------------------------|
|---------------------------------------------------------|
|---------------------------------------------5---6---7---|
|---------------------------------------------3---4---6---|
|--0---0---0---0---0---0---0---0---0---0---0--------------|
              There is nothing you can do
|--------------------------------------------------|
|--------------------------------------------------|
|--------------------------------------------------|
|--------------------------------------------------|
|---7---5-------5----------------------------------|
|-----------7------7---6---5---3---5---0---3---5---|

|--------------------------------------------------|
|--------------------------------------------------|
|--------------------------------------------------|
|--------------------------------------------------|
|---7---5-------5----------------------------------|
|-----------7------7---6---5---3---5---0---3---5---|

Solo 1:
Guitar 1: [keeps playing this reff the whole solo]
 E5             Dsus2         Cmaj7            B7sus4
|----------------------------------------------------------------|
|----------------------------------------------------------------|
|----------4-------------2---------------4---------------2-------|
|--2---2-----2-------------2---------------2---------------2-----|
|--------------2---5---5-----5---3---3-------3---2---2-------2---|
|----------------------------------------------------------------|
Guitar 2:
(3:48)
|--------------------------------------15^^---12---15---14-|
|--15^^--15^^--15^^r---12---15---15^^----------------------|
|----------------------------------------------------------|
|----------------------------------------------------------|
|----------------------------------------------------------|
|----------------------------------------------------------|
(3:53)
|---7--------------9---7---------------10---9---7------------|
|------10---7-------------10---8---7---------------7^^r---5--|
|------------------------------------------------------------|
|------------------------------------------------------------|
|------------------------------------------------------------|
|------------------------------------------------------------|
                         (3:59)
------------------------|--------------------------------------|
------------------------|------12---12-------12-------12---12--|
--7---6---7---6---------|--9---11---11---9---11---9---11---11--|
------------------7-----|--------------------------------------|
----------------------7-|--------------------------------------|
------------------------|--------------------------------------|
           (4:02)
----------|--------------------------------------------------------|
-------12-|--------------------------------------------------------|
---9---11-|--14^^(14)---14\11--------------------------------------|
----------|----------------------14---12-----12---14^^(14)--12-----|
----------|-------------------------------14-------------------14--|
----------|--------------------------------------------------------|
(4:04)
|-------------------------------------------------------------------|
|----------------------------------------------------12---13\12-----|
|--11/12---11------11---12---11^r------11---12---14--------------14-|
|--------------14------------------14-------------------------------|
|-------------------------------------------------------------------|
|-------------------------------------------------------------------|
              (4:07)
------------|---------------------------------------20------------|
--12---13---|--13/15---15/17---17/19---19/20--20---------20-------|
------------|-----------------------------------------------------|
------------|-----------------------------------------------------|
------------|-----------------------------------------------------|
------------|-----------------------------------------------------|
 (4:09)
|--17^^---17^^---15---17p15---14---15p14\12---14p12----------------|
|----------------------------------------------------15---15---14--|
|------------------------------------------------------------------|
|------------------------------------------------------------------|
|------------------------------------------------------------------|
|------------------------------------------------------------------|

--------------------------------------------------------------------|
--12---14\12---10---12---10---8---10---8-------8--------------------|
-------------------------------------------9-------8---7----9---7---|
--------------------------------------------------------------------|
--------------------------------------------------------------------|
--------------------------------------------------------------------|





                                   (4:15)
----------------------------------|---------------------------------|
----------------------------------|---------------------------------|
----------------------------------|--------------7-------7---9---7--|
--9---7---------------------------|--9---7---9-------9--------------|
----------10---7------------------|---------------------------------|
-------------------10------7---7--|---------------------------------|

--------------------------------------------------------------12---|
------8-------8---10---8---10---12---10---12---15---12---15--------|
--9-------9--------------------------------------------------------|
-------------------------------------------------------------------|
-------------------------------------------------------------------|
-------------------------------------------------------------------|

-------12--|--15p12---12---12---15p12---12---12---12---15p12---12--|
--15-------|-------------------------------------------------------|
-----------|-------------------------------------------------------|
-----------|-------------------------------------------------------|
-----------|-------------------------------------------------------|
-----------|-------------------------------------------------------|


--12---12---12---12---12---12---15p12---12---12---12---12---12----|
------------------------------------------------------------------|
------------------------------------------------------------------|
------------------------------------------------------------------|
------------------------------------------------------------------|
------------------------------------------------------------------|
(4:20)
--15^^---15^^---15^^---15---12---15p12---15p12---15---12---12h15p12-|
--------------------------------------------------------------------|
--------------------------------------------------------------------|
--------------------------------------------------------------------|
--------------------------------------------------------------------|
--------------------------------------------------------------------|

-------12---15p12---12h15p12--------12---15p12---12h15p12--------12-|
--15---------------------------15---------------------------15------|
--------------------------------------------------------------------|
--------------------------------------------------------------------|
--------------------------------------------------------------------|
--------------------------------------------------------------------|

--15p12---12---15p12--------12---15p12---12h15p12--------12---15p12-|
-----------------------15---------------------------15--------------|
--------------------------------------------------------------------|
--------------------------------------------------------------------|
--------------------------------------------------------------------|
--------------------------------------------------------------------|
                   (4:24)
--15p12--------12---15^^---15^^---15^---15\-|-----------------------|
----------15--------------------------------|-----------------------|
--------------------------------------------|--12h14---12p11h12p11--|
--------------------------------------------|-----------------------|
--------------------------------------------|-----------------------|
--------------------------------------------|-----------------------|

--------------------------------------------|
--------------------------------------------|
-------11-----------------------------------|
--14--------14---12p11h12p11\9---11p9\7-----|
--------------------------------------------|
--------------------------------------------|
Guitar 1:
|---------------------------------|
|---------------------------------|
|---------------------------------|
|--4---5---4---5---4---5---4---5--|
|--2---3---2---3---2---3---2---3--|
|---------------------------------|
Guitar 2:
|----------------|
|----------------|
|----------------|
|----------------|
|----------------|
|--12\0---12\0---|
Bridge (1/2): [4x]                           F5 E5  E5
|---------------------------------------------------------|
|---------------------------------------------------------|
|---------------------------------------------------------|
|--------------------------------------------10\9---9-----|
|---------------------------------------------8\7---7-----|
|--0---0-0-0-0---0---0-0-0-0---0---0-0-0-0----------------|
                                             F5
|---------------------------------------------------------|
|---------------------------------------------------------|
|---------------------------------------------------------|
|--------------------------------------------10-----------|
|--------------------------------------------8------------|
|--0---0-0-0-0---0---0-0-0-0---0---0-0-0-0----------------|
Bridge (2/2):
|--------------------------------------------------|
|--------------------------------------------------|
|--------------------------------------------------|
|--------------------------------------------------|
|---7---5-------5----------------------------------|
|-----------7------7---6---5---3---5---0---3---5---|

|--------------------------------------------------|
|--------------------------------------------------|
|--------------------------------------------------|
|--------------------------------------------------|
|---7---5-------5----------------------------------|
|-----------7------7---6---5---3---5---0---3---5---|
Part: [ 2x: 1st time 1 guitar, 2nd time 2 guitars ]
|-----------------------------------------------------------------|
|-----------------------------------------------------------------|
|-----------------------------------------------------------------|
|-----------------------------------------------------------------|
|--7---5---7---5---7---5---7---5---7---5---7---5---7---5---5---5--|
|--0-------0-------0-------0-------0-------0-------0-------7------|
                                              E5         E5
|-----------------------------------|-----------------------------|
|-----------------------------------|-----------------------------|
|-----------------------------------|-----------------------------|
|-----------------------------------|-----------------7P5---------|
|--7---5---7---5---7---5---7---5----|-------5---7----------7P5----|
|--0-------0-------0-------0--------|---7-------------------------|

|-----------------------------------------------------------------|
|-----------------------------------------------------------------|
|-----------------------------------------------------------------|
|-----------------------------------------------------------------|
|--7---5---7---5---7---5---5---5---7---5---7---5---7---5---5---5--|
|--0-------0-------0-------7-------0-------0-------0-------7------|
   C5   G5   D5   C5
|-----------------------|
|-----------------------|
|-----------------------|
|---5---------7----5----|
|---3----5----5----3----|
|--------3--------------|
Verse:
       E5                   D5       E5              C5 D5
E|-----------------------------|----------------------------|
B|-----------------------------|----------------------------|
G|-----------------------------|----------------------------|
D|------9------9-----9---7--7--|------9-----9-----9---5--7--|
A|------7------7-----7---5--5--|------7-----7-----7---3--5--|
E|--000---000----000-----------|--000----000---000----------|
    So gather round young         And saddle up your steeds
        warriors now
  E5                  G5  E5     C5   G5   D5   C5
|------------------------------|---------------------|
|------------------------------|---------------------|
|------------------------------|---------------------|
|------7-----7-----7---12--7---|--5---------7----5---|
|------9-----9-----9---10--9---|--3----5----5----3---|
|--000---000---000-------------|-------3-------------|
        Killing scores
      with demon swords
              E5                   D5       E5                  C5 D5
E|-----------------------------|----------------------------|
B|-----------------------------|----------------------------|
G|-----------------------------|----------------------------|
D|------9------9-----9---7--7--|------9-----9-----9---5--7--|
A|------7------7-----7---5--5--|------7-----7-----7---3--5--|
E|--000---000----000-----------|--000----000---000----------|
       Now is the death             Swing the judgment
      of doers of wrong                 hammer down
      E5                  G5  E5     C5   G5   D5   C5
|------------------------------|---------------------|
|------------------------------|---------------------|
|------------------------------|---------------------|
|------7-----7-----7---12--7---|--5---------7----5---|
|------9-----9-----9---10--9---|--3----5----5----3---|
|--000---000---000-------------|-------3-------------|
     Safely inside armor
     blood guts and sweat
Chorus:        E5                       E5    D5
E|-----------------------------|------------------------------|
B|-----------------------------|------------------------------|
G|-----------------------------|------------------------------|
D|-------------9---------------|--------9-----7---------------|
A|-------------7---------------|--------7-----5---------------|
E|-----------------------------|------------------------------|
       The horsemen are                On the leather
        drawing nearer…               steeds they ride…
       D5     C5                      C5     B5
|------------------------------|------------------------------|
|------------------------------|------------------------------|
|------------------------------|------------------------------|
|--------7------5--------------|--------5------4--------------|
|--------5------3--------------|--------3------2--------------|
|------------------------------|------------------------------|
                 They have come to take your life.
             E5                     E5      D5
|-----------------------------|------------------------------|
|-----------------------------|------------------------------|
|-----------------------------|------------------------------|
|-------------9---------------|-------9------7---------------|
|-------------7---------------|-------7------5---------------|
|-----------------------------|------------------------------|
       On through the                  With the four
       dead of night…                  horsemen ride…
         D5     C5                  B5   C5    B5   G5
|------------------------------|------------------------------|
|------------------------------|------------------------------|
|------------------------------|------------------------------|
|--------7------5--------------|-----4----5----4--------------|
|--------5------3--------------|-----2----3----2----5---------|
|------------------------------|--------------------3---------|
                                  Or choose your fate and die.
Part:
|-----------------------------------------------------------------|
|-----------------------------------------------------------------|
|-----------------------------------------------------------------|
|-----------------------------------------------------------------|
|--7---5---7---5---7---5---7---5---7---5---7---5---7---5---5---5--|
|--0-------0-------0-------0-------0-------0-------0-------7------|

                                               E5         E5
|-----------------------------------|-----------------------------|
|-----------------------------------|-----------------------------|
|-----------------------------------|-----------------------------|
|-----------------------------------|-----------------7P5---------|
|--7---5---7---5---7---5---7---5----|-------5---7----------7P5----|
|--0-------0-------0-------0--------|---7-------------------------|
                                                    Oh! Yeah, Yeah!
|-----------------------------------------------------------------|
|-----------------------------------------------------------------|
|-----------------------------------------------------------------|
|-----------------------------------------------------------------|
|--7---5---7---5---7---5---5---5---7---5---7---5---7---5---5---5--|
|--0-------0-------0-------7-------0-------0-------0-------7------|
   C5   G5   D5   C5
|-----------------------|
|-----------------------|
|-----------------------|[2x. 2nd time without the “Oh! Yeah, Yeah!”
|---5---------7----5----|        and add an E5 at the end]
|---3----5----5----3----|
|--------3--------------|
Bridge (1/2): [4x]                           F5 E5  E5
|---------------------------------------------------------|
|---------------------------------------------------------|
|---------------------------------------------------------|
|--------------------------------------------10\9---9-----|
|---------------------------------------------8\7---7-----|
|--0---0-0-0-0---0---0-0-0-0---0---0-0-0-0----------------|
                                             F5
|---------------------------------------------------------|
|---------------------------------------------------------|
|---------------------------------------------------------|
|--------------------------------------------10-----------|
|--------------------------------------------8------------|
|--0---0-0-0-0---0---0-0-0-0---0---0-0-0-0----------------|
Solo 2:
Guitar 1: [keeps playing the Bridge]
Guitar 2:
(6:23)
|---------------------------------------------------------14---12-|
|------------------------------------------14--------14-----------|
|---------------------------14--------13--------12----------------|
|------------14--------13--------12-------------------------------|
|-------13--------12----------------------------------------------|
|--12-------------------------------------------------------------|

|--15p12---12---17p12---12---15p14---12---17p15---12---15p14---12--|
|------------------------------------------------------------------|
|------------------------------------------------------------------|
|------------------------------------------------------------------|
|------------------------------------------------------------------|
|------------------------------------------------------------------|

--17p15---12---15p14---12---17p15---12-|--15p14---12---17p15---12--|
---------------------------------------|---------------------------|
---------------------------------------|---------------------------|
---------------------------------------|---------------------------|
---------------------------------------|---------------------------|
---------------------------------------|---------------------------|
---------------------------------------|---------------------------|

--15p14---12---17p15---12---15p14---12---17p15---12---15p14---12--|
------------------------------------------------------------------|
------------------------------------------------------------------|
------------------------------------------------------------------|
------------------------------------------------------------------|
------------------------------------------------------------------|




               (6:30)
--17p15---12--|-----------------------------------------|---|
--------------|--15^^-----15^^------15^^---15^^---15^^--|---|
--------------|-----------------------------------------|---|
--------------|-----------------------------------------|---|
--------------|-----------------------------------------|---|
--------------|-----------------------------------------|---|

--12------------------12------------------12-----------------|
-------15p12---12----------15p12---12----------15p12---12----|
---------------14^^----------------14^^----------------14^^--|
-------------------------------------------------------------|
-------------------------------------------------------------|
-------------------------------------------------------------|

--12------------------12------------------12-----------------|
-------15p12---12----------15p12---12----------15p12---12----|
---------------14^^----------------14^^----------------14^^--|
-------------------------------------------------------------|
-------------------------------------------------------------|
-------------------------------------------------------------|
                                          (6:37)
--12------------------12------------------|--12---15p12-------|
-------15p12---12----------15p12---12-----|---------------15--|
---------------14^^----------------14^^---|-------------------|
------------------------------------------|-------------------|
------------------------------------------|-------------------|
------------------------------------------|-------------------|

--------------------------------------------------------------|
--12--------12---15p12----------------------------------------|
-------14----------------14---12--------12---14p12------------|
-----------------------------------14----------------14---12--|
--------------------------------------------------------------|
--------------------------------------------------------------|
                 (6:39)
----------------------|----------------------------------------|
----------------------|----------------------------------------|
----------------------|----------------------------------------|
----------------------|---------------7---9p7-------7---9---9--|
--14---12---10--------|-----------9-------------9--------------|
------------------12--|--7---10--------------------------------|
                        (6:41)
-----------------------|--19---19---19---22---19---19---19---19-|
-----------------------|----------------------------------------|
--7---9^^---9^^---9^^--|----------------------------------------|
-----------------------|----------------------------------------|
-----------------------|----------------------------------------|
-----------------------|----------------------------------------|

--19---19---19---22---19---19---19---19---19---19---19---19---|
--------------------------------------------------------------|
--------------------------------------------------------------|
--------------------------------------------------------------|
--------------------------------------------------------------|
--------------------------------------------------------------|

--22---19---19---19---19---19---19---19---22---19---19---19---|
--------------------------------------------------------------|
--------------------------------------------------------------|
--------------------------------------------------------------|
--------------------------------------------------------------|
--------------------------------------------------------------|

--19---19---19---19---22---19---19---19---19---19---19---19---|
--------------------------------------------------------------|
--------------------------------------------------------------|
--------------------------------------------------------------|
--------------------------------------------------------------|
--------------------------------------------------------------|

                                          (6:45)
--22---19---19---19---19---19---19---19--|--22^^-----22^^-----|
-----------------------------------------|--------------------|
-----------------------------------------|--------------------|
-----------------------------------------|--------------------|
-----------------------------------------|--------------------|
-----------------------------------------|--------------------|

--19---22p19--------19------------------------------------19--|
---------------22--------22---19---22p19--------19---22-------|
-------------------------------------------21-----------------|
--------------------------------------------------------------|
--------------------------------------------------------------|
--------------------------------------------------------------|

--22p19--------------------------------------------19---22p19--|
----------22---19\18---19---22p19--------18---22---------------|
------------------------------------21-------------------------|
---------------------------------------------------------------|
---------------------------------------------------------------|
---------------------------------------------------------------|
                                                (6:50)
----------------------------------------------|---------------|
--22---19\18---19---22p19---------------------|---------------|
----------------------------21---19--------19-|--21^---21^^---|
--------------------------------------21------|---------------|
----------------------------------------------|---------------|
----------------------------------------------|---------------|

------------12---15p12---14p12--------12---15p12---14p12---|
-------14------------------------14------------------------|
--21^------------------------------------------------------|
-----------------------------------------------------------|
-----------------------------------------------------------|
-----------------------------------------------------------|

-------12---15p12---14p12--------12---15p12---14p12---11---|
--14------------------------14-----------------------------|
-----------------------------------------------------------|
-----------------------------------------------------------|
-----------------------------------------------------------|
-----------------------------------------------------------|
 (6:53)
--15---19p12h15p12---19p15p12---19p15p12---19p15p12------|
---------------------------------------------------------|
---------------------------------------------------------|
---------------------------------------------------------|
---------------------------------------------------------|
---------------------------------------------------------|
                                             (6:55)
--19p15p12---19p15p12---19p15p12---19p15p12---17p14---0---|
----------------------------------------------------------|
----------------------------------------------------------|
----------------------------------------------------------|
----------------------------------------------------------|
----------------------------------------------------------|

--17p14---0---17p14---0---17p14---0---17p14---0---17p14---0--|
-------------------------------------------------------------|
-------------------------------------------------------------|
-------------------------------------------------------------|
-------------------------------------------------------------|
-------------------------------------------------------------|
                                     (6:58)
--17p14---0---17p14---0---22p19---0---22p19---0---22p19---0--|
-------------------------------------------------------------|
-------------------------------------------------------------|
-------------------------------------------------------------|
-------------------------------------------------------------|
-------------------------------------------------------------|

                (6:59)
--22p19---22--|--22^^---22^^---22^^---|
--------------|-----------------------|
--------------|-----------------------|
--------------|-----------------------|
--------------|-----------------------|
--------------|-----------------------|
Conclusion:
|-----------------------------------------------------------------|
|-----------------------------------------------------------------|
|-----------------------------------------------------------------|
|-----------------------------------------------------------------|
|--7---5---7---5---7---5---7---5---7---5---7---5---7---5---5---5--|
|--0-------0-------0-------0-------0-------0-------0-------7------|
                                               E5         E5
|-----------------------------------|-----------------------------|
|-----------------------------------|-----------------------------|
|-----------------------------------|-----------------------------|
|-----------------------------------|-----------------7P5---------|
|--7---5---7---5---7---5---7---5----|-------5---7----------7P5----|
|--0-------0-------0-------0--------|---7-------------------------|

|-----------------------------------------------------------------|
|-----------------------------------------------------------------|
|-----------------------------------------------------------------|
|-----------------------------------------------------------------|
|--7---5---7---5---7---5---5---5---7---5---7---5---7---5---5---5--|
|--0-------0-------0-------7-------0-------0-------0-------7------|
   C5   G5   D5   C5    E5
|---------------------------|
|---------------------------|
|---------------------------|
|---5---------7----5--------|
|---3----5----5----3-----2--|
|--------3---------------0--|
3.motorbreath 
P.M.          =======================================================
E--------------------------------------------------------------------
B--------------------------------------------------------------------
G--------------------------------------------------------------------
D--------------------------------------------------------------------
A--7---8---9---------------------------------------------------------
E--5---6---7--7-7-7--7-7-7--7-7-7-7-7-7-3--3-3-3--3-3-3--3-3-3-3-3-3-
=============================================================
E-------------------------------------------------------------
B-------------------------------------------------------------
G-------------------------------------------------------------Repeat
D-------------------------------------------------------------
A-------------------------------------------------------------
E--5--5-5-5--5-5-5--5-5-5-5-5-5-2--2-2-2--2-2-2--2-2-2-2-2-2--
Verse Riff
P.M.                     =======================================
E---------------------------------------------------------------
B---------------------------------------------------------------
G---------------------------------------------------------------
D---------------------------------------------------------------
A--9--9----7--9--9----7--5--5----4--5--5----4--7--7----5--7--7--
E--7--7----5--7--7----5--3--3----2--3--3----2--5--5----3--5--5--
=======================
E----------------------
B----------------------
G----------------------Repeat as nessecary
D----------------------then right before the chorus
A--5--4--4-------4--4--play this....
E--3--2--2----0--2--2--






E------------
B------------
G------------4 times
D------------
A--9--9----7-
E--7--7----5-
Chorus 
P.M.                        =====                                
E----------------------------------------------------------------
B----------------------------------------------------------------
G----------------------------------------------------------------Repeat
D------------------7--7---4--------------------------------------
A--9--9----5--5----5--5---2-4-4-4----5--5----2--2----4-4-4---4---
E--7--7----3--3-------------2-2-2----3--3----0--0----2-2-2-0-2---
Ryhthm break
P.M.   =     =     =     =       
E--------------------------------
B--------------------------------
G--------------------------------play 2 times
D--4p2---4p2---4p2---4p2---4---2-
A------2-----2-----2-----2-------
E--------------------------------
then play this 1 time
P.M    =     =     =     =        
E---------------------------------
B---------------------------------
G---------------------------------
D--4p2---4p2---4p2---4p2---4---2--
A------0-----0-----0-----0--------
E---------------------------------
then play this 1 time
P.M.   =     =     =     =       
E--------------------------------
B--------------------------------
G--------------------------------then repeat the whole rhythm break
D--4p2---4p2---4p2---4p2---4---2-
A------2-----2-----2-----2-------
E--------------------------------
Play the verse and the chorus and the rhythm break once more
then
E--------------------
B--------------------
G--------------------
D--4----------4---5--
A--2----------2---3--
E--------------------
Solo backing ryhthm (James)
P.M.  ===========     =              ===========            
E-----------------------------------------------------------
B-----------------------------------------------------------
G-----------------------------------------------------------
D--6--------------6p4---6----6p4-4h6-------------6p4--------
A--4--4-4-4-4-4-4-4---4-4----4---4---4-4-4-4-4-4-4---6---6--
E----------------------------------------------------4---4--
      ===========     =              ===========
E----------------------------------------------------------------------
B----------------------------------------------------------------------
G----------------------------------------------------------------------
D--6--------------6p4---6----6p4-4h6------------------------6-----6--5-
A--4--4-4-4-4-4-4-4---4-4----4---4---4-4-4-4-4-4-6---6---6--4-----4--3-
E------------------------------------------------4---4---4-------------
1st Guitar solo (Kirk)
  w/wah wah
E-----------------
B--12---------9-9-
G--11-------------
D-----------------
A-----------------
E-----------------


E-------------
B--12p9----9--
G-------11----4 times
D-------------
A-------------
E-------------

E-----9-------
B--12b--12p9--
G-------------4 times
D-------------
A-------------
E-------------

E----------------------------------------
B-----9-12p9-----------------------------
G--11b-------11-9----9-11p9--------------
D-----------------11--------11-9---------
A--------------------------------11-9\---
E----------------------------------------

E---------------------------------------
B---------------------------------------
G---------------------------------9-11--
D----------------9-9-11p9----9-11-------
A-------7-9-9/11----------11------------
E--/9-----------------------------------

E-------------------------------------------
B---------------------------------------16--
G--11p9----9-11p9----9-11p9----9-9\/18b(20)-
D-------11--------11--------11--------------
A-------------------------------------------
E-------------------------------------------

E------16-----16-----16-19p16---------------------------------------
B--19b----19b----19b----------19-16-16-16-19p16----16-19p16-19b(21)-
G-----------------------------------------------18------------------
D-------------------------------------------------------------------
A-------------------------------------------------------------------
E-------------------------------------------------------------------
Play verse and chorus riffs as nessecary then..
Guitar solo 2
E--12p9-------
B-------12p9--
G-------------
D------------- 8 times
A-------------
E-------------

E--12p9-12p9-11-8-8-10-7-7-9-6-6-8-5-5-7-4-4-4-4-4--
B---------------------------------------------------
G---------------------------------------------------
D---------------------------------------------------
A---------------------------------------------------
E---------------------------------------------------

E--4---4-7p4-----------------------------------------
B----7-------7-4-7-4------------4---4---4---6--4-----
G--------------------6-4b---4---4---4---4---6--4---4-
D------------------------/6---6---6---6---6------6---
A----------------------------------------------------
E----------------------------------------------------

E------------------------------------
B-----4-7p4--------------------------
G--6b-------4h6p4---4-6-4------------
D-----------------6-------6-4--------
A-----------------------------6---4--
E------------------------------------

E--------------------------------------------------------------
B--------------------------------------------------------------
G----------------------------4-6-6b--4-6p4---4-6p4---4\/9---11-
D--------------4-4-6p4---4-6-------6-------6-------6-----------
A------2-4/6-----------6---------------------------------------
E--/4----------------------------------------------------------

E------9-9------------9------------------9----------------9----------------
B----------12b---9-9----12b--12bvvv----9---12b-----9-9------12b--12bvv-12b-
G--11b------------------------------11b----------------11b-----------------
D--------------------------------------------------------------------------
A--------------------------------------------------------------------------
E--------------------------------------------------------------------------

E----------------9h12p9---------------------------------------------------
B--12p9-9-9-12p9--------12p9----9-12p9------------------------------------
G----------------------------12--------11-9-9-9-11p9----------------------
D----------------------------------------------------11-9-9-9-11-9--------
A------------------------------------------------------------------11-9b--
E-------------------------------------------------------------------------

E-----16-16---16-16---16-16--16-19p16----16-19p16-21p16---
B--19----19b-----19b-----19b----------19------------------
G---------------------------------------------------------
D---------------------------------------------------------
A---------------------------------------------------------
E---------------------------------------------------------

E--19p16----16-19p16-21p16-19p16----16-19p16-------
B--------19----------------------19----------19-16-
G--------------------------------------------------
D--------------------------------------------------
A--------------------------------------------------
E--------------------------------------------------

E------------16h19p16----------------19p16---------------19p16--16-19b-19b-19b-
B----16-19p16--------19-16---16-19p16-----19-16--16-19p16-----19---------------
G--18b--------------------18b------------------18b-----------------------------
D------------------------------------------------------------------------------
A------------------------------------------------------------------------------
E------------------------------------------------------------------------------
Very Ending Riff
E--------------------------------
B--------------------------------
G--------------------------------
D-----------4--4--4-----------6--
A--6--6--6--2--2--2--4--4--4--4--
E--4--4--4-----------2--2--2----- 
4.Jump in the fire
 Guitar 2
1|-----------------|----------------|----------------|----------------|
2|-----------------|----------------|----------------|----------------|
3|-----------------|----------------|----------------|x-5-----x-3-----|
4|---------3-------|--------3-------|--------3-------|x-5-----x-3-----|
5|-----3-4---5-4-3-|----3-4---5-4-3-|----3-4---5-4-3-|x-3-----x-1-----|
6|-3-6-------------|3-6-------------|3-6-------------|x-------x-------|
Guitar 1
1|-----------------|----------------|----------------|----------------|
2|-----------------|----------------|----------------|----------------|
3|-----------------|----------------|----------------|x-5-----x-3-----|
4|---------3-------|--------3-------|--------3-------|x-5-----x-3-----|
5|-----3-4---5-4-3-|----3-4---5-4-3-|----3-4---5-4-3-|x-3-----x-1-----|
6|-3-6-------------|3-6-------------|3-6-------------|x-------x-------|

1|-----------------|----------------|----------------|-----------------|
2|-----------------|----------------|----------------|-----------------|
3|-----------------|----------------|----------------|---5-------3-----|
4|---------3-------|--------3-------|3-------3-------|---5-------3-----|
5|-----3-4---5-4-3-|----3-4---5-4-3-|--5-4-3---5-4-3-|---3-------1-----|
6|-3-6-------------|3-6-------------|----------------|-----------------|

1|-----------------|----------------|----------------|-----------------|
2|-----------------|----------------|----------------|-----------------|
3|-----------------|----------------|----------------|---5-------3-----|
4|---------3-------|--------3-------|3-------3-------|---5-------3-----|
5|-----3-4---5-4-3-|----3-4---5-4-3-|--5-4-3---5-4-3-|---3-------1-----|
6|-3-6-------------|3-6-------------|----------------|-----------------|

1|-----------------|----------------|----------------|------------------|
2|-----------------|----------------|----------------|------------------|
3|-----------------|----------------|----------------|------------------|
4|---------3-------|--------3-------|3-h5-3---3------|-----------3-5----|
5|-----3-4---5-4-3-|----3-4---5-4-3-|-------5---5-4-3|-----3-4-5--------|
6|-3-6-------------|3-6-------------|----------------|-3-6--------------|

1|-----------------|----------------|----------------|------------------|
2|-----------------|----------------|----------------|------------------|
3|-----------------|----------------|----------------|------------------|
4|---------3-------|--------3-------|3-h5-3---3------|-----------3-5----|
5|-----3-4---5-4-3-|----3-4---5-4-3-|-------5---5-4-3|-----3-4-5--------|
6|-3-6-------------|3-6-------------|----------------|-3-6--------------|

1|-----------------|----------------|----------------|
2|-----------------|----------------|----------------|
3|-----------------|----------------|----------------|
4|---------3-------|--------3-------|3-------3-------|
5|-----3-4---5-4-3-|----3-4---5-4-3-|--5-4-3---5-4-3-|
6|-3-6-------------|3-6-------------|----------------|

1|-----------------|----------------|----------------|
2|-----------------|----------------|----------------|
3|-----------------|----------------|----------------|
4|---------3-------|--------3-------|3-------3-------|
5|-----3-4---5-4-3-|----3-4---5-4-3-|--5-4-3---5-4-3-|
6|-3-6-------------|3-6-------------|----------------|

1|--------------------|-----------------|--------------|
2|--------------------|-----------------|--------------|
3|----5-------3-------|------------3----|--------------|
4|----5-------3-------|------------3----|--3---3---3---|
5|----3-------1-------|------------1----|--3---3---3---|
6|--------------------|1-3-3-1-3-0------|--1---1---1---|

1|-------------------|-----------------|--------------|
2|-------------------|-----------------|--------------|
3|---5-------3-------|------------3----|--------------|
4|---5-------3-------|------------3----|--3---3---3---|
5|---3-------1-------|------------1----|--3---3---3---|
6|-------------------|1-3-3-1-3-0------|--1---1---1---|

1|-------------------|------------------|----------------|
2|-------------------|------------------|----------------|
3|-------------5-----|x-x-x-6-----------|------3---------|
4|-------------5-----|x-x-x-6-----------|------3------3--|
5|-------------3-----|x-x-x-4-----------|------1------3--|
6|-1-3-3-1-3-0-------|------------1-3-3-|1-3-0--------1--|

1|-------------------|------------------|----------------|
2|-------------------|------------------|----------------|
3|-------------5-----|x-x-x-6-----------|------3---------|
4|-------------5-----|x-x-x-6-----------|------3------3--|
5|-------------3-----|x-x-x-4-----------|------1------3--|
6|-1-3-3-1-3-0-------|------------1-3-3-|1-3-0--------1--|
                                                        Verse 1
1|-----------------------|-------------------|---------|----------|
2|-----------------------|-------------------|---------|----------|
3|-----------------------|-------5------x-x-x|---6-----|----------|
4|-3---3-----------------|-------5------x-x-x|---6-----|----------|
5|-3---3-----------------|-------3------x-x-x|---4-----|----------|
6|-1---1------1-3---3---1|-3---0-------------|---------|-1-3-3-1-3|


1|----------3------------|-------------------|---------|----------|
2|------------6-3---3-6-3|-----3-6-3---------|-6b8-----|----------|
3|------5b7-------5------|---5-------5-3---3-|---------|----------|
4|-----------------------|---------------5---|---------|----------|
5|-----------------------|-------------------|---------|----------|
6|-----------------------|-------------------|---------|-1-3-3-1-3|

1|----------------|----------------|----------------|
2|----------------|----------------|----------------|
3|---3------------|----------------|--5-----x-x-x-6-|
4|---3------3---3-|--3-------------|--5-----x-x-x-6-|
5|---1------3---3-|--3-------------|--3-----x-x-x-4-|
6|-0--------1---1-|--1---1-3-3-1-3-|0---------------|

1|----------------|----------------|----------------|
2|----------------|----------------|----------------|
3|---3------2---2-|--2-------------|--5-----x-x-x-6-|
4|---3------3---3-|--3-------------|--5-----x-x-x-6-|
5|---1------3---3-|--3-------------|--3-----x-x-x-4-|
6|-0--------1---1-|--1---1-3-3-1-3-|0---------------|

1|------------|----------------|----------------|-------------------|
2|------------|----------------|----------------|-------------------|
3|------------|-3--------------|----------------|5-----------6---6-x|
4|------------|-3------3---3---|3---------------|5-----------6---6-x|
5|------------|-1------3---3---|3---------------|3-----------4---4-x|
6|-1-3-3-1-3-0|--------1---1---|1---1-3-3-1-3-0-|-------------------|

1|------------|----------------|----------------|-------------------|
2|------------|----------------|----------------|-------------------|
3|------------|-3--------------|----------------|5-----------6---6-x|
4|------------|-3------3---3---|3---------------|5-----------6---6-x|
5|------------|-1------3---3---|3---------------|3-----------4---4-x|
6|-1-3-3-1-3-0|--------1---1---|1---1-3-3-1-3-0-|-------------------|


Coro (chorus)
1|-----------------|----------------|----------------|----------------|
2|-----------------|----------------|----------------|----------------|
3|-----------------|----------------|----------------|--5-------3-----|
4|---------3-------|--------3-------|--------3-------|--5-------3-----|
5|-----3-4---5-4-3-|----3-4---5-4-3-|----3-4---5-4-3-|--3-------1-----|
6|-3-6-------------|3-6-------------|3-6-------------|----------------|

1|-----------------|----------------|----------------|----------------|
2|-----------------|----------------|----------------|----------------|
3|-----------------|----------------|----------------|--5-------3-----|
4|---------3-------|--------3-------|--------3-------|--5-------3-----|
5|-----3-4---5-4-3-|----3-4---5-4-3-|----3-4---5-4-3-|--3-------1-----|
6|-3-6-------------|3-6-------------|3-6-------------|----------------|

1|-----------------|----------------|----------------|----------------|
2|-----------------|----------------|----------------|----------------|
3|-----------------|----------------|----------------|---5-------3----|
4|---------3-------|--------3-------|3-------3-------|---5-------3----|
5|-----3-4---5-4-3-|----3-4---5-4-3-|--5-4-3---5-4-3-|---3-------1----|
6|-3-6-------------|3-6-------------|----------------|----------------|

1|-----------------|----------------|----------------|----------------|
2|-----------------|----------------|----------------|----------------|
3|-----------------|----------------|----------------|---5-------3----|
4|---------3-------|--------3-------|3-------3-------|---5-------3----|
5|-----3-4---5-4-3-|----3-4---5-4-3-|--5-4-3---5-4-3-|---3-------1----|
6|-3-6-------------|3-6-------------|----------------|----------------|

1|----------------|----------------|-------------------|
2|----------------|----------------|-------------------|
3|----------------|----------------|-------------------|
4|---------3------|---------3------|-3-h5-3---3--------|
5|-----3-4---5-4-3|-----3-4---5-4-3|--------5---5-4-3--|
6|-3-6------------|-3-6------------|------------------3|

1|----------------|----------------|-------------------|
2|----------------|----------------|-------------------|
3|----------------|----------------|-------------------|
4|---------3------|---------3------|-3-h5-3---3--------|
5|-----3-4---5-4-3|-----3-4---5-4-3|--------5---5-4-3--|
6|-3-6------------|-3-6------------|------------------3|

1|----------------|----------------|----------------|----------------|
2|----------------|----------------|----------------|----------------|
3|----------------|----------------|----------------|----------------|
4|---------3-5----|--------3-------|--------3-------|3-------3-------|
5|---3-4-5--------|----3-4---5-4-3-|----3-4---5-4-3-|--5-4-3---5-4-3-|
6|-6--------------|3-6-------------|3-6-------------|----------------|

1|----------------|----------------|----------------|----------------|
2|----------------|----------------|----------------|----------------|
3|----------------|----------------|----------------|----------------|
4|---------3-5----|--------3-------|--------3-------|3-------3-------|
5|---3-4-5--------|----3-4---5-4-3-|----3-4---5-4-3-|--5-4-3---5-4-3-|
6|-6--------------|3-6-------------|3-6-------------|----------------|

1|----------------|-----------------|----------------|----------------|
2|----------------|-----------------|----------------|----------------|
3|---5-------3----|-------------3---|----------------|-----------5----|
4|---5-------3----|-------------3---|---3---3---3----|-----------5----|
5|---3-------1----|-------------1---|---3---3---3----|-----------3----|
6|----------------|-1-3-3-1-3-0-----|---1---1---1---1|-3-3-1-3-0------|

1|----------------|-----------------|----------------|----------------|
2|----------------|-----------------|----------------|----------------|
3|---5-------3----|-------------3---|----------------|-----------5----|
4|---5-------3----|-------------3---|---3---3---3----|-----------5----|
5|---3-------1----|-------------1---|---3---3---3----|-----------3----|
6|----------------|-1-3-3-1-3-0-----|---1---1---1---1|-3-3-1-3-0------|
1|--------------|-------------------|----------------|----------------|
2|--------------|-------------------|----------------|----------------|
3|-x-x-x-6------|-------------3-----|----------------|---------5------|
4|-x-x-x-6------|-------------3-----|-3---3---3------|---------5------|
5|-x-x-x-4------|-------------1-----|-3---3---3------|---------3------|
6|--------------|-1-3-3-1-3-0-------|-1---1---1---1-3|-3-1-3-0--------|

1|--------------|-------------------|----------------|----------------|
2|--------------|-------------------|----------------|----------------|
3|-x-x-x-6------|-------------3-----|----------------|---------5------|
4|-x-x-x-6------|-------------3-----|-3---3---3------|---------5------|
5|-x-x-x-4------|-------------1-----|-3---3---3------|---------3------|
6|--------------|-1-3-3-1-3-0-------|-1---1---1---1-3|-3-1-3-0--------|

1|------------|---------------------|----------------|----------------|
2|------------|---------------------|----------------|----------------|
3|-----6---6-x|---------------------|----------------|--------------5-|
4|-----6---6-x|---------3-----------|----3-----------|----3---------5-|
5|-----4---4-x|-----3-4---5-4-3-----|3-4---5-4-3-----|3-4---5-4-3---3-|
6|------------|-3-6-------------3-6-|------------3-6-|----------------|

1|------------|---------------------|----------------|----------------|
2|------------|---------------------|----------------|----------------|
3|-----6---6-x|---------------------|----------------|--------------5-|
4|-----6---6-x|---------3-----------|----3-----------|----3---------5-|
5|-----4---4-x|-----3-4---5-4-3-----|3-4---5-4-3-----|3-4---5-4-3---3-|
6|------------|-3-6-------------3-6-|------------3-6-|----------------|

1|----------------|----------------|----------------|----------------|
2|----------------|----------------|----------------|----------------|
3|------3---------|----------------|----------------|---------------5|
4|------3---------|----3-----------|----3-------3---|----3----------5|
5|------1---------|3-4---5-4-3-----|3-4---5-4-3---5-|4-3---5-4-3----3|
6|------------3-6-|------------3-6-|----------------|----------------|


1|----------------|----------------|----------------|----------------|
2|----------------|----------------|----------------|----------------|
3|------3---------|----------------|----------------|---------------5|
4|------3---------|----3-----------|----3-------3---|----3----------5|
5|------1---------|3-4---5-4-3-----|3-4---5-4-3---5-|4-3---5-4-3----3|
6|------------3-6-|------------3-6-|----------------|----------------|                         

1|----------------|----------------|-------------------|
2|----------------|----------------|-------------------|
3|-------3--------|----------------|-------------------|
4|-------3--------|-----3----------|-----3-------3-h5-3|
5|-------1--------|-3-4---5-4-3----|-3-4---5-4-3-------|
6|-------------3-6|-------------3-6|-------------------|

1|----------------|----------------|-------------------|
2|----------------|----------------|-------------------|
3|-------3--------|----------------|-------------------|
4|-------3--------|-----3----------|-----3-------3-h5-3|
5|-------1--------|-3-4---5-4-3----|-3-4---5-4-3-------|
6|-------------3-6|-------------3-6|-------------------|

1|----------------|----------------|----------------|----------------|
2|----------------|----------------|----------------|----------------|
3|----------------|----------------|----------------|----------------|
4|---3------------|-----3-5--------|----3-----------|----3-------3---|
5|-5---5-4-3-----3|-4-5------------|3-4---5-4-3-----|3-4---5-4-3---5-|
6|-----------3-6--|------------3-6-|------------3-6-|----------------|

1|----------------|----------------|----------------|----------------|
2|----------------|----------------|----------------|----------------|
3|----------------|----------------|----------------|----------------|
4|---3------------|-----3-5--------|----3-----------|----3-------3---|
5|-5---5-4-3-----3|-4-5------------|3-4---5-4-3-----|3-4---5-4-3---5-|
6|-----------3-6--|------------3-6-|------------3-6-|----------------|
                                    Pre-solo
1|-----------------|---------------||------------------|----------------|
2|-----------------|---------------||------------------|----------------|
3|----------------5|-------3-------||------------------|----------------|
4|-----3----------5|-------3-------||-8-8-8-8-8-x-8-8-8|-8-8-x-6-x-8-x-5|
5|-4-3---5-4-3----3|-------1-------||-8-8-8-8-8-x-8-8-8|-8-8-x-6-x-8-x-5|
6|-----------------|---------------||-6-6-6-6-6-x-6-6-6|-6-6-x-4-x-6-x-3|

1|-----------------|---------------|------------------|----------------|
2|-----------------|---------------|------------------|----------------|
3|----------------5|-------3-------|------------------|----------------|
4|-----3----------5|-------3-------|-8-8-8-8-8-x-8-8-8|-8-8-x-6-x-8-x-5|
5|-4-3---5-4-3----3|-------1-------|-8-8-8-8-8-x-8-8-8|-8-8-x-6-x-8-x-5|
6|-----------------|---------------|-6-6-6-6-6-x-6-6-6|-6-6-x-4-x-6-x-3|

1|----------------|---------------|-----------------|----------------|
2|----------------|---------------|-----------------|----------------|
3|----------------|---------------|-----------------|----------------|
4|-5-5-5-5-x-5-5-5|-5-5-x-3-x-5---|-8-8-8-8-8---8-8-|8-8-8---6---8---|
5|-5-5-5-5-x-5-5-5|-5-5-x-3-x-5---|-8-8-8-8-8---8-8-|8-8-8---6---8---|
6|-3-3-3-3-x-3-3-3|-3-3-x-1-x-3---|-6-6-6-6-6---6-6-|6-6-6---4---6---|


1|----------------|---------------|-----------------|----------------|
2|----------------|---------------|-----------------|----------------|
3|----------------|---------------|-----------------|----------------|
4|-5-5-5-5-x-5-5-5|-5-5-x-3-x-5---|-8-8-8-8-8-8-8-8-|8-8-8-8-8-8-8---|
5|-5-5-5-5-x-5-5-5|-5-5-x-3-x-5---|-8-8-8-8-8-8-8-8-|8-8-8-8-8-8-8---|
6|-3-3-3-3-x-3-3-3|-3-3-x-1-x-3---|-6-6-6-6-6-6-6-6-|6-6-6-6-6-6-6---|

1|-----------------|----------------|------------------|
2|-----------------|----------------|------------------|
3|-----------------|----------------|------------------|
4|-5-5-5-5-5---5-5-|5-5-5---3---5---|8-8-8-8---8---8-8-|
5|-5-5-5-5-5---5-5-|5-5-5---3---5---|8-8-8-8---8---8-8-|
6|-3-3-3-3-3---3-3-|3-3-3---1---3---|6-6-6-6---6---6-6-|

1|-----------------|----------------|------------------|
2|-----------------|----------------|------------------|
3|-----------------|----------------|------------------|
4|-5-5-5-5-5-5-5-5-|5-5-5-5-5-5-5---|8-8-8-8-------8-8-|
5|-5-5-5-5-5-5-5-5-|5-5-5-5-5-5-5---|8-8-8-8-------8-8-|
6|-3-3-3-3-3-3-3-3-|3-3-3-3-3-3-3---|6-6-6-6/-18---6-6-|

1|-------------------|------------------|------------------|
2|-------------------|------------------|------------------|
3|-------------------|------------------|------------------|
4|-8-8---8---6---8---|5-5-5-5---5---5-5-|5-5---5---3---5---|
5|-8-8---8---6---8---|5-5-5-5---5---5-5-|5-5---5---3---5---|
6|-6-6---6---4---6---|3-3-3-3---3---3-3-|3-3---3---1---3---|

1|-------------------|------------------|------------------|
2|-------------------|------------------|------------------|
3|-------------------|------------------|------------------|
4|-8-8-------6---8---|5-5-5-5-------5-5-|5-5-------3---5---|
5|-8-8-------6---8---|5-5-5-5-------5-5-|5-5-------3---5---|
6|-6-6/-18---4---6---|3-3-3-3/-15---3-3-|3-3/-15---1---3---|

1|-------------------------|------------------------|----------------|
2|-------------------------|------------------------|----------------|
3|-------------------------|------------------------|----------------|
4|-8---8-8---8-8-----8---8-|8---8-8-----6-----8-----|5-5-5-5-5---5-5-|
5|-8---8-8---8-8-----8---8-|8---8-8-----6-----8-----|5-5-5-5-5---5-5-|
6|-6---6-6---6-6-----6---6-|6---6-6-----4-----6-----|3-3-3-3-3---3-3-|
Solo
1|-------------------------|------------------------|--3-------------|
2|-6p3p0-------6p3p0-------|6p3p0-------6p3p0-------|3-3---------6-3-|
3|-------5p3p0-------5p3p0-|------5p3p0-------5p3p0-|----------------|
4|-------------------------|------------------------|----------------|
5|-------------------------|------------------------|----------------|
6|-------------------------|------------------------|----------------|

1|-----------------|---------------------------------|
2|-----------------|---------------------------------|
3|-----------------|---------------------------------|
4|-5-5-5---3---5---|8---8---8---8---8------8-----8---|
5|-5-5-5---3---5---|8---8---8---8---8------8-----8---|
6|-3-3-3---1---3---|6---6---6---6---6------6-----6---|

1|-----3-----------|--3------------------------------|
2|---3-----6---3---|----6-3------------------------15|
3|-5--------------5|7-------5-5-3------3-/15-17-19---|
4|-----------------|--------------5------------------|
5|-----------------|---------------------------------|
6|-----------------|---------------------------------|                                           

1|------------------------------|-----------------|------------------|
2|------------------------------|-----------------|------------------|
3|------------------------------|-----------------|------------------|
4|--8--8-----8--------6-----8---|5-5-5-5--5---5-5-|5-5--5----3---5---|
5|--8--8-----8--------6-----8---|5-5-5-5--5---5-5-|5-5--5----3---5---|
6|--6--6-----6--------4-----6---|3-3-3-3--3---3-3-|3-3--3----1---3---|

1|-15---------------------------|-----------------|------------------|
2|----18-15---------------------|-----------------|--------------0---|
3|----------17-15-17-15----15---|--3-----15-----3-|----15---15---0--5|
4|----------------------17------|--3-----15-----3-|----15---15---0---|
5|------------------------------|-----------------|------------------|
6|------------------------------|-----------------|------------------|

1|----------------------------|------------------------|
2|----------------------------|------------------------|
3|----------------------------|------------------------|
4|-8-8-8---8---8-------8---8--|8---8---8-----6---8-----|
5|-8-8-8---8---8-------8---8--|8---8---8-----6---8-----|
6|-6-6-6---6---6-------6---6--|6---6---6-----4---6-----|


1|----------------------------|------------------------|
2|---3-6-3---3---6-3-----3-6-3|----6-3-----------------|
3|-7-------5---------5--------|5-4-----5-3---3-5-5-7-3-|
4|----------------------------|------------5-----------|
5|----------------------------|------------------------|
6|----------------------------|------------------------|

1|-------------------|-----------------------|
2|-------------------|-----------------------|
3|-------------------|-----------------------|
4|-5-5-5---5-5---5-5-|5---5-5---3-----5------|
5|-5-5-5---5-5---5-5-|5---5-5---3-----5------|
6|-3-3-3---3-3---3-3-|3---3-3---1-----3------|

1|-------------------|-----------------------|
2|-------------------|-----------------------|
3|---3-5-3-----------|-----------------------|
4|---------5-3-------|-----------------------|
5|-------------5-3-1-|3-5-3-1---1------------|
6|-------------------|--------3----3/15-(12)-|

1|------------------------------|--------------------------|
2|------------------------------|--------------------------|
3|------------------------------|--------------------------|
4|--8-----8--8--8--8----8-----8-|-8--8--8----6--------8----|
5|--8-----8--8--8--8----8-----8-|-8--8--8----6--------8----|
6|--6-----6--6--6--6----6-----6-|-6--6--6----4--------6----|

1|------------------------------|--------------------------|
2|-17-18-17-15----15---17-18-17-|15----15---17-18-17-15----|
3|-17-19-17-15----15---17-19-17-|15----15---17-19-17-15----|
4|-------------17---------------|---17------------------17-|
5|------------------------------|--------------------------|
6|------------------------------|--------------------------|


1|------------------------------|-------------------------|
2|------------------------------|-------------------------|
3|------------------------------|-------------------------|
4|--5--5----5--5--5--------5--5-|-5--5-----5------3---5---|
5|--5--5----5--5--5--------5--5-|-5--5-----5------3---5---|
6|--3--3----3--3--3--------3--3-|-3--3-----3------1---3---|

1|------------15----------------|-------------------------|
2|---------------18-15----------|-------------18-20-------|
3|-15-17-19------------17-15----|15-17-19-15--------------|
4|---------------------------17-|-------------------------|
5|------------------------------|-------------------------|
6|------------------------------|-------------------------|

1|------------------|----------------|----------------|--------------|
2|------------------|----------------|----------------|--------------|
3|--------------3---|----------------|-----------5----|-x-x-x-6------|
4|--------------3---|---3---3---3----|-----------5----|-x-x-x-6------|
5|--------------1---|---3---3---3----|-----------3----|-x-x-x-4------|
6|--1-3-3-1-3-0-----|---1---1---1---1|-3-3-1-3-0------|--------------|

1|------------------|----------------|----------------|--------------|
2|------------------|----------------|----------------|--------------|
3|--------------3---|----------------|-----------5----|-x-x-x-6------|
4|--------------3---|---3---3---3----|-----------5----|-x-x-x-6------|
5|--------------1---|---3---3---3----|-----------3----|-x-x-x-4------|
6|--1-3-3-1-3-0-----|---1---1---1---1|-3-3-1-3-0------|--------------|

1|-----------------|----------------|----------------|----------------|
2|-----------------|---1---1---1----|----------------|----------------|
3|-------------3---|---2---2---2----|-----------5----|-------6---6-x--|
4|-------------3---|---3---3---3----|-----------5----|-------6---6-x--|
5|-------------1---|---3---3---3----|-----------3----|-------4---4-x--|
6|-1-3-3-1-3-0-----|---1---1---1---1|-3-3-1-3-0------|----------------|

1|-----------------|----------------|----------------|----------------|
2|-----------------|---1---1---1----|----------------|----------------|
3|-------------3---|---2---2---2----|-----------5----|-------6---6-x--|
4|-------------3---|---3---3---3----|-----------5----|-------6---6-x--|
5|-------------1---|---3---3---3----|-----------3----|-------4---4-x--|
6|-1-3-3-1-3-0-----|---1---1---1---1|-3-3-1-3-0------|----------------|
Coro (chorus)
1|------------------|----------------|----------------|----------------|
2|------------------|----------------|----------------|----------------|
3|------------------|----------------|----------------|--5-------3-----|
4|----------3-------|--------3-------|--------3-------|--5-------3-----|
5|------3-4---5-4-3-|----3-4---5-4-3-|----3-4---5-4-3-|--3-------1-----|
6|--3-6-------------|3-6-------------|3-6-------------|----------------|

1|------------------|----------------|----------------|----------------|
2|------------------|----------------|----------------|----------------|
3|------------------|----------------|----------------|--5-------3-----|
4|----------3-------|--------3-------|--------3-------|--5-------3-----|
5|------3-4---5-4-3-|----3-4---5-4-3-|----3-4---5-4-3-|--3-------1-----|
6|--3-6-------------|3-6-------------|3-6-------------|----------------|
 
1|-----------------|----------------|----------------|----------------|
2|-----------------|----------------|----------------|----------------|
3|-----------------|----------------|----------------|---5-------3----|
4|---------3-------|--------3-------|3-------3-------|---5-------3----|
5|-----3-4---5-4-3-|----3-4---5-4-3-|--5-4-3---5-4-3-|---3-------1----|
6|-3-6-------------|3-6-------------|----------------|----------------|

1|-----------------|----------------|----------------|----------------|
2|-----------------|----------------|----------------|----------------|
3|-----------------|----------------|----------------|---5-------3----|
4|---------3-------|--------3-------|3-------3-------|---5-------3----|
5|-----3-4---5-4-3-|----3-4---5-4-3-|--5-4-3---5-4-3-|---3-------1----|
6|-3-6-------------|3-6-------------|----------------|----------------|


1|----------------|----------------|-------------------|
2|----------------|----------------|-------------------|
3|----------------|----------------|-------------------|
4|---------3------|---------3------|-3-h5-3---3--------|
5|-----3-4---5-4-3|-----3-4---5-4-3|--------5---5-4-3--|
6|-3-6------------|-3-6------------|------------------3|

1|----------------|----------------|-------------------|
2|----------------|----------------|-------------------|
3|----------------|----------------|-------------------|
4|---------3------|---------3------|-3-h5-3---3--------|
5|-----3-4---5-4-3|-----3-4---5-4-3|--------5---5-4-3--|
6|-3-6------------|-3-6------------|------------------3|

1|----------------|----------------|----------------|----------------|
2|----------------|----------------|----------------|----------------|
3|----------------|----------------|----------------|----------------|
4|---------3-5----|--------3-------|--------3-------|3-------3-------|
5|---3-4-5--------|----3-4---5-4-3-|----3-4---5-4-3-|--5-4-3---5-4-3-|
6|-6--------------|3-6-------------|3-6-------------|----------------|

1|----------------|----------------|----------------|----------------|
2|----------------|----------------|----------------|----------------|
3|----------------|----------------|----------------|----------------|
4|---------3-5----|--------3-------|--------3-------|3-------3-------|
5|---3-4-5--------|----3-4---5-4-3-|----3-4---5-4-3-|--5-4-3---5-4-3-|
6|-6--------------|3-6-------------|3-6-------------|----------------|

1|----------------|-----------------------------------------------|
2|----------------|-----------------------------------------------|
3|---5-------3----|-------------------------------------3---------|
4|---5-------3----|-------------------------------------3---------|
5|---3-------1----|-------------------------------------1---------|
6|----------------|-1-----3-----3-----1-----3-----0---------------|

(Outro) Solo
1|----------------|-----------------------------------------------|
2|----------------|-----------------------------------------------|
3|---5-------3----|---------------------------------------15-15-17|
4|---5-------3----|------------------15-15-17-15----15-17---------|
5|---3-------1----|------13-13-15-17-------------17---------------|
6|----------------|13-15------------------------------------------|

1|------------------------------------------------|
2|------------------------------------------------|
3|------------------------------------------------|
4|-----------3-----------3-----------3------------|
5|-----------3-----------3-----------3------------|
6|-----------1-----------1-----------1-----------1|

1|----------------------18-15-------------------18|
2|-------------15-18-15-------18-15----15-18-15---|
3|-17-15----19----------------------19------------|
4|-------17---------------------------------------|
5|------------------------------------------------|
6|------------------------------------------------|

1|------------------------------------------------|
2|------------------------------------------------|
3|-----------------------------------5------------|
4|-----------------------------------5------------|
5|-----------------------------------3------------|
6|-----3-----3-----1-----3-----0------------------|

1|-15-------------------18-15---------------------|
2|----18-15----15-18-15-------18-15----15-15-18-18|
3|----------19----------------------19------------|
4|------------------------------------------------|
5|------------------------------------------------|
6|------------------------------------------------|

1|-----------------------------|----------------------------------|
2|-----------------------------|----------------------------------|
3|----x-----x--x--6------------|--------------------3-------------|
4|----x-----x--x--6------------|--------------------3-------------|
5|----x-----x--x--4------------|--------------------1-------------|
6|-------------------------1--3|----3-----1-3-0-------------------|

1|-------------------------------|-------18-20-----18-20--18-20-18-15|
2|-15-------------------18-20-20-|-18-15-----------------------------|
3|----17-15----15-19-------------|-----------------------------------|
4|----------17-------------------|-----------------------------------|
5|-------------------------------|-----------------------------------|
6|-------------------------------|-----------------------------------|

1|----------------------------------|
2|----------------------------------|
3|----------------------------------|
4|--3-----3------3------------------|
5|--3-----3------3------------------|
6|--1-----1------1--------1-----3---|                          

1|----15--------------15-18-15----15|
2|-18----18-20--18-20----------18---|
3|----------------------------------|
4|----------------------------------|
5|----------------------------------|
6|----------------------------------|

1|--------------------------------------|------------------------------|
2|--------------------------------------|------------------------------|
3|-----------------------5------------x-|x-x----6----------------------|
4|-----------------------5------------x-|x-x----6----------------------|
5|-----------------------3------------x-|x-x----4----------------------|
6|--3-----1-----3-----0-----------------|--------------------1--3-----3|

1|-18-15--------------------------------|------------------------------|
2|-------18-15-18-15--------------18----|---18-----18-15-18-20-18-20-18|
3|-------------------17-15----15--17-19-|---17-19--17------------------|
4|-------------------------17-----------|------------------------------|
5|--------------------------------------|------------------------------|
6|--------------------------------------|------------------------------|

1|------------------------------------|
2|------------------------------------|
3|----------------3-------------------|
4|----------------3-----------------3-|
5|----------------1-----------------3-|
6|-----1--3--0----------------------1-|

1|------------------------------------|
2|-15---------------------------------|
3|----17-15----15---17-19-17-15----15-|
4|----------17------------------17----|
5|------------------------------------|
6|------------------------------------|

1|--------------------------------------|
2|--------------------------------------|
3|--------------------------------------|
4|--------3--------3--------------------|
5|--------3--------3--------------------|
6|--------1--------1--------1--3----3---|

1|--------------------------------------|
2|-------------------------15-18-15-----|
3|-17-19-15-17-15----15-19------------17|
4|----------------17--------------------|
5|--------------------------------------|
6|--------------------------------------|

1|-------------------------------------|---------------------------------|
2|-------------------------------------|---------------------------------|
3|---------------5---------------x--x--|x----6---------------------------|
4|---------------5---------------x--x--|x----6---------------------------|
5|---------------3---------------x--x--|x----4---------------------------|
6|1----3----0--------------------------|------------------1----3-----3---|

1|-------------------------------------|---------------------------------|
2|-------------------------------------|--------------------15---18-15-18|
3|--15--------15---17-19-17-15----15-19|-15-17-15----15--19--------------|
4|-------17--------------------17------|----------17---------------------|
5|-------------------------------------|---------------------------------|
6|-------------------------------------|---------------------------------|

1|-----------------------------------------------|
2|-----------------------------------------------|
3|------------------3---------------------------|
4|-------------------3--------------------3------|
5|-------------------1--------------------3------|
6|-1-----3-----0--------------------------1------|

1|-----------------------------------------------|
2|15----15-18-15-18-15----15-18-15-18-15----15-18|
3|---19----------------19----------------19------|
4|-----------------------------------------------|
5|-----------------------------------------------|
6|-----------------------------------------------|

1|-----------------------------------------------|
2|-----------------------------------------------|
3|-----------------------------------------------|
4|----3-----------3------------------------------|
5|----3-----------3------------------------------|
6|----1-----------1-----------1-----3-----3-----1|


1|-----------------------------------------------|
2|15-18-15----15-18-15----15-18-15-18-15----15-18|
3|---------17----------17----------------17------|
4|-----------------------------------------------|
5|-----------------------------------------------|
6|-----------------------------------------------|

1|--------------------------------------------|
2|--------------------------------------------|
3|-----------------5-----------------x-----x-x|
4|-----------------5-----------------x-----x-x|
5|-----------------3-----------------x-----x-x|
6|-----3-----0--------------------------------|

1|--------------------------------------------|
2|-15-15-18-15----15-18-15-15-18-15-15-18-15--|
3|-------------17-----------------------------|
4|--------------------------------------------|
5|--------------------------------------------|
6|--------------------------------------------|

1|-------------------------------------|
2|-------------------------------------|
3|-----6-------------------------------|
4|-----6-------------------------------|
5|-----4-------------------------------|
6|------------------1-----3-----3-----1|

1|-----------15-17-15-15-15-18-15-15-15|
2|-18-20-------------------------------|
3|-------------------------------------|
4|-------------------------------------|
5|-------------------------------------|
6|-------------------------------------|

1|------------------------------------------------|
2|------------------------------------------------|
3|-----------------3------------------------------|
4|-----------------3--------------------3---------|
5|-----------------1--------------------3---------|
6|-----3-----0--------------------------1---------|

1|-20-15-15-15-18-15-15-15-17-15-15-15-18-15-15-15|
2|------------------------------------------------|
3|------------------------------------------------|
4|------------------------------------------------|
5|------------------------------------------------|
6|------------------------------------------------|

1|------------------------------------------------|
2|------------------------------------------------|
3|------------------------------------------------|
4|--3-----------3---------------------------------|
5|--3-----------3---------------------------------|
6|--1-----------1-----------1-----3-----3-----1---|

1|-20-15-15-15-18-15-15-15-17-15-15-15-18-15-15-15|
2|------------------------------------------------|
3|------------------------------------------------|
4|------------------------------------------------|
5|------------------------------------------------|
6|------------------------------------------------|

1|-----------------------------------------------|
2|-----------------------------------------------|
3|-------------5-----------------x-----x-----x---|
4|-------------5-----------------x-----x-----x---|
5|-------------3-----------------x-----x-----x---|
6|-3-----0---------------------------------------|






1|-20-15-15-15-18-15-15-15-17-15-15-15-18-15-15-15|
2|------------------------------------------------|
3|------------------------------------------------|
4|------------------------------------------------|
5|------------------------------------------------|
6|------------------------------------------------|

1|------------------------------------------------|
2|------------------------------------------------|
3|--6---------------------------------------------|
4|--6---------------------------------------------|
5|--4---------------------------------------------|
6|-----------------------1-----3-----3-----1-----3|

1|-20-15-15-15-18-15-15-15-17-15-15-15-18-15-15-15|
2|------------------------------------------------|
3|------------------------------------------------|
4|------------------------------------------------|
5|------------------------------------------------|
6|------------------------------------------------|

1|------------------------------------------------|
2|------------------------------------------------|
3|-----------3------------------------------------|
4|-----------3--------------------3-----------3---|
5|-----------1--------------------3-----------3---|
6|-----0--------------------------1-----------1---|

1|-20-15-15-15-22-15-15-15-20-15-15-15-18-15-15-15|
2|------------------------------------------------|
3|------------------------------------------------|
4|------------------------------------------------|
5|------------------------------------------------|
6|------------------------------------------------|

1|------------------------------------------------|
2|------------------------------------------------|
3|------------------------------------------------|
4|--------3---------------------------------------|
5|--------3---------------------------------------|
6|--------1-----------1-----3-----3-----1-----3---|

1|-17-15-15-15-18-15-15-15-20-15-15-15-18-15-15-15|
2|------------------------------------------------|
3|------------------------------------------------|
4|------------------------------------------------|
5|------------------------------------------------|
6|------------------------------------------------|

1|------------------------------------------------|
2|------------------------------------------------|
3|--------5-----------------x-----x-----x-----6---|
4|--------5-----------------x-----x-----x-----6---|
5|--------3-----------------x-----x-----x-----4---|
6|--0---------------------------------------------|

1|-17-15-15-15-20-15-15-15-18-15-15-15-17-15-15-15|
2|------------------------------------------------|
3|------------------------------------------------|
4|------------------------------------------------|
5|------------------------------------------------|
6|------------------------------------------------|





1|---------------------------------------------|
2|---------------------------------------------|
3|---------------------------------------------|
4|---------------------------------------------|
5|---------------------------------------------|
6|--------------1-----3-----3-----1-----3-----0|


1|-18-15-------18-15-15-18-15----15-18-15-18-15|
2|-------18-15----------------18---------------|
3|---------------------------------------------|
4|---------------------------------------------|
5|---------------------------------------------|
6|---------------------------------------------|

1|------------------------------------------------|
2|------------------------------------------------|
3|-----3------------------------------------------|
4|-----3--------------------3-----------3---------|
5|-----1--------------------3-----------3---------|
6|--------------------------1-----------1---------|

1|----15-18-15-18-15----15-18-15-18-15----15-18-15|
2|-18----------------18----------------18---------|
3|------------------------------------------------|
4|------------------------------------------------|
5|------------------------------------------------|
6|------------------------------------------------|              

1|-----------------------------|--------------------------------------|
2|-----------------------------|--------------------------------------|
3|-----------------------------|-5--------------x---x----x-----6------|
4|-3---------------------------|-5--------------x---x----x-----6------|
5|-3---------------------------|-3--------------x---x----x-----4------|
6|-1------1--3----3--1----3--0-|--------------------------------------|

1|----18-20-18-20---18-15------|15-18-20-18-15----15-18-18-20-20-18-15|
2|--------------------------18-|---------------18---------------------|
3|-----------------------------|--------------------------------------|
4|-----------------------------|--------------------------------------|
5|-----------------------------|--------------------------------------|
6|-----------------------------|--------------------------------------|

1|------------------------------------------------|
2|------------------------------------------------|
3|-----------------------------------------------3|
4|-----------------------------------------------3|
5|-----------------------------------------------1|
6|-----------1-----3-----3-----1-----3-----0------|

1|-18-15----15------------------------------------|
2|-------18----18-15-18-15----15------------------|
3|-------------------------17----17-15-17-15----15|
4|-------------------------------------------17---|
5|------------------------------------------------|
6|------------------------------------------------|

1|-----------------------------|----------------------------------|
2|-----------------------------|----------------------------------|
3|-----------------------------|--------------------------------5-|
4|-----------------3-----3---3-|--------------------------------5-|
5|-----------------3-----3---3-|--------------------------------3-|
6|-----------------1-----1---1-|----1--3----3----1----3----0------|

1|-----------------------------|----------------------------------|
2|-----------------------------|----------------------------------|
3|----15-17-17-19-17-15--------|---15-17-15--------15---17---15---|
4|-17--------------------------|17------------17------------------|
5|-----------------------------|----------------------------------|
6|-----------------------------|----------------------------------|

1|------------------------------|------------------------|
2|------------------------------|------------------------|
3|--------x--x--x--6------------|--------------------3---|
4|--------x--x--x--6------------|--------------------3---|
5|--------x--x--x--4------------|--------------------1---|
6|------------------------------|--1--3--3--1--3--0------|


1|------------------------------|------------------------|
2|-17-18-17-18-17-18------------|------------------------|
3|-17-19-17-19-17-19-17-15-17-15|------------------------|
4|------------------------------|-17-15------------------|
5|------------------------------|-------17-15-13-15-13-15|
6|------------------------------|------------------------|

1|--------------------------|-----------------------------|
2|--------------------------|-----------------------------|
3|--------------------------|-------------------5---------|
4|-----------3----3----3----|-------------------5---------|
5|-----------3----3----3----|-------------------3---------|
6|-----------1----1----1----|-1--3--3--1--3--0------------|

1|--------------------------|-----------------------------|
2|--------------------------|-----------------------------|
3|--------------------------|------------15-17-17-19-17-15|
4|--------------------------|------15-17------------------|
5|-17-15-13----13--------13-|15-17------------------------|
6|----------15--------15----|-----------------------------|

1|------------------------------|-----------------------------------|
2|------------------------------|-----------------------------------|
3|---x--x--x----6---------------|----------------------------3------|
4|---x--x--x----6---------------|----------------------------3------|
5|---x--x--x----4---------------|----------------------------1------|
6|-----------------------------1|----3-----3-----1-----3--0---------|

1|------------------------------|-----------------------------------|
2|-------------------------18---|---18-------18-------18-18-18-18-18|
3|-17-15----15----15-17-19----17|19----17-19----17-19----17-19-17-19|
4|-------17----17---------------|-----------------------------------|
5|------------------------------|-----------------------------------|
6|------------------------------|-----------------------------------|

1|------------------------|----------------|----------------|
2|------------------------|----------------|----------------|
3|------------------------|----------5-----|x-x-x-6---------|
4|----3-------3-----3-----|----------5-----|x-x-x-6---------|
5|----3-------3-----3-----|----------3-----|x-x-x-4---------|
6|----1-------1-----1---1-|3-3-1-3-0-------|----------------|

1|------------------------|----------------|----------------|
2|-18---18-18---18--------|----------------|----------------|
3|-17---19-17---19--------|----------------|x-x-x-6---------|
4|------------------------|----------------|x-x-x-6---------|
5|------------------------|----------------|x-x-x-4---------|
6|------------------------|----------------|----------------|

1|-----------------|----------------|----------------|----------------|
2|-----------------|----------------|----------------|----------------|
3|-----------------|----------------|5---------------|3-3-------------|
4|---------3-------|--------3-------|5---------------|3-3-------------|
5|-----3-4---5-4-3-|----3-4---5-4-3-|3---------------|1-1-------------|
6|-3-6-------------|3-6-------------|----------------|----------------|

1|-----------------|----------------|----------------|----------------|
2|-----------------|----------------|----------------|----------------|
3|-----------------|----------------|5---------------|3-3-------------|
4|---------3-------|--------3-------|5---------------|3-3-------------|
5|-----3-4---5-4-3-|----3-4---5-4-3-|3---------------|1-1-------------|
6|-3-6-------------|3-6-------------|----------------|----------------|

1|----------------|
2|----------------|
3|----------------|
4|-5--------------|
5|-5--------------|
6|-3--------------|

1|----------------|
2|----------------|
3|----------------|
4|-5--------------|
5|-5--------------|
6|-3--------------| 
5.Anesthesia-pullin teeth 
|--------|----------||------10-14----10-14----10-|-14----10-14----10-14-----|
|-0--0-0-|-12--/19\-||-o-12-------12-------12----|----12-------12-------12\-|
|--------|----------||-o-------------------------|--------------------------|
|--------|----------||---------------------------|--------------------------|
                                                       2 times
|-------9-12----9-12----9-|-12----9-12----9-12---||----10-14----10-14----10-|
|-\(10)------10------10---|----10------10------o-||-12-------12-------12----|
|-------------------------|--------------------o-||-------------------------|
|-------------------------|----------------------||-------------------------|

|-14----10-14----10-14-|----12-16----12-16----12-|-16----12-16----12-16----|
|----12-------12-------|-14-------14-------14----|----14-------14-------14-|
|----------------------|-------------------------|-------------------------|
|----------------------|-------------------------|-------------------------|
  
|----14-17----14-17----17-|----12-16----12-16----16-|---------------||
|-15-------15-------15----|-14-------14-------14----|-14--12--12-12-||
|-------------------------|-------------------------|-12--10--------||
|-------------------------|-------------------------|---------------||

|----14----10----|-------12----|----14----10----|-------------|
|-12----12----12-|-14-10-10----|-12----12----12-|-14-10-14----|
|----------------|-------------|----------------|-------12----|
|----------------|-------------|----------------|-------------|
  
|----14----10----|-------12----|----14----10----|-------------|
|-12----12----12-|-14-10-10----|-12----12----12-|-14-10/------|
|----------------|-------------|----------------|--------0-13-|
|----------------|-------------|----------------|-------------|
  
|------------------|-------14-15---|------------------|-------14-15p14----|
|------13-12-------|----15---------|------13-12-------|----15----------15-|
|-12---------15-12-|-13----------0-|-12---------15-12-|-13----------------|
|------------------|---------------|------------------|-------------------|

|------------------|-------14-15-----|------------------|-------14-15p14----|
|------13-12-------|----15-----------|------13-12-------|----15----------15-|
|-12---------15-12-|-13----------0---|-12---------15-12-|-13----------------|
|------------------|-----------------|------------------|-------------------|
  
||---------16-------|-------14----14----|-------13-------|
||-o----16----16----|----14----14----14-|----11----11----|
||-o-14----------14-|-12----------------|-11----------11-|
||------------------|-------------------|----------------|

|-------14----14------||-------16-------|-------17----17----|
|----12----12----12-o-||----16----16----|----17----17----17-|
|-12----------------o-||-14----------14-|-15----------------|
|---------------------||----------------|-------------------|
  
|-------19----------|----19----19----|-------/12-------|-------12----------|
|----17----17-------|-19----19----19-|----14-----14----|----14----14----14-|
|-17----------17-17-|----------------|-15-----------15-|-14----------14----|
|-------------------|----------------|-----------------|-------------------|
 


|-------11----12----|----14-12h14p12----12----------------------|
|----12----12----12-|----------------16----16-14-12-------------|
|-12----------------|-12----------------------------15-14-12-14-|
|-------------------|-------------------------------------------|

|-------12---------|-17-19-17h19p17-16-17-16h17p16-|----16-------------|
|----14----14----0-|-------------------------------|-17----17----17-17-|
|-15----------15---|-------------------------------|----------17-------|
|------------------|-------------------------------|-------------------|
  
|----------------------16---|-------12-------|-------12----------|
|-17-17-17-19-19-19-19------|----14----14----|----14----14----14-|
|-------------------------0-|-15----------15-|-14----------14----|
|---------------------------|----------------|-------------------|

|-------11----12----|----14-12h14p12----12----------------------|
|----12----12----12-|----------------16----16-14-12-------------|
|-12----------------|-12----------------------------15-14-12-14-|
|-------------------|-------------------------------------------|

|-------12-------|---19-b1-r-17h19p17-16-17-16h17p16----16----------|
|----14----14----|-0---------------------------------19----17----17-|
|-15----------15-|--------------------------------------------17----|
|----------------|--------------------------------------------------|

|-------------------------16\---|--------------|--------------------|
|-17-17-17-17-19-19-19-19-----0-|------10------|-------14----14-----|
|-------------------------------|---10----10---|----14----14----14/-|
|-------------------------------|-8----------8-|-12-----------------|

|------------------|---------|------10----10----|-----7/(9)-9/(12)-|
|------14----14----|---------|---10----10----10-|---7--------------|
|-0-12----12----12-|-12-10-7-|-8----------------|-5----------------|
|------------------|---------|------------------|------------------|

|-------12----12----|-------|--------------|--------------------|
|----12----12----12-|-------|------10------|-------14----14-----|
|-10----------------|-------|---10----10---|----14----14----14/-|
|-------------------|-3-5-7-|-8----------8-|-12-----------------|
  
|------------------|---------------------------------|------10----10----|
|------14----14----|---------------------------------|---10----10----10-|
|-0-12----12----12-|-12-12-12-12-10-10-10-10-7-7-7-7-|-8----------------|
|------------------|---------------------------------|------------------|
  
|-----7/(9)-9/(12)-|-------12----12----|-------------------||
|---7--------------|----12----12----12-|-------------------||
|-5----------------|-10----------------|----------------0--||
|------------------|-------------------|-3-5-7-b1/2-r-5----||
 
||-----------------------------|-----------------|
||-o-7-7---9-9---10-10---9-9---|-7-7---6-6---7---|
||-o-----0-----0-------0-----0-|-----0-----0---0-|
||-----------------------------|-----------------|

|---------------------------|-------------------------||-----------------|
|-7-7---9-9---10-10---9-9---|-10-10---14-14---13\---o-||-10-10---14-14---|
|-----0-----0-------0-----0-|-------0-------0-----0-o-||-------0-------0-|
|---------------------------|-------------------------||-----------------|

|------------------|----------------|-------18----19----|-18-18-18----18----|
|-13---14--13---14-|-13---14-13-/19-|-19-19-19-19-19-19-|-19-19-19-19-19-19-|
|----0--------0----|----0-----------|-0--0--0-----0-----|-0--0--0-----0-----|
|------------------|----------------|-------------------|-------------------|

|-19----18----19-18----|-19----18----19----19-----|--------------||
|-19-19-19-19-19-19-19-|-19-19-19-19-19-19-19-----|--------------||
|-0-----0-----0--0-----|-0-----0-----0-----0--(0)-|-(0)----------||
|----------------------|--------------------------|---------/X\--||
                                  

|----------------|---------------|------------------|---------------------|
|----------------|---------------|---------5---5-7-b1/2-r-b/12-r-b1/2-r-5-|
|-----2-0--------|------5----5-7-|---5-5-7---7------|---------------------|
|-0-3-----3-3-5/-|-/(7)----7-----|-0----------------|---------------------|

|-------7-b1-r---|------------------|-----14-b1-14-14-|
|-----5--------5-|---5-7-b1-r-5---5-|-----------------|
|---x------------|-7------------7---|-----------------|
|-0--------------|------------------|-0---------------|
  
|-14-b1-14-14-14-b1-14-14\-|-----12---11-|-12---11-12-12-12-11---|
|--------------------------|--------0----|----0----------------0-|
|--------------------------|-------------|-----------------------|
|--------------------------|-0-0---------|-----------------------|
  
|-------------------------------|----------------------|-16-12-16-12-16-|
|-17p14-19p14-19p14-21p14-19p14-|-17p14-19p14-21p14-17-|----------------|
|-------------------------------|----------------------|----------------|
|-------------------------------|----------------------|----------------|
  
|-12-16-12-16-16-|-16p12----12-16p12----12-16p12-12-12-12-12-14-|
|----------------|-------14----------14-------------------------|
|----------------|----------------------------------------------|
|----------------|----------------------------------------------|

|-b1-r-12----12-b1/2-----|-------------------------|
|---------14---------14\-|-----21-17-17----20-b1/2-|
|------------------------|--------------19---------|
|------------------------|-0-0---------------------|
 
|---------------------R--------|----19----------19---------19---------19-|
|-20-20-b1/2-20-19-17----19-b1-|-------19-b1/2-----19-b1/2----19-b1/2----|
|------------------------------|-----------------------------------------|
|------------------------------|-----------------------------------------|
  
|---------19-19-19-b1---r-----|-------------|-----------|-------------|
|-19-b1/2-----------------17\-|-------------|-----------|-------2-0---|
|-----------------------------|-------------|-----------|-----------3-|
|-----------------------------|-0-0-0-0-0-0-|-0-0-0-0-0-|-0-0-0-------|
  
|------------|-------------|------------|-15-14-12-14p12----12-15-14-12-|
|------------|-------5-----|-5-----5/-0-|----------------14-------------|
|-2-1-0------|---5-7---5-7-|---5-7------|-------------------------------|
|-------3--0-|-0-----------|------------|-------------------------------|

|-14p12----12-15-14-12-14p12----|-12-------------------------------|
|-------14-------------------14-|----14-12-14p12----12-------------|
|-------------------------------|----------------14----14-12-13-14-|
|-------------------------------|----------------------------------|

|-----------------------|-----------------|-----------------|-------------|
|-12-14p12-12----12-12\-|-----------------|---------------2-|-------------|
|-------------14--------|-----------------|-----------2-----|-------------|
|-----------------------|-0-0-0-0-0-0-0-0-|-(0)-0-0-0---0---|-0-0-0-0-0-0-|
  
|-------------|-12----11----------11-|-12----14-14-12---|--------------|
|-------14-14-|-11-11----11-14-11----|----11------------|------------6-|
|-------------|-0--------------------|----------------9-|-7-0-9-10-0---|
|-0-0-0-------|----------------------|------------------|--------------|

|--------------------|----------------|----------------------------|
|-6-6-6-10-7-7-7-7-7-|-8-11-9-9-12-10-|-10-11-11-14-14-11-11-14-12-|
|--------------------|----------------|----------------------------|
|--------------------|----------------|----------------------------|
  
|------------------------------------------|-------16-15-16-17-19-19-b1-|
|-(12)-15-12-14-16-14-16-15-17-17-16-17-19-|-17-19----------0-----------|
|------------------------------------------|----------------------------|
|------------------------------------------|----------------------------|


|-(19)-19-19-19-19-|-19-b1-r-16----16-19-16-|
|------------------|------------17----------|
|------------------|------------------------|
|------------------|------------------------|

|-19p16----16h19p16----16h19p16----16h19p16----|-16h19---19-b1-r-16----|
|-------17----------17----------17----------17-|--------------------17-|
|----------------------------------------------|-----------------------|
|----------------------------------------------|-----------------------|

|-16----------------------|---------------------------|
|----17----17----------17-|-19-b1/2-r-b1/2-r-b1/2-19\-|
|-------19----19-17-19----|---------------------------|
|-------------------------|---------------------------|
  
|-------------|---------|----------------|---------------|-----------------|
|-------------|---------|----------------|---------------|-----------------|
|-------------|---------|---------5-b1-r-|-b1-r-b1-r-2---|---------0-----0-|
|-0-0-0-0-0-0-|-0-0-0-0-|-0-0-0-0--------|-------------0-|-0-0-0-0---3-0---|

|-----------------|-----------------|-----------------|-----------|
|-----------------|-----------------|-----------------|-----5-5-5-|
|-0-0-4h5-0-4h5-0-|-4h5-0-4h5-0-4h5-|-0-0-0-0-0-0-0-0-|-----------|
|-----------------|-----------------|-----------------|-0-0-------|

|---------------|-12(19)-10(17)-9(16)-|-9(16)---------------------9(16)-|
|-(5)-5-------5-|---------------------|-------10(17)-9(16)-10(17)-------|
|---------------|---------------------|---------------------------------|
|-------4-4-4---|---------------------|---------------------------------|

|-----------------------------------------------|-------------------------|
|-10(17)-9(16)---------------------9(16)-10(17)-|----10(17)-9(16)---------|
|--------------10(17)-9(16)-10(17)--------------|-19--------------12(19)\-|
|-----------------------------------------------|-------------------------|

|---------|------------|----------|   
|---------|---------16-|-(16)-----|   
|---------|---14-14-14-|-(14)-----|   
|-0-0-0-0-|-0-0--0--0--|-(0)------|
  6.whiplash 
   E5                               Let ring
e:-------|--------------|---------|-------------------------------------
B:-------|--------------|---------|-------------------------------------
G:-9-9-9-|*-9----9-9-9-*|-9-------|-7-----------------------------------
D:-9-9-9-|*-9----9-9-9-*|-9-------|-5-----------------------------------
A:-7-7-7-|--7----7-7-7--|-7-------|-------------------------------------
E:-------|--------------|---------|-------------------------------------
     E5          x2
e:|-------|--------|--------|--------|------|-----------
B:|-------|--------|--------|--------|------|-----------
G:|*-9----|-(9)---*|-9-9----|-(9)----|-9----|-(9)-------
D:|*-9----|-(9)---*|-9-9----|-(9)----|-9----|-(9)-------
A:|--7----|-(7)----|-7-7----|-(7)----|-7----|-(7)-------
E:|--0----|-(0)----|-0-0----|-(0)----|-0----|-(0)-------
                                                     A5 Ab5
       PM-------------------------------------------          x3
e:|--------------------------------|----------------------------|-
B:|--------------------------------|----------------------------|-
G:|*-------------------------------|---------------------------*|-
D:|*-------------------------------|-----------------7--6------*|-
A:|--------------------------------|-----------------7--6--5p0--|-
E:|-0--0-0-0-0-0-0-0-0-0-0-0-0-0-0-|-0-0-0-0-0-0-0-0------------|-
                                                     A5 Ab5G5
            PM-------------------------------------------
e:|--------------------------------|--------------------------|-
B:|--------------------------------|--------------------------|-
G:|*-------------------------------|-------------------------*|-
D:|*-------------------------------|-----------------7--6--5-*|-
A:|--------------------------------|-----------------7--6--5--|-
E:|-0--0-0-0-0-0-0-0-0-0-0-0-0-0-0-|-0-0-0-0-0-0-0-0----------|-
                                                    A5 Ab5G5
       PM-------------------------------------------
e:|--------------------------------|--------------------------|-
B:|--------------------------------|--------------------------|-
G:|*-------------------------------|-------------------------*|-
D:|*-------------------------------|-----------------7--6--5-*|-
A:|-2------------------------------|-----------------7--6--5--|-
E:|-0--0-0-0-0-0-0-0-0-0-0-0-0-0-0-|-0-0-0-0-0-0-0-0----------|-
    PM----------------------------------------------------------- G5 x4
e:|---------------------------------|---------------------------------|-
B:|---------------------------------|---------------------------------|-
G:|*--------------------------------|--------------------------------*|-
D:|*--------------------------------|-----------------------------5--*|-
A:|---------------------------------|-----------------------------5---|-
E:|-0-0-0-0-0-0-0-0-0-0-0-0-0-0-0-0-|-0-0-0-0-0-0-0-0-0-0-0-0-0-0-----|-
VERSE:
    PM----------------------------------------------------------- G5 x4
e:|---------------------------------|---------------------------------|-
B:|---------------------------------|---------------------------------|-
G:|*--------------------------------|--------------------------------*|-
D:|*--------------------------------|-----------------------------5--*|-
A:|---------------------------------|-----------------------------5---|-
E:|-0-0-0-0-0-0-0-0-0-0-0-0-0-0-0-0-|-0-0-0-0-0-0-0-0-0-0-0-0-0-0-----|-
(4th time only) 
e:-22b~----|-
B:---------|-
G:---------|-
D:---------|-
A:---------|-
E:---------|-
CHORUS:
     C5    B5A5      F#5
                     PM----------------- x3
e:|------------|--------------------------|-
B:|------------|--------------------------|-
G:|*-----------|-------------------------*|-
D:|*-5---5-4-2-|-------------------------*|-
A:|--3---3-2-0-|-----4-4-4--4-4-4--4-4----|-
E:|------------|-0h2-2-2-2--2-2-2--2-2-0--|-
INTERLUDE:                 D5     Db5     C5      A5      Ab5     G5
    Drums        |	|	|	|	|	|

e:-----------|----------------------------------------------
B:-----------|----------------------------------------------
G:-----------|----------------------------------------------
D:-----------|----------------------------------------------
A:-----------|----------------------------------------------
E:-----------|----------------------------------------------
                   PM--------                PM-------- x4
e:|--------------------------|--------------------------|-
B:|--------------------------|--------------------------|-
G:|*-------------------------|-------------------------*|-
D:|*-------5---5-------------|-------5---5-------------*|-
A:|--7p5---5---5-------------|-7p5---5---5--------------|-
E:|------7---7----0--0--0--0-|-----7---7----0--0--0--0--|-
SOLO:
e:-15p14p12----12-15p14p12----12-17p15p12----12-17p15p12----12-|-
B:----------15-------------15-------------15-------------15----|-
G:-------------------------------------------------------------|-
D:-------------------------------------------------------------|-
A:-------------------------------------------------------------|-
E:-------------------------------------------------------------|-

e:-17p15p12----12-17p15p12----12-17p15p12----12-17p15p12----12-|-
B:----------15-------------12-------------17-------------15----|-
G:-------------------------------------------------------------|-
D:-------------------------------------------------------------|-
A:-------------------------------------------------------------|-
E:-------------------------------------------------------------|-



e:-17p15p12----12-17p15p12----12-17p15p12----12-17p15p12----12-|-
B:-------------------------------------------------------------|-
G:----------15-------------15-------------15-------------15----|-
D:-------------------------------------------------------------|-
A:-------------------------------------------------------------|-
E:-------------------------------------------------------------|-

e:-17b---------------------|-----------------------------------|-
B:-----15-(15)\--------x-x-|----12----12----12----14--12-------|-
G:--------------14b----x-x-|----12----12----12----14--12----12-|-
D:------------------12-----|-14----14----14----14--------14----|-
A:-------------------------|-----------------------------------|-
E:-------------------------|-----------------------------------|-

e:--------------12h15p12----------------------------|-----------------|-
B:-----12-15p12----------15-12------12-15p12--------|-----------------|-
G:-14b----------------------14b-14b----------14-12\-|-2b----2b(2)b(2)-|-
D:--------------------------------------------------|-----------------|-
A:--------------------------------------------------|-----------------|-
E:--------------------------------------------------|-----------------|-

e:-------------------------|---------------------------------|-
B:-------------------------|---------------------------------|-
G:-2b----(2)p0-----------0-|-2p0h2p0-4p0h4p0-5p0h5p0-4p0h4p0-|-
D:--------------2-----2----|---------------------------------|-
A:-------------------------|---------------------------------|-
E:-------------------------|---------------------------------|-

e:---------------------------------|---------------------------------------|-
B:---------------------------------|---------------------------------------|-
G:-5p0h5p0-7p0h7p0-9p0h9p0-7p0h7p0-|-9p0h9p0-10p0h10p0-12p0h12p0-10p0h10p0-|-
D:---------------------------------|---------------------------------------|-
A:---------------------------------|---------------------------------------|-
E:---------------------------------|---------------------------------------|-

e:-----------------------------------|---------------10p7----7---7----------|-
B:---------------------------------7-|-10p7---7-10p7------10-7---7-10p7-----|-
G:-9p0h9p0-7p0h7p0-9b----9b(10)--9---|------9------------------9--------9-7-|-
D:-----------------------------------|--------------------------------------|-
A:-----------------------------------|--------------------------------------|-
E:-----------------------------------|--------------------------------------|-

e:--------------------------------|--------------------------------------------------|-
B:--------------------------------|-----------------------------------------------12-|-
G:-7-7-9p7------------------------|-------------------12-------------12----12-14b----|-
D:---------9p7---7-9p7------------|----------------12-12-12-14p12----12-14-----------|-
A:-------------9-------9-7-5------|----12-12-12-14----------------14-----------------|-
E:---------------------------7-7~-|-14-----------------------------------------------|-

e:--------12-15p12-------------------------------------|-----------------------------|-
B:-----12----------15-12----12-15p12----12-15p12----12-|-15b~---------------------0--|-
G:-14b-------------------14----------14----------14----|--------------------------0--|-
D:-----------------------------------------------------|-----------------------------|-
A:-----------------------------------------------------|-----------------------------|-
E:-----------------------------------------------------|-----------------------------|-

e:---------------------------|-12---12-12---12------12-12-12-----12-12-12-12-12-|-
B:-15b--(15)\----------------|-15b-----15b-----15b-----------15b----------------|-
G:---------------------------|--------------------------------------------------|-
D:---------------------------|--------------------------------------------------|-
A:---------------------------|--------------------------------------------------|-
E:---------------------------|--------------------------------------------------|-

e:-12-----12-12--12---------12-12--12-----12-|-15-12----12-15p12----12-15p12-----------
B:----15b----15b---------------15b----15b----|-------15----------15----------15-12-12--
G:------------------14b(15)------------------|-----------------------------------------
D:-------------------------------------------|-----------------------------------------
A:-------------------------------------------|-----------------------------------------
E:-------------------------------------------|-----------------------------------------
              PM--------------------------------- 

e:----------|--------------------------------------------|-
B:-12-15p12-|--------------------------------------------|-
G:----------|-14-12----12-14p12----12-14p12----12-14-12\-|-
D:----------|-------14----------14----------14-----------|-
A:----------|--------------------------------------------|-
E:----------|--------------------------------------------|-

e:-3p1p0-3p1p0-3p1p0-5p3p0-6p4p0-6p4p0-7p5p0-8p6p0-|-
B:-------------------------------------------------|-
G:-------------------------------------------------|-
D:-------------------------------------------------|-
A:-------------------------------------------------|-
E:-------------------------------------------------|-

e:-8p6p0-9p7p0-10p7p0-11p8p0-12p9p0-12p9p0-14p11p0-15p12p0-|-
B:---------------------------------------------------------|-
G:---------------------------------------------------------|-
D:---------------------------------------------------------|-
A:---------------------------------------------------------|-
E:---------------------------------------------------------|-

e:-15p12p0-16p13p0-17p13p0-17p14p0-18p15p0-19p16p0-20p17p0-21p18p0-|-
B:-----------------------------------------------------------------|-
G:-----------------------------------------------------------------|-
D:-----------------------------------------------------------------|-
A:-----------------------------------------------------------------|-
E:-----------------------------------------------------------------|-

e:-21p18p0-22p19-22p19-22p19-22b-----22b-|-
B:---------------------------------------|-
G:---------------------------------------|-
D:---------------------------------------|-
A:---------------------------------------|-
E:---------------------------------------|-
OUTRO:
    C5				B5	A5  E5   F#5     E5     F#5 E5
    |			|	|	|   |	 | | | | |  |	|   | x3
e:---------------------------------------|----------------------------|-
B:---------------------------------------|----------------------------|-
G:---------------------------------------|*--------------------------*|-
D:---------------------------------------|*--------------------------*|-
A:---------------------------------------|----------------------------|-
E:---------------------------------------|----------------------------|-
   E5      F#5     E5  F#5E5		E5	F#5     E5 F#5
   |	   | | | | | | |  |		|	| |  |  |  |  |
--------------------------------------------------------------||
--------------------------------------------------------------||
--------------------------------------------------------------||
--------------------------------------------------------------||
--------------------------------------------------------------||
--------------------------------------------------------------|| 
7. phantom lord 
fade in 
|-----------------|-------------------|--------------------|
|-----------------|-------------------|--------------------|
|-----------------|*--2----------2----|--2----------2--2--*|
|-----------------|*--2----------2----|--2----------2--2--*|
|--0--------------|---0----------0----|--0----------0--0---|
|-----------------|-------------------|--------------------|

|-------------|-------------------|--------------------|
|-------------|-------------------|--------------------|
|--2----------|*--4----------4----|--4----------4--4--*|
|--2----------|*--4----------4----|--4----------4--4--*|
|--0----------|---2----------2----|--2----------2--2---|
|-------------|-------------------|--------------------|





|----------------------------------------------------------|
|----------------------------------------------------------|
|-4----------------------------7--9------------------------|
|-4----7--7--9-9--7-9p7-9--9-9-5--7--7--9-9--7-9p7-9--9--7-|
|-2----5--5--7-7----7---7--7-7-------5--7-7----7---7--7--5-|
|----------------------------------------------------------|

|-----------------------------|----------------------------|
|-----------------------------|----------------------------|
|-----------------------7--9--|----------------------------|
|--7--9-9--7-9p7-9--9-9-5--7--|--7--9-9--7-9p7-9--9-9-7----|
|--5--7-7----7---7--7-7-------|--5--7-7----7---7--7-7-5----|
|-----------------------------|----------------------------|
4x
||-----------------------------|--------------------------||
||-----------------------------|--------------------------||
||*----------------------7--9--|-------------------------*||
||*-7--9-9--7-9p7-9--9-9-5--7--|-7--9-9--7-9p7-9--9-9-7--*||
||--5--7-7----7---7--7-7-------|-5--7-7----7---7--7-7-5---||
||-----------------------------|--------------------------||

|-----------|------------------|---------------------------|
|-----------|------------------|---------------------------|
|-2---------|-5-----4----------|----------------------7--9-|
|-2---------|-5-----4---5--5---|-7--9-9--7-9p7-9--9-9-5--7-|
|-0---------|-3-----2---5--5---|-5--7-7----7---7--7-7------|
|-----------|-----------3--3---|---------------------------|
Sound is.. ..sound of metal nears
|---------------------------|----------------------------|
|---------------------------|----------------------------|
|---------------------------|----------------------7--9--|
|-7--9-9--7-9p7-9--9-9-7----|-7--9-9--7-9p7-9--9-9-5--7--|
|-5--7-7----7---7--7-7-5----|-5--7-7----7---7--7-7-------|
|---------------------------|----------------------------|

|---------------------------|------------|-----------------|
|---------------------------|------------|-----------------|
|---------------------------|-2----------|-5------4--------|
|-7--9-9--7-9p7-9--9-9-7----|-2----------|-5------4---5--5-|
|-5--7-7----7---7--7-7-5----|-0----------|-3------2---5--5-|
|---------------------------|------------|------------3--3-|
Your body's.. ..taste of leather on your lips


|----------------------------|---------------------------|
|----------------------------|---------------------------|
|----------------------7--9--|---------------------------|
|-7--9-9--7-9p7-9--9-9-5--7--|-7--9-9--7-9p7-9--9-9-7----|
|-5--7-7----7---7--7-7-------|-5--7-7----7---7--7-7-5----|
|----------------------------|---------------------------|

|----------------------------|---------------------------|
|----------------------------|---------------------------|
|----------------------7--9--|---------------------------|
|-7--9-9--7-9p7-9--9-9-5--7--|-7--9-9--7-9p7-9--9-9-7----|
|-5--7-7----7---7--7-7-------|-5--7-7----7---7--7-7-5----|
|----------------------------|---------------------------|

|----------------|----------------|----------------|
|----------------|----------------|----------------|
|----------------|----------------|----------------|
|--7--5--7--4--5-|--7--5--7--4--5-|--7--5--7--4--5-|
|--7--5--7--4--5-|--7--5--7--4--5-|--7--5--7--4--5-|
|0-5--3--5--2--3-|0-5--3--5--2--3-|0-5--3--5--2--3-|
Hear the cry of war Louder than before With his sword in hand
|----------------|----------------|----------------|
|----------------|----------------|----------------|
|----------------|----------------|----------------|
|--7--5--4--5--4-|--7--5--7--4--5-|--7--5--7--4--5-|
|--7--5--4--5--4-|--7--5--7--4--5-|--7--5--7--4--5-|
|0-5--3--2--3--2-|0-5--3--5--2--3-|0-5--3--5--2--3-|
to control the land Crushing metal strikes on this frightning night
w/ fill 1 
|-----------------------|-----------------------|----------|
|-----------------------|-----------------------|----------|
|-----------------------|-----------------------|----------|
|----7---5---7---4---5--|----7---5---4---5---4--|-2------7-|
|----7---5---7---4---5--|----7---5---4---5---4--|-2------5-|
|-0--5---3---5---2---3--|-0--5---3---2---3---2--|-0--------|
Fall onto your knees for the Phantom Lord
fill 1:
|--12-10-9----10-9-------9-------------------|
|----------12------12-10---12-10-9-12-10-9---|
|------------------------------------------9-|
|--------------------------------------------|
|--------------------------------------------|
|--------------------------------------------|
6x
|----------------------------|---------------------------||
|----------------------------|---------------------------||
|----------------------7--9--|--------------------------*||
|-7--9-9--7-9p7-9--9-9-5--7--|-7--9-9--7-9p7-9--9-9-7---*||
|-5--7-7----7---7--7-7-------|-5--7-7----7---7--7-7-5----||
|----------------------------|---------------------------||

|----------|-------------------|---------------------------|
|----------|-------------------|---------------------------|
|-2--------|-5------4----------|----------------------7--9-|
|-2--------|-5------4---5--5---|-7--9-9--7-9p7-9--9-9-5--7-|
|-0--------|-3------2---5--5---|-5--7-7----7---7--7-7------|
|----------|------------3--3---|---------------------------|
Victims falling.. ..dying pains
|---------------------------|----------------------------|
|---------------------------|----------------------------|
|---------------------------|----------------------7--9--|
|-7--9-9--7-9p7-9--9-9-7----|-7--9-9--7-9p7-9--9-9-5--7--|
|-5--7-7----7---7--7-7-5----|-5--7-7----7---7--7-7-------|
|---------------------------|----------------------------|

|--------------------------|------------|------------------|
|--------------------------|------------|------------------|
|--------------------------|--2---------|--5------4--------|
|-7--9-9--7-9p7-9--9-9-7---|--2---------|--5------4---5--5-|
|-5--7-7----7---7--7-7-5---|--0---------|--3------2---5--5-|
|--------------------------|------------|-------------3--3-|
Fists of terror.. ..nothing you can do
|----------------------------|---------------------------|
|----------------------------|---------------------------|
|----------------------7--9--|---------------------------|
|-7--9-9--7-9p7-9--9-9-5--7--|-7--9-9--7-9p7-9--9-9-7----|
|-5--7-7----7---7--7-7-------|-5--7-7----7---7--7-7-5----|
|----------------------------|---------------------------|

|----------------------------|---------------------------|
|----------------------------|---------------------------|
|----------------------7--9--|---------------------------|
|-7--9-9--7-9p7-9--9-9-5--7--|-7--9-9--7-9p7-9--9-9-7----|
|-5--7-7----7---7--7-7-------|-5--7-7----7---7--7-7-5----|
|----------------------------|---------------------------|

|----------------|----------------|----------------|
|----------------|----------------|----------------|
|----------------|----------------|----------------|
|--7--5--7--4--5-|--7--5--7--4--5-|--7--5--7--4--5-|
|--7--5--7--4--5-|--7--5--7--4--5-|--7--5--7--4--5-|
|0-5--3--5--2--3-|0-5--3--5--2--3-|0-5--3--5--2--3-|






|----------------|----------------|----------------|
|----------------|----------------|----------------|
|----------------|----------------|----------------|
|--7--5--4--5--4-|--7--5--7--4--5-|--7--5--7--4--5-|
|--7--5--4--5--4-|--7--5--7--4--5-|--7--5--7--4--5-|
|0-5--3--2--3--2-|0-5--3--5--2--3-|0-5--3--5--2--3-|
begin solo I 
|-----------------------|-----------------------|---------|
|-----------------------|-----------------------|---------|
|-----------------------|-----------------------|---------|
|----7---5---7---4---5--|----7---5---4---5---4--|-2-------|
|----7---5---7---4---5--|----7---5---4---5---4--|-2-------|
|-0--5---3---5---2---3--|-0--5---3---2---3---2--|-0-------|

|----------------|----------------|----------------|
|----------------|----------------|----------------|
|--5--4--5-------|--5--4--5-------|--5--4--5-------|
|--5--4--5--4--5-|--5--4--5--4--5-|--5--4--5--4--5-|
|--3--2--3--4--5-|--3--2--3--4--5-|--3--2--3--4--5-|
|0----------2--3-|0----------2--3-|0----------2--3-|

|----------------|----------------|----------------|
|----------------|----------------|----------------|
|--5--4--5-------|--5--4--5--5--4-|--5--4--5--5--4-|
|--5--4--5--4--5-|--5--4--5--5--4-|--5--4--5--5--4-|
|--3--2--3--4--5-|--3--2--3--3--2-|--3--2--3--3--2-|
|0----------2--3-|0---------------|0---------------|

|----------------|----------------|----------------|
|----------------|----------------|----------------|
|--5--4--5--5--4-|--5--4--5--5--4-|--5--4--5-------|
|--5--4--5--5--4-|--5--4--5--5--4-|--5--4--5--4--5-|
|--3--2--3--3--2-|--3--2--3--3--2-|--3--2--3--4--5-|
|0---------------|0---------------|0----------2--3-|

|----------------|----------------|----------------|
|----------------|----------------|----------------|
|--5--4--5-------|--5--4--5-------|--5--4--5-------|
|--5--4--5--4--5-|--5--4--5--4--5-|--5--4--5--4--5-|
|--3--2--3--4--5-|--3--2--3--4--5-|--3--2--3--4--5-|
|0----------2--3-|0----------2--3-|0----------2--3-|

|----------------|----------------|----------------|
|----------------|----------------|----------------|
|--5--4--5--5--4-|--5--4--5--5--4-|--5--4--5--5--4-|
|--5--4--5--5--4-|--5--4--5--5--4-|--5--4--5--5--4-|
|--3--2--3--3--2-|--3--2--3--3--2-|--3--2--3--3--2-|
|0---------------|0---------------|0---------------|
slower(tempo=66)
|------------------------|------------------|
|------------------------|------------------|
|-----5---4---5---5---4--|------------------|
|-----5---4---5---5---4--|--5----4----------|
|-----3---2---3---3---2--|------------------|
|--0---------------------|------------------|
play 8x
||------------------------------------||
||---------------------------------0--||
||*------0-------0-------0-----------*||
||*--------2-------2-------2-----2---*||
||-----2-------2-------0-------0------||
||---0-------3-------2-------1--------||
4x faster (tempo=96) 
||------------------------------------||-------------------|
||------------------------------------||-------------------|
||*----------------------------------*||-------------------|
||*----------------------------------*||-------------------|
||---2-2-2-2-2-2-2-2-0-0-0-0-0-0-0-0--||-2----2----2----2--|
||---0-0-0-0-3-3-3-3-2-2-2-2-1-1-1-1--||-0----0----0----0--|


faster (tempo=152) begin solo II
|--------------------|------------|------------------------|
|--------------------|------------|------------------------|
|--------------------|--2---------|--5-------4-------------|
|--------------------|--2---------|--5-------4----5----5---|
|-2----2----2----2---|--0---------|--3-------2----5----5---|
|-0----0----0----0---|------------|---------------3----3---|

||---------------------------------||
||---------------------------------||
||---------------------------------||
||---------------------------------||  x2
||---------------------------------||
||-0-0-0-0-0-0-0-0-0-0-0-0-0-0-0-0-||

|-----------------|--------------------------|
|-----------------|--------------------------|
|--2--------------|--5--------4--------------|
|--2--------------|--5--------4----5----5----|
|--0--------------|--3--------2----5----5----|
|-----------------|----------------3----3----|

||---------------------------------||
||---------------------------------||
||---------------------------------||
||---------------------------------||  x2
||---------------------------------||
||-0-0-0-0-0-0-0-0-0-0-0-0-0-0-0-0-||

|-----------------|--------------------------|
|-----------------|--------------------------|
|--2--------------|--5--------4--------------|
|--2--------------|--5--------4----5----5----|
|--0--------------|--3--------2----5----5----|
|-----------------|----------------3----3----|

||---------------------------------||
||---------------------------------||
||---------------------------------||
||---------------------------------||  x2
||---------------------------------||
||-0-0-0-0-0-0-0-0-0-0-0-0-0-0-0-0-||

|-----------------|--------------------------|
|-----------------|--------------------------|
|--2--------------|--5--------4--------------|
|--2--------------|--5--------4----5----5----|
|--0--------------|--3--------2----5----5----|
|-----------------|----------------3----3----|

||---------------------------------||
||---------------------------------||
||---------------------------------||
||---------------------------------||  x2
||---------------------------------||
||-0-0-0-0-0-0-0-0-0-0-0-0-0-0-0-0-||

|------------|------------|-----------------------------|
|------------|------------|-----------------------------|
|------------|------------|-----------------------7--9--|
|--2---------|------------|--7--9-9--7-9p7-9--9-9-5--7--|
|--2---------|------------|--5--7-7----7---7--7-7-------|
|--0---------|------------|-----------------------------|

|--------------------------|-----------------------------|
|--------------------------|-----------------------------|
|--------------------------|-----------------------7--9--|
|-7--9-9--7-9p7-9--9-9-7---|--7--9-9--7-9p7-9--9-9-5--7--|
|-5--7-7----7---7--7-7-5---|--5--7-7----7---7--7-7-------|
|--------------------------|-----------------------------|

|-------------------------|------------|------------------|
|-------------------------|------------|------------------|
|-------------------------|-2----------|-5------4---------|
|-7--9-9--7-9p7-9--9-9-7--|-2----------|-5------4---5--5--|
|-5--7-7----7---7--7-7-5--|-0----------|-3------2---5--5--|
|-------------------------|------------|------------3--3--|
The leathered.. ..has never failed
|----------------------------|---------------------------|
|----------------------------|---------------------------|
|----------------------7--9--|---------------------------|
|-7--9-9--7-9p7-9--9-9-5--7--|-7--9-9--7-9p7-9--9-9-7----|
|-5--7-7----7---7--7-7-------|-5--7-7----7---7--7-7-5----|
|----------------------------|---------------------------|

|--------------------------------------------------|-------|
|--------------------------------------------------|-------|
|---------------------7--9-------------------------|--2----|
|7--9-9--7-9p7-9--9-9-5--7--7--9-9--7-9p7-9--9-9-7-|--2----|
|5--7-7----7---7--7-7-------5--7-7----7---7--7-7-5-|--0----|
|--------------------------------------------------|-------|
Smoke is..
|----------------------|-----------------------------|
|----------------------|-----------------------------|
|--5--------4----------|-----------------------7--9--|
|--5--------4---5--5---|--7--9-9--7-9p7-9--9-9-5--7--|
|--3--------2---5--5---|--5--7-7----7---7--7-7-------|
|---------------3--3---|-----------------------------|
..volume metal sound
|---------------------------|----------------------------|
|---------------------------|----------------------------|
|---------------------------|----------------------7--9--|
|-7--9-9--7-9p7-9--9-9-7----|-7--9-9--7-9p7-9--9-9-5--7--|
|-5--7-7----7---7--7-7-5----|-5--7-7----7---7--7-7-------|
|---------------------------|----------------------------|

---------------------------------------------------------|
---------------------------------------------------------|
---------------------------------------------------------|
7-9-9--7-9p7-9--9-9-7-----7--5--7--4--5-----7--5--7--4--5|
5-7-7----7---7--7-7-5-----7--5--7--4--5-----7--5--7--4--5|
-----------------------0--5--3--5--2--3--0--5--3--5--2--3|

|----------------|----------------|----------------|
|----------------|----------------|----------------|
|----------------|----------------|----------------|
|--7--5--7--4--5-|--7--5--4--5--4-|--7--5--7--4--5-|
|--7--5--7--4--5-|--7--5--4--5--4-|--7--5--7--4--5-|
|0-5--3--5--2--3-|0-5--3--2--3--2-|0-5--3--5--2--3-|

|----------------|----------------|----------------|
|----------------|----------------|----------------|
|----------------|----------------|----------------|
|--7--5--7--4--5-|--7--5--7--4--5-|--7--5--4--5--4-|
|--7--5--7--4--5-|--7--5--7--4--5-|--7--5--4--5--4-|
|0-5--3--5--2--3-|0-5--3--5--2--3-|0-5--3--2--3--2-|

|----------------|----------------|----------------|
|----------------|----------------|----------------|
|----------------|----------------|----------------|
|--7--5--7--4--5-|--7--5--7--4--5-|--7--5--7--4--5-|
|--7--5--7--4--5-|--7--5--7--4--5-|--7--5--7--4--5-|
|0-5--3--5--2--3-|0-5--3--5--2--3-|0-5--3--5--2--3-|

|----------------------|
|----------------------|
|----------------------|
|----7---5---4---5---4-|
|----7---5---4---5---4-|
|-0--5---3---2---3---2-|



|-------------|-------------|-----------|------------|
|-------------|-------------|-----------|------------|
|-------------|--4----------|-----------|--7---------|
|--2----------|--4----------|--5--------|--7---------|
|--2----------|--2----------|--5--------|--5---------|
|--0----------|-------------|--3--------|------------|
Fall to your knees and bow to the Phantom
(trem. strum, pick fast up and down)
|-----------------|----------------|
|-----------------|----------------|
|--9--------------|----------------|
|--9--------------|----------------|
|--7--------------|----------------|
|-----------------|----------------|
Lord
|---------------------------|-----------------||
|---------------------------|-----------------||
|---------------------------|-----------------||
|-----7----5----4----5---4--|--2--------------||
|-----7----5----4----5---4--|--2--------------||
|--0-----0----0----0--------|--0--------------||
Solo I 
-22p20p17----17-22p20p17----17-22p20p17----17-22p20p17-----|
----------21-------------20-------------20-------------22--|
-----------------------------------------------------------|
-----------------------------------------------------------|
-----------------------------------------------------------|
-----------------------------------------------------------|

-22b--22r----22b--22b--22p19-|
-----------------------------|
-----------------------------|
-----------------------------|
-----------------------------|
-----------------------------|

----19-22p19-----------------------------12|
-22----------22-19----19-22p19--------15---|
-------------------21----------21-19-------|
-------------------------------------------|
-------------------------------------------|
-------------------------------------------|


-15p12----12-15p12-------------------------------|
-------15----------15-12----12-15p12-------------|
-------------------------14b---------14p12----12-|
-------------------------------------------14----|
-------------------------------------------------|
-------------------------------------------------|

-----------------------14-15-|
-15---15---15--15------------|
-14b--14b--14b-14b-----------|
-----------------------------|
-----------------------------|
-----------------------------|

-17p14-15----------------------------------------|
----------17-19p15-17-14-15p14----14-------------|
-------------------------------16----16-14-13-14-|
-------------------------------------------------|
-------------------------------------------------|
-------------------------------------------------|






-------------------------------------------|
-------------------------------------------|
-16p14p13-14p13p11-13--11-9-8h9p8----------|
----------------------------------9--------|
------------------------------------9--9\--|
-------------------------------------------|

--------------------------------|
--------------------------------|
--------------------------7-9p7-|
------------7-7-9p7---7-9-------|
----5-5-7/9---------9-----------|
-7------------------------------|

-------------------12-|
----------------------|
--9r--------7---------|
----------------------|
----------------------|
----------------------|

-19p15p12-19p15p12-19p15p12-19p15p12-|
-------------------------------------|
-------------------------------------|
-------------------------------------|
-------------------------------------|
-------------------------------------|

-20p15p12-20p15p12-20p15p12-20p15p12-|
-------------------------------------|
-------------------------------------|
-------------------------------------|
-------------------------------------|
-------------------------------------|

-22p15p12-22p15p12-22p15p12-22p15p12-|
-------------------------------------|
-------------------------------------|
-------------------------------------|
-------------------------------------|
-------------------------------------|

-20p15p12-20p15p12-20p15p12-20p15p12-|
-------------------------------------|
-------------------------------------|
-------------------------------------|
-------------------------------------|
-------------------------------------|

-18p12-18t19p15p12-20p12-20t20p15p12-|
-------------------------------------|
-------------------------------------|
-------------------------------------|
-------------------------------------|
-------------------------------------|

-22p12-22t22p15p12-20p12-20t20p15p12-|
-------------------------------------|
-------------------------------------|
-------------------------------------|
-------------------------------------|
-------------------------------------|

-19p15p12-20p15p12-19p15p12-20p15p12--|
--------------------------------------|
--------------------------------------|
--------------------------------------|
--------------------------------------|
--------------------------------------|


-19p15p12-20p15p12-19p15p12--|
-----------------------------|
-----------------------------|
-----------------------------|
-----------------------------|
-----------------------------|

----12--15p12----12-15p12--------------------------|
-15b----------15b---------15-12----12-15p12--------|
--------------------------------14----------14--12-|
---------------------------------------------------|
---------------------------------------------------|
---------------------------------------------------|

-------------------------------------------------|
-------------------------------------------------|
-12-12-14p12-------------------------------------|
-------------14-12----12-14p12-------------------|
-------------------14----------14-12-10----------|
----------------------------------------12-12-12-|

---------------------------------|
---------------------------------|
---------------------------7-9p7-|
-------------7-7-9p7---7-9-------|
-----5-7-7/9---------9-----------|
-5/7-----------------------------|

|---------------------------------|
|--------7-10-7-------------------|
|--x-7-9b-------9-7---7-9p7-9r--7-|
|-------------------9-------------|
|---------------------------------|
|---------------------------------|
8x 			4x
|------------------------||--------------------|
|------------------------||--------------------|
|------------------------||*------------------*|
|--9----7----2----1------||*------------------*|
|------------------------||--------------------|
|--------------------3-2-||--------------------|
Solo II:
|----------------|-------------------12-|
|----------------|----------------15----|
|----------------|----------------------|
|----------------|----------------------|
|----------------|----------------------|
|----------------|----------------------|

|--15p12-12-15p12-12-12----------------------------|
|-----------------------15----12-15p12----12-15p12-|
|--------------------------14b---------14b---------|
|--------------------------------------------------|
|--------------------------------------------------|
|--------------------------------------------------|

|--15-12---------------------------------------|---------|
|--------15b15----12-12-15---------------------|---------|
|--------------14b---------14-12----12-14-12\--|--9------|
|--------------------------------14------------|---------|
|----------------------------------------------|---------|
|----------------------------------------------|---------|

|-----------------|--22----22----22----22\-15h17p15-|
|-----------------|---------------------------------|
|-----------------|---------------------------------|
|-----------------|---------------------------------|
|-----------------|---------------------------------|
|-----------------|---------------------------------|


|---22------12--7-8p7p5----|------------------|
|--------------------------|------------------|
|--------------------------|------------------|
|--------------------------|------------------|
|--------------------------|------------------|
|--------------------------|------------------|

|------12-12-----12--12--15-12-------15-12-------|
|--15--------15----------------15-12-------15-12-|
|------------------------------------------------|
|------------------------------------------------|
|------------------------------------------------|
|------------------------------------------------|

|------------------------------------|---------------|
|--12-12-15p12-----------------------|---------------|
|--------------14-12----12-14r-------|---------------|
|--------------------14--------------|---------------|
|------------------------------------|---------------|
|------------------------------------|---------------|

|--------------------------------------------------|
|-----12-15p12-17p12----12-15p12-17p12----12-15p12-|
|--14b---------------14----------------14b---------|
|--------------------------------------------------|
|--------------------------------------------------|
|--------------------------------------------------|

|--------------------------------------------------|
|--17p12----12-15p12-17p12----12-15p12-17p12-12-12-|
|--------14b---------------14b---------------------|
|--------------------------------------------------|
|--------------------------------------------------|
|--------------------------------------------------|

|--15p12----12-15p12-------------------------------|
|--------15----------15p12----12-15p12-------------|
|--------------------------14b---------14-12----14-|
|--------------------------------------------14----|
|--------------------------------------------------|
|--------------------------------------------------|


|-------------------------------------------------------|
|-------------------------------------------------------|
|--12-12-14p12------------------------------------------|
|--------------14p12----12-14p12------------------------|
|--------------------14----------14-12-10--12p10--------|
|--------------------------------------------------12---|
8.no remorse 
Rhy Fig 1
||-------------------------|-----------------------|------------------------|
||*------------------------|-----------------------|------------------------|
||-------------------------|------------------2----|------------------------|
||-------------------------|------------------2----|------------------------|
||*--2/4--------4----------|--2/4--------4----0----|--2/4--------4----------|
||---0h2--2--2--2p0--0--0--|--0h2--2--2--2p0-------|--0h2--2--2--2p0--0--0--|
          PM..       PM..          PM..                    PM..       PM..
            end Rhy Fig 1
|------------------------||
|-----------------------*||
|------------------4-----||
|------------------4-----||
|--2/4--------4----2----*||
|--0h2--2--2--2p0--------||
        PM..





SOLO 1 w/ Rhy fig 1 (6 times) w/wah
|-14----14----14----14----14----14----|-14----14----14----14----14------14--|
|-17b19-17b19-17b19-17b19-17b19-17b19-|-17b19-17b19-17b19-17b19-17b19-------|
|-------------------------------------|-------------------------------------|
|-------------------------------------|-------------------------------------|
|-------------------------------------|-------------------------------------|
|-------------------------------------|-------------------------------------|
 bend lower note to pitch of higher note (unison bends)
|--17p14------14--17p14--17p14------14--17p14--17p14------14--|
|---------17--------------------17--------------------17------|
|-------------------------------------------------------------|
|-------------------------------------------------------------|
|-------------------------------------------------------------|
|-------------------------------------------------------------|

|--17p14--17p14------14--17p14--17p14------14--17p14h17--|
|----------------17--------------------17----------------|
|--------------------------------------------------------|
|--------------------------------------------------------|
|--------------------------------------------------------|
|--------------------------------------------------------|

|-19b21----19----b21-~--17--14-|-17p14------14--17p14----------------------------|
|------------------------------|--------17-------------17--14--17p14-------------|
|------------------------------|--------------------------------------16--14-----|
|------------------------------|----------------------------------------------16-|
|------------------------------|-------------------------------------------------|
|------------------------------|-------------------------------------------------|


|------------------14-----------------17--14--17--14--|
|------------------14--17p14------14--17--14--17--14--|
|--14--16b19--r16-------------16----------------------|
|-----------------------------------------------------|
|-----------------------------------------------------|
|-----------------------------------------------------|

|----------------------------------------|-------------------------------------|
|--17--14--17p14-------------------------|--2--5p2-----2--5p2--5p2--5p2--2--2--|
|-----------------16--14--\----2--4b6----|----------4--------------------------|
|----------------------------------------|-------------------------------------|
|----------------------------------------|-------------------------------------|
|----------------------------------------|-------------------------------------|

|---------------------------------|----------------------------|
|--5p2----------------------------|----------------------------|
|-------4--2-----2--4--4b6--r4p2--|-----2--4p2-----------------|
|-------------4-------------------|--4----------4--2-----------|
|---------------------------------|-------------------4--2-----|
|---------------------------------|-------------------------5--|
                                                     PM.......
|-------------------------|--------------------------|----------5tr(2)--|
|-------------------------|--------------------------|--5tr(2)----------|
|-------------------------|------------------4tr(2)--|------------------|
|--------------2-~-~---2--|--4tr(2)--4tr(2)----------|------------------|
|--------2--4--------4----|--------------------------|------------------|
|--2--5-------------------|--------------------------|------------------|
  PM.........|
                   AH   AH   AH         AH   AH
|--5p2--2--5p2-----------------------|------------------------------14--|
|---------------5--{2}---------------|-------------------------/14------|
|-----------------------{4}--{2}-----|--{2}--{4}b6--r4p2----------------|
|---------------------------------4--|--------------------4-------------|
|------------------------------------|----------------------------------|
|------------------------------------|----------------------------------|






|--17p14------14--17p14--19p14--17p14--14--14--17p14--19p14--|
|---------17-------------------------------------------------|
|------------------------------------------------------------|
|------------------------------------------------------------|
|------------------------------------------------------------|
|------------------------------------------------------------|

|--17p14--14--14--17p14--19p14--17p14------14--17p14--14--14--|
|--------------------------------------17---------------------|
|-------------------------------------------------------------|
|-------------------------------------------------------------|
|-------------------------------------------------------------|
|-------------------------------------------------------------|

|-17p14------------------------------|---------------------------------------|
|--------17--14----------------------|---------------------------------------|
|----------------16--14------14--16b-|-18--16b19--16b18--~--~--16b18--r16p14-|
|------------------------16----------|---------------------------------------|
|------------------------------------|---------------------------------------|
|------------------------------------|---------------------------------------|


|------------------------------|--17b18----17b19----17b18----17--14--|
|--17-b-19--r17--~--~--17--14--|-------------------------------------|
|------------------------------|-------------------------------------|
|------------------------------|-------------------------------------|
|------------------------------|-------------------------------------|
|------------------------------|-------------------------------------|

|-17p14----14-------------------------|----------------------------------|
|-------17----17-14-17p14----14-------|----------------------------------|
|-------------------------16----16-14-|-16p14----------------------------|
|-------------------------------------|-------16-14----14-16p14----------|
|-------------------------------------|-------------16----------16-14----|
|-------------------------------------|-------------------------------17-|
w/ Rhy Fig 1                              Rhy Fig 2
||------------|---------|---------|--------||-------------------------|
||*-----------|---------|---------|-------*||*------------------------|
||------------|---------|---------|--------||-------------------------|
||------------|---------|---------|--------||-------------------------|
||*-----------|---------|---------|-------*||*--------5h7--------5h7--|
||---14--\----|---------|---------|--------||---0--0-------0--0-------|
  1st time only                                 PM..|      PM..|
                                                             end Rhy Fig 2
|------------------------|------------------------|-----------------------||
|------------------------|------------------------|----------------------*||
|-------------------5----|------------------------|-----------------------||
|-------------------5----|------------------------|-------------7--8--9---||
|--------5h7--------3----|--------5h7--------5h7--|--------5h7--7--8--9--*||
|--0--0-------0--0-------|--0--0-------0--0-------|--0--0-------5--6--7---||
   PM..|      PM..|         PM..|      PM..|         PM..|
S/S S/S
w/ Rhy Fig 2
||-----------|-----------|----------|-----------||
||*----------|-----------|----------|----------*||
||-----------|-----------|----------|-----------||
||-----------|-----------|----------|-----------||
||*----------|-----------|----------|----------*||
||-----------|-----------|----------|-----------||
1st, 2nd, 3rd veses
w/ Rhy Fig 2 (2 times)
Pre chorus
Guitars out: "War without end."
Then:
|--------------|---------------|------------|---------------|
|--------------|---------------|------------|---------------|
|--------------|---------------|------------|---------------|
|--------5-----|--5-----5------|------5-----|--5-----5------|
|--------5-----|--5-----5------|------5-----|--5-----5------|
|--3--0-----0--|-----0-----0-3-|---0-----0--|-----0-----0-3-|
     PM    PM       PM    PM      PM    PM       PM    PM


|-------------|---------------|------------|--------------|
|-------------|---------------|------------|--------------|
|-------------|---------------|------------|--------------|
|-------5-----|--5-----5------|------5-----|--5-----5-----|
|-------5-----|--5-----5------|------5-----|--5-----5-----|
|----0-----0--|-----0-----0-3-|---0-----0--|-----0-----0--|
    PM    PM       PM    PM      PM    PM       PM    PM
Chorus
Rhy Fig 3                                 end Rhy Fig 3
||---------------------------|--------------------------|
||*--------------------------|--------------------------|
||---------------------------|--------------------------|
||---------------------------|--------------------------|
||*-------10--------9--------|--7--------5--------5--7--|
||--0--0------0--0-----0--0--|-----0--0-----0--0--------|
    PM..      PM..     PM..        PM..     PM..
|---------------------------|--------------------------|
|---------------------------|--------------------------|
|---------------------------|--------------------------|
|---------------------------|--------------------------|
|-------10--------9---------|--7--------5--------5--7--|
|--0--0------0--0-----0--0--|-----0--0-----0--0--------|
   PM..      PM..     PM..        PM..     PM..
|---------------------------|--------------------------|
|---------------------------|--------------------------|
|---------------------------|--------------------------|
|---------------------------|--------------------------|
|--------10--------9--------|--7--------5--------5--7--|
|--0--0------0--0-----0--0--|-----0--0-----0--0--------|
   PM..|     PM..|    PM.. |      PM..|    PM..|
                             __________________________
                            |1.                        |
|---------------------------|-------------------------||
|---------------------------|------------------------*||
|---------------------------|-----------5-----5\4-----||
|---------------------------|-----------5-----5\3-----||
|--------10--------9--------|--7---------------------*||
|--0--0------0--0-----0--0--|-----0--0----------------||
   PM..|     PM..|    PM..|       PM..|
___________________________
|2.  1st time DS al Coda 1 |
|    2nd time to Coda 1    |  
|    3rd time to Coda 2    |

|--------------------------|
|--------------------------|
|-----------5-----5\4------|
|-----------5-----5\3------|
|--7-----------------------|
|-----0--0-----------------|
Coda 1
||-------------------||
||*-----------------*||
||-------------------||
||----X----X----X----||
||*---X----X----X---*||
||----X----X----X----||
 Pick scrapes: 
 Mute strings w/ left hand
 and scrape up & down w/ pick
 approx. over middle pickup
 Rhy Fig 4
||-------------------------|-------------------------|-------------------------|
||*------------------------|-------------------------|-------------------------|
||--------------------9----|--------------------7----|--------------------5----|
||--------------------9----|--------------------7----|--------------------5----|
||*-------------------7----|--------------------5----|--------------------3----|
||--0--0--2-3-2-0--0-------|--0--0--2-3-2-0--0-------|--0--0--2-3-2-0--0-------|
   PM..............|         PM..............|         PM..............|
                   4 times
             end Rhy Fig 4
|-------------------------||
|------------------------*||
|--------------------7----||
|--------------------7----||
|--------------------5---*||
|--0--0--2-3-2-0--0-------||
   PM..............|
SOLO 2 w/ Rhy Fig 4 (4 times)
|-----------------------|----------------------------|
|--15-----15-----15-----|--------------15-----15-----|
|--14b16--16b18--14b16--|--r14--14b16--14b16--14b16--|
|-----------------------|----------------------------|
|-----------------------|----------------------------|
|-----------------------|----------------------------|

|--12----------------------|----------------------------|
|--12--14--12----------14--|--14--15--14----------------|
|------14--12------12--14--|--14--15--14------12--~--~--|
|--------------14----------|--------------14------------|
|--------------------------|----------------------------|
|--------------------------|----------------------------|

|--15b17----15b17----15b17--|--15b17----15b17----15b16----15--12--|
|---------------------------|-------------------------------------|
|---------------------------|-------------------------------------|
|---------------------------|-------------------------------------|
|---------------------------|-------------------------------------|
|---------------------------|-------------------------------------|

|--15p12--------------------------------------|----------------------------------12--|
|--------15--12-----12--15p12-----------------|-----------------------------/15------|
|---------------14------------14--12------12--|--14p12-------------------------------|
|-------------------------------------14------|--------14--12------------------------|
|---------------------------------------------|----------------14--12--10------------|
|---------------------------------------------|--------------------------------------|

|-15p12---------------15p12-----------------|-15p12---------------15p12--------------|
|-------15--12---------------15--12---------|-------15--12--------------15--12----12-|
|--------------14--12----------------14--12-|--------------14--12--------------14----|
|-------------------------------------------|----------------------------------------|
|-------------------------------------------|----------------------------------------|
|-------------------------------------------|----------------------------------------|

|--15p12-----------------------------------------|-----------------------------------|
|---------15--12------12--15p12------------------|-------------------------------12--|
|-----------------14-------------14--12------12--|--14--14b17--r14p12--14-~--15------|
|----------------------------------------14------|-----------------------------------|
|------------------------------------------------|-----------------------------------|
|------------------------------------------------|-----------------------------------|

|-15p12----14p12-----15p12-----17p12----|-15p12------14p12------15p12------17p12-----|
|-------12-------12--------12--------12-|--------12---------12---------12---------12-|
|---------------------------------------|--------------------------------------------|
|---------------------------------------|--------------------------------------------|
|---------------------------------------|--------------------------------------------|
|---------------------------------------|--------------------------------------------|

|--14p12--14--15p14--15--17p15--17--19p17--18--|
|----------------------------------------------|
|----------------------------------------------|
|----------------------------------------------|
|----------------------------------------------|
|----------------------------------------------|






|--20p18--18--22p19--22--22b24--22b24--|
|--------------------------------------|
|--------------------------------------|
|--------------------------------------|
|--------------------------------------|
|--------------------------------------|
 w/ Rhy Fig 4
||--22b25--r22\19-\----|---------------|---------------|---------------||
||*--------------------|---------------|---------------|--------------*||
||---------------------|---------------|---------------|---------------||
||---------------------|---------------|---------------|---------------||
||*--------------------|---------------|---------------|--------------*||
||---------------------|---------------|---------------|---------------||
  1st time only
||---10---8-7-8---7----7-----------------||
||*-----------------10-----10-8-7-8-10--*||
||---------------------------------------||
||---------------------------------------||
||*-------------------------------------*||
||---------------------------------------||
 two guitars                             DSS al Coda 2
|---10---8-7-8---7----7----------------|--------------|
|---10---8-7-8---7-10-7---10-8-7-8-10--|--------------|
|-------------------9------9-7-6-7-9---|--------------|
|--------------------------------------|--7-----------|
|--------------------------------------|--5--------7--|
|--------------------------------------|-----------5--|
Coda 2
Guitars out: "Attack!_____"
Then:
Rhy Fig 5
||-----------------------------------|----------------------------------|
||*----------------------------------|----------------------------------|
||-----------------------------------|----------------------------------|
||---2-------------------------------|--7-------------------------------|
||*--0--0-0-0-0-0-0-0-0-0-0-0-0-0-0--|--5--0-0-0-0-0-0-0-0-0-0-0-0-0-0--|
||-----------------------------------|----------------------------------|
       PM..........................|      PM..........................|
                                                    end Rhy Fig 5
|----------------------------------|------------------------------||
|----------------------------------|-----------------------------*||
|----------------------------------|------------------------------||
|--4-------------------------------|--5--------------4---5---4----||
|--2--0-0-0-0-0-0-0-0-0-0-0-0-0-0--|--3--0-0-0-0-0-0-2---3---2---*||
|----------------------------------|------------------------------||
     PM..........................|      PM..........|
Rhy Fig 6
||------------------------|----------------------|
||*-----------------------|----------------------|
||---2--2-------5--2------|--2--2------7--5------|
||---2--2-------5--2------|--2--2------7--5------|
||*----------0---------0--|---------0---------0--|
||------------------------|----------------------|
                                   end Rhy Fig 6
|----------------------|------------------------|
|----------------------|------------------------|
|--2--2------5--2------|--2--2------4--5----4---|
|--2--2------5--2------|--2--2------4--5----4---|
|---------0---------0--|---------0--------------|
|----------------------|------------------------|
 w/ Rhy Fig 6
|------------|-------------|-------------|-------------|
|------------|-------------|-------------|-------------|
|------------|-------------|-------------|-------------|
|------------|-------------|-------------|-------------|
|------------|-------------|-------------|-------------|
|------------|-------------|-------------|-------------|
 Soldiers...                Canons...
 w/ Rhy Fig 5 (2 times)


|------------|-------------|-------------|-------------|
|------------|-------------|-------------|-------------|
|------------|-------------|-------------|-------------|
|------------|-------------|-------------|-------------|
|------------|-------------|-------------|-------------|
|------------|-------------|-------------|-------------|
                                          ______________
                                         | 1.           |
|------------|-------------|-------------|-------------||
|------------|-------------|-------------|------------*||
|------------|-------------|-------------|-------------||
|------------|-------------|-------------|-------------||
|------------|-------------|-------------|------------*||
|------------|-------------|-------------|-------------||
 _____________
| 2.
|----------------------------|------------|-------------|-------------|
|----------------------------|------------|-------------|-------------|
|----------------------------|------------|-------------|-------------|
|--5--------------4---5---4--|--5----4----|--2----------|--2----------|
|--3--0-0-0-0-0-0-2---3---2--|--3----2----|--2----------|--2----------|
|----------------------------|------------|--0----------|--0----------|
                                            //            //
|-------------|------------|------------------|--------------|
|-------------|------------|------------------|--------------|
|-------------|------------|------------------|--7-----------|
|--2----------|------------|------------------|--7-----------|
|--2----------|--X\--------|------------------|--5-----------|
|--0----------|--X\--------|--0---0--2--3--2--|--------------|
  //           pick slide     PM............|
|------------------|------------|
|------------------|------------|
|------------------|------------|
|------------------|--2---------|
|------------------|--2---------|
|--0---0--2--3--2--|--0---------|
   PM............|
9. seek and destroy 
Riff 1                                     Riff 2
|---------------------------------------|-----------------|
|---------------------------------------|-----------------|
|------7h8--7--------------------5------|-9-7---7---------|
|---------------7h8--7-------5-----7----|-----9---9-8-7/5-|
|--0-0--------0--------0-8-7---7--------|-----------------|
|---------------------------------------|-----------------| 
 Riff 3                                      Riff 4
|----------------------------------------|-----------------------------------|
|----------------------------------------|-----------------------------------|
|----------------------------------------|-----------------------------------|
|----------5-7-5-7-----------------------|-----------------------------5-----|
|----------5-7-5-7--------------10-7-----|-------------------------------7---|
|--0-0-0-0--------------0-0-0-0------7-6-|-0-0-0-0-0-0-0-0-0-0-0-0-7-6-------|  
  Riff5                                          Riff 6
e|-------------------------------------------------------|----------------|
B|-------------------------------------------------------|----------------|
G|-------------------------------------------------------|7-5-----0-------|
D|5---------5s7--5---5---------5s7--5---5---------5s7--5-|----7-6-------0-|
A|5---------5s7--5---5---------5s7--5---5---------5s7--5-|----------7-6---|
E|3--0-0-0--3s5--3---3--0-0-0--3s5--3---3--0-0-0--3s5--3-|----------------|
                    Riff 5                                               Riff 2
e|-------------------------------------------------------|----------------|
B|-------------------------------------------------------|----------------|
G|-------------------------------------------------------|-9-7---7--------|
D|5---------5s7--5---5---------5s7--5---5---------5s7--5-|-----9---9-8-7-5|
A|5---------5s7--5---5---------5s7--5---5---------5s7--5-|----------------|
E|3--0-0-0--3s5--3---3--0-0-0--3s5--3---3--0-0-0--3s5--3-|----------------|
                                                   Repeat once  




e|------------------------------------------------------------------------|
B|------------------------------------------------------------------------|
G|--7++++++6++++++5+++----------------------------------------------------|
D|--5++++++4++++++3+++----------------------------------------------------|
A|------------------------------------------------------------------------|
E|---------------------0-0-0-0-0-0-0-0-0-0-0-0-0-0-0-0--------------------|
 
|----------------------------------------|-----------------------------------|
|----------------------------------------|-----------------------------------|
|----------------------------------------|-----------------------------------|
|----------5-7-5-7-----------------------|-----------------------------5-----|
|----------5-7-5-7--------------10-7-----|-------------------------------7---|
|--0-0-0-0--------------0-0-0-0------7-6-|-0-0-0-0-0-0-0-0-0-0-0-0-7-6-------| 
 Riff5                                          Riff 6
e|-------------------------------------------------------|----------------|
B|-------------------------------------------------------|----------------|
G|-------------------------------------------------------|7-5-----0-------|
D|5---------5s7--5---5---------5s7--5---5---------5s7--5-|----7-6-------0-|
A|5---------5s7--5---5---------5s7--5---5---------5s7--5-|----------7-6---|
E|3--0-0-0--3s5--3---3--0-0-0--3s5--3---3--0-0-0--3s5--3-|----------------|
                    Riff 5                                               Riff 2
e|-------------------------------------------------------|----------------|
B|-------------------------------------------------------|----------------|
G|-------------------------------------------------------|-9-7---7--------|
D|5---------5s7--5---5---------5s7--5---5---------5s7--5-|-----9---9-8-7-5|
A|5---------5s7--5---5---------5s7--5---5---------5s7--5-|----------------|
E|3--0-0-0--3s5--3---3--0-0-0--3s5--3---3--0-0-0--3s5--3-|----------------|
                                                   Repeat once 
e|------------------------------------------------------------------------|
B|------------------------------------------------------------------------|
G|--7++++++6++++++5+++----------------------------------------------------|
D|--5++++++4++++++3+++----------------------------------------------------|
A|------------------------------------------------------------------------|
E|---------------------0-0-0-0-0-0-0-0-0-0-0-0-0-0-0-0--------------------|


|----------------------------------------------------|
|----------------------------------------------------|
|----------------------------------------------------|
|--5-----------7-----------5-------------------------|
|--5---7---7---7---7---7---5---7---7-------0-7-6-5---|
|----0---0---0---0---0---0---0---0---7-6-5-----------| 

|--------------|
|--------------|
|--------------|
|--------------|
|--12-11-10-9--|
|--10-9--8--7--|  
 
|--------12--15h12--12-15h12-17h12-15h12--12-15h12-17h12-----------------|
|12-/-15----------12--------------------15-------------------------------|
|------------------------------------------------------------------------|
|------------------------------------------------------------------------|
|------------------------------------------------------------------------|
|------------------------------------------------------------------------|

|15h12----12----12-------------|-----------------------------------------|
|------15----15----15----------|-15----------15--------------------------|
|------------------------------|-----------------------------------------|
|------------------------------|-----------------------------------------|
|------------------------------|-----------------------------------------|
|------------------------------|-----------------------------------------|

|7---7-10-7----7-7-------------------------------------------------------|
|-----------10-------10h7-10h7-------------------------------------------|
|------------------------------9-----------------------------------------|
|------------------------------------------------------------------------|
|------------------------------------------------------------------------|
|------------------------------------------------------------------------|


|--------------------------------|---------------------------------------|
|--------------------------------|---------------------------------------|
|7---7---9----9h7----------------|---------------------------------------|
|--9-----------------9---9-------|---9-----------------------------------|
|--------------------------------|---------------------------------------|
|--------------------------------|---------------------------------------|


|-------------|-17------------15-14-13-----------------------------------|
|-------------|--------------14--------14--------------------------------|
|-------------|------------15--------------------------------------------|
|9------------|----------------------------------------------------------|
|-------------|----------------------------------------------------------|
|-------------|----------------------------------------------------------|

|------------------------------|-----------------------------------------|
|15--------14----15------------|-15---15---------------------------------|
|---16-------------------------|-----------------------------------------|
|------17----------------------|-----------------------------------------|
|------------------------------|-----------------------------------------|
|------------------------------|-----------------------------------------|

|----21-20-23-20-26-22-19-19-20-21-17-15-19-16-14-14-17------------------|
|-23---------------------------------------------------------------------|
|------------------------------------------------------------------------|
|------------------------------------------------------------------------|
|------------------------------------------------------------------------|
|------------------------------------------------------------------------|

|14-12-16-12-11-14-12--11-9--7-10h7-----7-10h7---------------------------|
|-------------------------------------10--------10-7---------------------|
|------------------------------------------------------------------------|
|------------------------------------------------------------------------|
|------------------------------------------------------------------------|
|------------------------------------------------------------------------|


|-----------------------------|------------------------------------------|
|10h7----------7--------------|------------------------------------------|
|-----9--7--9-----9--9----9h7-|-9--7---7--7------------------------------|
|-----------------------------|------9-----------------------------------|
|-----------------------------|------------------------------------------|
|-----------------------------|--------------------5--5------------------|

|----------------------------|-------------------------------------------|
|----------------------------|-------------------------------------------|
|----------------------------|-7--9--9----9h7--9-------------------------|
|-----------7--9h7-----7h9-9-|-------------------------------------------|
|--5---/-9---------9---------|-------------------------------------------|
|7---------------------------|-------------------------------------------|

|------------------------------------------------------------------------|
|-----------------------7--10h7------------------------------------------|
|7---7--------7--9--9------------9--7------------------------------------|
|-------------9--------------------------9-------------------------------|
|------------------------------------------------------------------------|
|------------------------------------------------------------------------|

|------------------------------------------------------------------------|
|---------------------------------12-------------------------------------|
|7---9-------9h7---9---------/-14----------------------------------------|
|------------------------------------------------------------------------|
|------------------------------------------------------------------------|
|------------------------------------------------------------------------|






|-----/12-------------------/12------------------------------------------|
|15---------15h12----12--15-----15h12-12-15------------------------------|
|-----------------14-----------------------------------------------------|
|------------------------------------------------------------------------|
|------------------------------------------------------------------------|
|------------------------------------------------------------------------|

|--/-12--------------/-12--12-|-15h12------------------------------------|
|15------15h12-15--15----15---|------15-12--12-15h12---------------------|
|-----------------------------|-----------14--------14-12----------------|
|-----------------------------|------------------------------------------|
|-----------------------------|------------------------------------------|
|-----------------------------|------------------------------------------|

|------------------------------------------------------------------------|
|------------------------------------------------------------------------|
|--12-14^12--------------------------------------------------------------|
|14--------14-12---------------------------------------------------------|
|---------------14-12----------------12----------------------------------|
|--------------------15----------15--------------------------------------|


|------------------------------------------------------------------------|
|------------------------------------------------------------------------|
|---------------------------12----12-------------------------------------|
|---------12----12-14-12-14----14----------------------------------------|
|14-12-14----14----------------------------------------------------------|              
|------------------------------------------------------------------------|

|--------------------------12----12--------------------------------------|
|------------12----12-15-12-15----15-------------------------------------|
|-----14-12-14---14------------------------------------------------------|
|------------------------------------------------------------------------|
|------------------------------------------------------------------------|
|------------------------------------------------------------------------|

|15h12------------------------|------------------------------------------|
|-----15-12-\-12-15h12--------|------------------------------------------|
|---------------------14-12-\-|------------------------------------------|
|-----------------------------|------------------------------------------|
|-----------------------------|-------8-7-5------------------------------|
|-----------------------------|-8-7-5-------8-5--------------------------|

|-----------------------|------------------------------------------------|
|-----------------------|------------------------------------------------|
|-----------------------|---2--------------------------------------------|
|-----------------------|---2--------------------------------------------|
|------8-7-5------------|---0--------------------------------------------|
|8-7-5------8-5---------|------------------------------------------------| 
                                                   Repeat once  
|---------------------------------------------|----------------------------------|
|---------------------------------------------|----------------------------------|
|---------------------------------------------|----------------------------------|
|---------------------------------------------|----------------------------------|
|--12-11-10-9---------------------------------|----------------------------------|
|--10-9--8--7-0-0-0-0-0-0-0-0-0-0-0-0-0-0-0---|-0-0-0-0-0-0-0-0-0-0-0-0-0-0-0-0-0| 

|-----------------------------------|
|-----------------------------------|
|-----------------------------------|
|-----------------------------------|
|--8-7-----10-9-----7-6-------------|
|--6-5-0-0-8--7-0-0-5-4-0-0-0-0-0-0-| 

|------------------|
|------------------|
|--9-7---7---------|
|------9---9-8-7/5-|
|------------------|
|------------------|
   Repeat 2x 
10. metal militia 
|------------|----------------||--------------------------------------------|
|------------|----------------||*-------------------------------------------|
|------------|----------------||--------------------------------------------|
|------------|----------------||--------------------------------------------|
|--------3/7-|--8----8--7--5--||*-----------------------------------5----7--|
|--------1/5-|--6----6--5--3--||---0--0--0--0--0--0--0--0--0--0--0--3----5--|
				  PM..............................]	     
|-------------------------------------------|-------------------------------------------|
|-------------------------------------------|-------------------------------------------|
|-------------------------------------------|-------------------------------------------|
|-------------------------------------------|-------------------------------------------|
|-----------------------------------8----7--|-----------------------------------5----7--|
|--0--0--0--0--0--0--0--0--0--0--0--6----5--|--0--0--0--0--0--0--0--0--0--0--0--3----5--|
  PM..............................]           PM..............................]
|-------------------------------------------|------------------------------------||
|-------------------------------------------|-----------------------------------*||
|-------------------------------------------|------------------------------------||
|-------------------------------------------|------------------------------------||
|-----------------------------------5----7--|--------------------------8--7--5--*||
|--0--0--0--0--0--0--0--0--0--0--0--3----5--|--3--3--3--3--3--3--3--3--6--5--3---||
  PM..............................]           PM.....................]
							 ___________________
 w/ Rhy.Fig.1(4 times) (4th time 1st 3 bars only)       | 1.2.3.            | 
||----------------|------------------|------------------|-------------------||
||*---------------|------------------|------------------|------------------*||
||----------------|------------------|------------------|-------------------||
||----------------|------------------|------------------|-------------------||
||*---------------|------------------|------------------|------------------*||
||----------------|------------------|------------------|-------------------||
4.                                                                    
|--------------------------|--------------------|---------------|
|--------------------------|--------------------|---------------|
|--------------------------|--------------------|---------------|
|--------------------------|--------------------|---------------|
|--------------------------|--8--7--5--8--7--5--|--7--------12\-|
|--0--0--0--0--0--0--0--0--|--6--5--3--6--5--3--|--5------------|
  PM......................]
  Rhythm Fig. 2      play 3 times          end Rhy. Fig. 2                     play 3 times
||-------------------------------||-----------------------||----------------------------|
||*-----------------------------*||-----------------------||*--------------------------*|
||-------------------------------||-----------------------||----------------------------|
||-----7-----5-----2-----1----0--||--8\3--5---------------||-----7-----5-----2-----1-0--|
||*-0-----0-----0-----0---------*||--6\1-----3---5--7--8--||*-0-----0-----0-----0------*|
||-------------------------------||--------------3--5--6--||----------------------------|
                           w/ Rhy. Fig. 2                                      
||-----------------------||-------------|------------|------------|-------------|
||-----------------------||*------------|------------|------------|------------*|
||-----------------------||-------------|------------|------------|-------------|
||--8\3----5-------------||-------------|------------|------------|-------------|
||--6\1----3----5--7--8--||*------------|------------|------------|------------*|
||--------------3--5--6--||-------------|------------|------------|-------------|
 w/ Rhy. Fig. 2
|---------|---------|---------|---------|---------|---------|---------|---------|-------
|---------|---------|---------|---------|---------|---------|---------|---------|-------
|---------|---------|---------|---------|---------|---------|---------|---------|-------
|---------|---------|---------|---------|---------|---------|---------|---------|-------
|---------|---------|---------|---------|---------|---------|---------|---------|-------
|---------|---------|---------|---------|---------|---------|---------|---------|-------
1. Thunder...       Senseless...         Victims...          Running...         Stabbing..
|---------|---------|---------|---------|---------|---------|---------|
|---------|---------|---------|---------|---------|---------|---------|
|---------|---------|---------|---------|---------|---------|---------|
|---------|---------|---------|---------|---------|---------|---------|
|---------|---------|---------|---------|---------|---------|---------|
|---------|---------|---------|---------|---------|---------|---------|
          Leaving...           Suicide...          Ripping...                




Pre-Chorus                                                    
|-------------------|----------------|-----------|-------------|
|-------------------|----------------|-----------|-------------|
|-------------------|----------------|-----------|-------------|
|--7--7------7------|--5----3--2--2--|--7--------|--5----3--5--|
|--5--5------5------|--3----1--0--0--|--5--------|--3----1--3--|
|-------------------|----------------|-----------|-------------|
 Oh!
Chorus
 Rhy. Fig. 3
|-------------------------------------------|-------------------------------------------|
|-------------------------------------------|-------------------------------------------|
|-------------------------------------------|-------------------------------------------|
|-----------------------------------3----7--|-----------------------------------8----7--|
|--0--0--0--0--0--0--0--0--0--0--0--1----5--|--0--0--0--0--0--0--0--0--0--0--0--6----5--|
|-------------------------------------------|-------------------------------------------|
  PM..............................]	      PM..............................]
3rd time to CODA 2 end Rhy. Fig.3  
|-------------------------------------------|-----------------------------------|
|-------------------------------------------|-----------------------------------|
|-------------------------------------------|-----------------------------------|
|-----------------------------------3----7--|--------------------------8--7--5--|
|--0--0--0--0--0--0--0--0--0--0--0--1----5--|--0--0--0--0--0--0--0--0--6--5--3--|
|-------------------------------------------|-----------------------------------|
PM..............................]           PM.....................]
4th time to CODA 1  __________________
 w/ Rhy. Fig.3(3 times) (3rd time 1st 3 bars only)        | 1.2.             |
||------------------|------------------|------------------|------------------||
||*-----------------|------------------|------------------|-----------------*||
||------------------|------------------|------------------|------------------||
||------------------|------------------|------------------|------------------||
||*-----------------|------------------|------------------|-----------------*||
||------------------|------------------|------------------|------------------||
 Rhy. Fig. 4				        end Rhy. Fig.4
 3.                           
|--------------------------|--------------------|------------|
|--------------------------|--------------------|------------|
|--------------------------|--------------------|------------|
|--------------------------|--8--7--5--8--7--5--|--7---------|
|--0--0--0--0--0--0--0--0--|--6--5--3--6--5--3--|--5---------|
|--------------------------|--------------------|------------|
  PM.....................]
CODA 1
 w/ Rhy. Fig.4
|-------------|-------------|------------|
|-------------|-------------|------------|
|-------------|-------------|------------|
|-------------|-------------|------------|
|-------------|-------------|------------|
|-------------|-------------|------------|
Solo
|--------------------------------|----8---------------------8--------7--|
|---------12--------10--------9--|--8b9-------r8----b9----8b9-----------|
|-----10------8--9---------8-----|--------------------------------------|
|--9--------------------7--------|--------------------------------------|
|--------------------------------|--------------------------------------|
|--------------------------------|--------------------------------------|

|--10p7------7--10p7---------------------------------|
|--------10-----------10--7--7--7--10p7--------------|
|----------------------------------------9--7-----7--|
|----------------------------------------------9-----|
|----------------------------------------------------|
|----------------------------------------------------|

|---------------------------------------------|--------------------------------|
|---------------------------------------------|--------------------------------|
|--9--7-----7--9--7---------------------------|--------------------------------|
|--------9-----------9--7--9p7-----7--9p7-----|--------------------------------|
|-------------------------------9----------9--|--9\7--5----7--5-------5-~------|
|---------------------------------------------|------------------7-------------|

|--------------------------------------|------------------------10p7--------------------|
|--------------------------------------|----------------7--10p7------10--7------7--10p7-|
|---------------------------------7--9-|-9p7---7--9b11----------------------10----------|
|--------------X--7--9p7----7--9-------|-----9------------------------------------------|
|------5--5/9------------9-------------|------------------------------------------------|
|-5h7----------------------------------|------------------------------------------------|

|--10p7--------------------------------------------|
|--------10--7------7--10p7------------------------|
|---------------10-----------9--7-----{9}b11------r|
|----------------------------------9---------------|
|--------------------------------------------------|
|--------------------------------------------------|

|------------------------------------------7--|
|------------------------------------/7-------|
|--{9}b11----9b11----9b11-~------r9--/7-------|
|---------------------------------------------|
|---------------------------------------------|
|---------------------------------------------|

|--9--7--7--9--10--10--9--10--12--12--10--12--14--14--12--13--15--|
|-----------------------------------------------------------------|
|-----------------------------------------------------------------|
|-----------------------------------------------------------------|
|-----------------------------------------------------------------|
|-----------------------------------------------------------------|

|--15--14--14--15--17----16--17--19----17--19--20----19----|
|----------------------------------------------------------|
|----------------------------------------------------------|
|----------------------------------------------------------|
|----------------------------------------------------------|
|----------------------------------------------------------|

|--22b24----r--b24--22b24------22b25--|--22b25---r--19h22p19----19--19--|
|-------------------------------------|---------------------------------|
|-------------------------------------|---------------------------------|
|-------------------------------------|---------------------------------|
|-------------------------------------|---------------------------------|
|-------------------------------------|---------------------------------|

|--22p19------19--22p19-------------------------19h22p19----------|
|---------22-------------22--19------19--22p19------------22--19--|
|--------------------------------22-------------------------------|
|-----------------------------------------------------------------|
|-----------------------------------------------------------------|
|-----------------------------------------------------------------|

|-----------------19h22p19---------------------------------------|
|------19--22p19------------22--19--19--22p19---------19--22p19--|
|--22------------------------------------------21b23-------------|
|----------------------------------------------------------------|
|----------------------------------------------------------------|
|----------------------------------------------------------------|

|--------------------22p19\18---------------------------22p19\18---------|
|---------19--22p19------------22p19---------19--22p19------------22p19--|
|--21b23------------------------------21b23------------------------------|
|------------------------------------------------------------------------|
|------------------------------------------------------------------------|
|------------------------------------------------------------------------|

|-----------------------------------|-------------------------------------------------|
|---------19--22p19------19--22p19--|--22b24---22b24---22b24---22b24---22b24---22b24--|
|--21b23-------------21-------------|-------------------------------------------------|
|-----------------------------------|-------------------------------------------------|
|-----------------------------------|-------------------------------------------------|
|-----------------------------------|-------------------------------------------------|
 
|-------------------|
|--22b24-~----------|
|-------------------|
|-------------------|
|-------------------|
|-------------------|
 Interlude
|-----------|----------|--------------------------------------------------|
|-----------|----------|--------------------------------------------------|
|-----------|----------|--------------------------------------------------|
|--2--------|----------|--------------------------------------------------|
|--0--------|----------|--0--0--0--0--0--0--0--0--0--0--0--0--0--0--0--0--|
|-----------|----------|--------------------------------------------------|
                         PM.............................................] 
play 4 times
|--------------------------------------------------||-------------------------------||
|--------------------------------------------------||*-----------------------------*||
|--------------------------------------------------||-------------------------------||
|--------------------------------------------------||---8----3----5-----------------||
|--0--0--0--0--0--0--0--0--0--0--0--0--0--0--0--0--||*--6----1----3----5--5--7--3--*||
|--------------------------------------------------||------------------3--3--5--1---||
  PM.............................................]
play 4 times
||-----------------------------------||-----------------------------------||
||*---------------------------------*||*---------------------------------*||
||-----------------------------------||-----------------------------------||
||--------5----7------------4--------||--------6----8----3--3----5--------||
||*--3----3----5----7--7----2----5--*||*--4----4----6----1--1----3----6--*||
||---1--------------5--5---------3---||---2---------------------------4---||

||-------------------------------------||-------------------------------------------|
||*-----------------------------------*||-------------------------------------------|
||-------------------------------------||-------------------------------------------|
||----------7---------4--4----6--------||-------------------------------------------|
||*--5------5----2----2--2----4----7--*||--7--7----5--5-----------------------------|
||---3-----------0-----------------5---||------------------8--8----7--7----5--7--8--|
D.S.al CODA 2 
|-------------------------------------------|-----------|
|-------------------------------------------|-----------|
|-------------------------------------------|-----------|
|-------------------------------------------|-----------|
|-------------------------------------------|--2--------|
|--8--8----7--7----5--5----3--3----2--3--5--|--0--------|
CODA 2 w/ Rhy. Fig. 3		      Repeat and fade
|----------|----------|----------|----------||
|*---------|----------|----------|---------*||
|----------|----------|----------|----------||
|----------|----------|----------|----------||
|*---------|----------|----------|---------*||
|----------|----------|----------|----------||
the original album before 1992 has am i evil so im going to tab that out too o.k.
Am I evil
||---||-----------------|----------------|---------------------|
||-4-||-----------------|----------------|---------------------|
||---||-9-----------7-9-|-10----------12-|-9---9-9-9-9---9-9-9-|
||-4-||-9-----------7-9-|-10----------12-|-9---9-9-9-9---9-9-9-|
||---||-7-----------5-7-|-8-----------10-|-7---7-7-7-7---7-7-7-|
||---||-----------------|----------------|---------------------|

   |   |     |     |       |   |     |   |       |   |     |	 |
 
 |-----------------------|---------------------|-----------------------|
 |-----------------------|---------------------|-----------------------|
 |-9---9-9-9-7-7-7-7-7-7-|-9---9-9-9-9---9-9-9-|-9---9-9-9-7-7-7-7-7-7-|
 |-9---9-9-9-7-7-7-7-7-7-|-9---9-9-9-9---9-9-9-|-9---9-9-9-7-7-7-7-7-7-|
 |-7---7-7-7-5-5-5-5-5-5-|-7---7-7-7-7---7-7-7-|-7---7-7-7-5-5-5-5-5-5-|
 |-----------------------|---------------------|-----------------------|
					       |
					       |
   					       | Gtr 2 : Distorted
					       | ( Trem Strum ) 
					       |-----------------------|
					       |-----------------------|
 					       |-----------------------|
					       |-14-\------------------|
					       |-14-\------------------|
					       |-12-\------------------|

  
Gtr 1 doubles Gtr 2

  |   |     |   |       |   |     |     |       |   |     |   |

|---------------------|-----------------------|---------------------|
|---------------------|-----------------------|---------------------|
|*--------------------|-----------------------|---------------------|
|-2-------------------|-----------9-9-9-9-9-9-|-8-------------------|
|*2-------------------|-----------9-9-9-9-9-9-|-8-------------------|
|-0-------------------|-----------7-7-7-7-7-7-|-6-------------------|


 
  |   |     |     |       |   |     |   |       |   |     |     |    

|-----------------------|---------------------|-----------------------|
|-----------------------|---------------------|-----------------------|
|----------------------*|---------------------|-----------------------|
|-----------3-3-3-3-3-3-|-2-------------------|-----------9-9-9-9-9-9-|
|-----------3-3-3-3-3-3*|-2-------------------|-----------9-9-9-9-9-9-|
|-----------1-1-1-1-1-1-|-0-------------------|-----------7-7-7-7-7-7-|



  |   |     |   |       |   |     |        |          |   |     |   |

|---------------------|-----------------------------|---------------------|
|---------------------|-----------------------------|---------------------|
|---------------------|-----------10-10-10-10-10-10-|-9-------------------|
|-8-------------------|-----------10-10-10-10-10-10-|-9-------------------|
|-8-------------------|-----------8--8--8--8--8--8--|-7-------------------|
|-6-------------------|-----------------------------|---------------------



  |   |     |     |       |   |     |   |       |   |     |     |

|-----------------------|---------------------|-----------------------|
|-----------------------|---------------------|-----------------------|
|-----------------------|---------------------|-----------------------|
|-----------9-9-9-9-9-9-|-8-------------------|-----------3-3-3-3-3-3-|
|-----------9-9-9-9-9-9-|-8-------------------|-----------3-3-3-3-3-3-|
|-----------7-7-7-7-7-7-|-6-------------------|-----------1-1-1-1-1-1-|



  |   |     |   |       |   |     |     |       |    |     |   |
   
|---------------------|-----------------------|----------------------|
|---------------------|-----------------------|----------------------|
|---------------------|-----------------------|*---------------------|
|-2-------------------|-----------7-7-7-7-7-7-|-/9---9-9-9-9---9-9-9-|
|-2-------------------|-----------5-5-5-5-5-5-|*/7---7-7-7-7---7-7-7-|
|-0-------------------|-----------------------|----------------------|


                        Gtr 1 : Grad rit.

  |   |     |     |       |   |   |   |      |   |   |   |
	(Repeat 3 times)
                                  ~~             ~~      ~~
|-----------------------|------------------|-------------------|
|-----------------------|------------------|-------------------|
|----------------------*|------------------|-------------10----|
|-9---9-9-9-7-7-7-7-7-7-|------------------|-----9---8---------|
|-7---7-7-7-5-5-5-5-5-5*|-------------8----|-7-----------------|
|-----------------------|-0---7---6--------|-------------------|


  ~~                                  
|------------------------------------|
|------------------------------------|
|-9---10---/12---/14-----/16---------|
|------------------------------------|
|------------------------------------|
|------------------------------------|



Gtr 2 : Intro solo. (See comments at end)

   HH  HH  HH  HH  HH  HH  HH  HH    HH  HH  HH  HH  HH  HH  HH  HH
|---------------------------------|---------------------------------|
|-058-058-058-058-058-058-058-058-|-047-047-047-047-047-047-047-047-|
|---------------------------------|---------------------------------|
|---------------------------------|---------------------------------|
|---------------------------------|---------------------------------|
|---------------------------------|---------------------------------|


							(Hold last note..)
   HH  HH  HH  HH  HH   HH   HH  HH    HH  HH  HH  HH  HH  HH  HH
|-----------------------------------|---------------------------------|
|-058-058-058-058-0710-0710-058-058-|-047-047-047-047-047-047-047-----|
|-----------------------------------|---------------------------------|
|-----------------------------------|---------------------------------|
|-----------------------------------|---------------------------------|
|-----------------------------------|---------------------------------|


  A   A   A   A   A   A Wh~~~~~~
|-------------------------------|
|-------------------------------|
|-------------------------------|
|-----5-------------------------|
|-5-----------5-------7---------|
|---------5-------7-------------|



"One, Two"		(Repeat Main Riff 8 times before verse)

                      PM---|  PM-|  PM---|

           	    |   |   |  |    |   |   |  |
Main Riff :       |------------------------------|
		  |------------------------------|
		  |*----------------------------*|
		  |---------------2---------3--2-|
		  |*2-2-2-2-5-2-2-0-2-2-2---1--0*|
		  |-0-0-0-0-3-0-0---0-0-0--------|	

(Main Riff with verse 1)

Verse 1 : (Lyrics)

		My mother was a witch, she was burned alive.
		Thankless little bitch, for the tears i've cried.
		Take her down now, don't want to see her face.
		All blistered and burned, can't hide my disgrace.


		      PM---|  PM-|  PM---|

		    |   |   |  |    |   |   |  |
Pre-Chorus riff : |------------------------------|
		  |------------------------------|
		  |*----------------------------*|
		  |---------7-----9---------10-9-|
		  |*7-7-7-7-5-7-7-7-7-7-7---8--7*|
		  |-5-5-5-5---5-5---5-5-5--------|

(Pre-Chorus riff x 4 with Pre-Chorus)

Pre-Chorus : (Lyrics)

		Twenty-seven, every one is nice,
		Gotta see 'em, make 'em pay the price,
		See the bodies out on the ice,
		Take my time.......


(Main Riff x 4 with Chorus)

Chorus : (Lyrics)

		Am I Evil?
		Yes I am,
		Am I Evil?
		I am that, yes I am....


			*******Main Riff x 2*******

(Main Riff x 8 with verse 2)

Verse 2 : (Lyrics)

		As i watched my mother die, I lost my head,
		Revenge now I sought, to break with my bread,
		Taking no chances, you come with me,
		I split you to the bone, help set you free.


(Pre-chorus riff x 4 with pre-chorus)

(Main Riff x 4 with chorus)



Bridge : 

		|------------------|------------------------------|
		|------------------|------------------------------|
		|*9-----7-----5---*|------------------------------|
		|-9-----7-----5----|---------------2---------3--2-|
		|*7-----5-----3---*|-2-2-2-2-5-2-2-0-2-2-2---1--0*|
		|------------------|-0-0-0-0-3-0-0---0-0-0--------|


               (Repeat 3 times)

	. |   |   |   |      |   |     |  |       |   |   |   |    
						    ~~~~~~~~~~~
	|------------------|--------------------|------------------|
	|------------------|--------------------|------------------|
	|*9-----7-----5---*|-9-----11-----12----|------------------|
	|-9-----7-----5----|-9-----11-----12----|------------------|
	|*7-----5-----3---*|-7-----9------10----|--/7--------------|
	|------------------|--------------------|------------------|



Double Time feel : 


	
				      _______________________________________
Fast Riff 1:			      |1.

  |   |   |   |      |   |   |   |      |   |   |   |      |   |   |   |

     PM-|    PM-|       PM-|               PM-|    PM--|      PM-|
|------------------|------------------|------------------|------------------|
|------------------|------------------|------------------|------------------|
|*-----------------|------------------|------------------|-----------------*|
|------------------|-------------7----|------------------|---------5--------|
|*7--7777-7--7777--|-7--7777-5---5----|-7--7777-7--7777--|-7--7777-3---5---*|
|-5--5555-5--5555--|-5--5555-3--------|-5--5555-5--5555--|-5--5555-----3----|


_____________________________________
|2.					Fast Riff 2 : (Note : Lyrics)

  |   |   |   |      |   |   |   |      |   |   |   |     |   |   |   | 

     PM-|    PM--|			PM------------------------|
|------------------|-----------------||-----------------|-----------------|
|------------------|-----------------||-----------------|-----------------|
|------------------|-----------------||*----------------|-----------------|
|------------------|-----------------||-----------------|------------7----|
|-7--7777-7--7777--|-----------------||*2--2222-2-2222--|-2--2222-2--5----|
|-5--5555-5--5555--|-555-555-555-532-||-0--0000-0-0000--|-0--0000-0-------|
   		   |   Triplets      |


  |   |   |   |     |   |   |   |   

  PM-------------------------|
|-----------------|-----------------|	
|-----------------|-----------------|
|-----------------|----------------*|    Repeat whole sequence again.
|-----------------|------------7-7--|
|-2--2222-2-2222--|-2--2222-2--5-5-*|
|-0--0000-0-0000--|-0--0000-0-------|



(With Fast Riff 2 [First repeat])

Lyrics : 


(With Fast Riff 2 [Second repeat])

Lyrics :







		*******Then Fast Riff 1 x 1*******



  |   |   |   |      |   |   |   |      |   |   |   |

|------------------|------------------|------------------|
|------------------|------------------|------------------|
|------------------|------------------|------------------|
|-2----------------|------------------|-5-------7--------|
|-2----------------|------------------|-5-------7--------|
|-0----------------|------------------|-3-------5--------|


GUITAR SOLO:

	
For the solo, the rhythm follows the following 'feel':

          X       X         X       X           
	|-X--XXXX-X-XXXX--|-X--XXXX-X-XXXX--|

	Chord changes are noted above tab lines, and are 2 or 3 fingered power
chords, depending on what you feel like. For the 'XX' notes, strike the
full chord, on the others just play the lowest note (Usually the E string)

  B5
  
  |  |||| |  | |||    |    | ||| |   | || |    
  @  @@@@ @  @ @@@    @    @ @@@ @   @ @@ @   
      (Full)    P                               
|-----------7-------|----------------11-12--|
|------------10-7-7/|/12-----------12-------|
|-9^^^^^^^^^--------|-----------------------|
|-------------------|-----------------------|
|-------------------|-----------------------|
|-------------------|-----------------------|



  |       |  |  |  |     |     |  |  |  |    |    |||| |   ||||
  @       @  @  @  @     @     @  @  @  @    @    @@@@ @   @@@@
    H  P       H  H        P  P     P  P
|-11-12-11---11-12-14-14-14-12-11-12-11----|-----------------7---|
|---------12----------------------------12-|-10---------/7-------|
|------------------------------------------|---------------------|
|------------------------------------------|---------------------|
|------------------------------------------|---------------------|
|------------------------------------------|---------------------|



  |  ||||  |     |   | |  |     |    | || | |     ||||
  @  @@@@  @     @   @ @  @     @    @ @@ @ @     @@@@
            H P                   P       P   P 
|-10-9--7--7-9-7-----7--------|--------------------------|
|----------------10----10-7---|-10-7---7-----------------|
|-----------------------------|------9---9-7-9-7---7---7-|
|-----------------------------|------------------9-------|
|-----------------------------|--------------------------|
|-----------------------------|--------------------------|



  |    ||  | | |    | | | |     |    ||  | | |    | | | | 
  @    @@  @ @ @    @ @ @ @     @    @@  @ @ @    @ @ @ @
 (Full)                        (Full)
|-----7-----------------------|-----7-----------------------|
|-----7-10-7---7--------------|-----7-10-7---7--------------|
|-9^^--------9---9-7-7------7-|-9^^--------9---9-7-7------7-|
|-----------------------------|-----------------------------|
|-----------------------------|-----------------------------|
|-----------------------------|-----------------------------|




  |    ||  | | |    | | | |      |      | | | |   |   | | | |
  @    @@  @ @ @    @ @ @ @      @      @ @ @ @   @   @ @ @ @
 (Full)
|-----7-----------------------|-/19--/20---/22---/24----------|
|-----7-10-7---7--------------|-------------------------------|
|-9^^--------9---9-7-7------7-|-------------------------------|
|-----------------------------|-------------------------------|
|-----------------------------|-------------------------------|
|-----------------------------|-------------------------------|



  E5
  |      | |  |  |  |      | |  |  |    |      | |  |  |  |      | |  |  |
  @      @ @  @  @  @      @ @  @  @    @      @ @  @  @  @      @ @  @  @
    P  P              P  P                P  P              P  P
|-15-14-12----12-14-15-14-12----12-14-|-15-14-12----12-14-15-14-12----12-14-|
|----------15----------------15-------|----------15----------------15-------|
|-------------------------------------|-------------------------------------|
|-------------------------------------|-------------------------------------|
|-------------------------------------|-------------------------------------|
|-------------------------------------|-------------------------------------|




  |     | | | |  |     | | | |     |     | | | |  |     | | | | 
  @     @ @ @ @  @     @ @ @ @     @     @ @ @ @  @     @ @ @ @

|-15---14---12--------12---------|--------------------------------|
|----------------15--------15----|-14---12---14-------------------|
|--------------------------------|----------------12======--------|
|--------------------------------|--------------------------------|
|--------------------------------|--------------------------------|
|--------------------------------|--------------------------------|



  B5
  |  | | | | |   | | | |    |    | | | |  |   | | | |
  @  @ @ @ @ @   @ @ @ @    @    @ @ @ @  @   @ @ @ @
 (Full) P     P      P        P      P     P     P
|------7-0-0-9-0-0-10-0-0-|-12-0-0-10-0-0-9-0-0-7-0-0-|
|----7--------------------|---------------------------|
|-9^----------------------|---------------------------|
|-------------------------|---------------------------|
|-------------------------|---------------------------|
|-------------------------|---------------------------|

  |    | | | | |   | | | |      |   | | | | |   | | | |
  @    @ @ @ @ @   @ @ @ @      @   @ @ @ @ @   @ @ @ @ 

|-10---9---7--------7---------|----------------------------|
|--------------10-------10----|-9---7---9------------------|
|-----------------------------|-------------7======\-------|
|-----------------------------|----------------------------|
|-----------------------------|----------------------------|
|-----------------------------|----------------------------|

 
  |  |||| |  ||||   |  |||| |  ||||   |  |||| |  ||||   |  |||| |  ||||
  @  @@@@ @  @@@@   @  @@@@ @  @@@@   @  @@@@ @  @@@@   @  @@@@ @  @@@@
   HH  HH  HH  HH    HH  HH  HH  HH    HH  HH  HH  HH    HH  HH  HH  HH
|-----------------|-----------------|-----------------|-047-047-047-047-|
|-047-047-047-047-|-058-058-058-058-|-047-047-047-047-|-----------------|
|-----------------|-----------------|-----------------|-----------------|
|-----------------|-----------------|-----------------|-----------------|
|-----------------|-----------------|-----------------|-----------------|
|-----------------|-----------------|-----------------|-----------------|



                                      A5
  |  |||| |  ||||   |  |||| |  ||||   |   ||||  |   ||||
  @  @@@@ @  @@@@   @  @@@@ @  @@@@   @   @@@@  @   @@@@
   HH  HH  HH  HH    HH  HH  HH  HH   T PP T PP T PP T PP
|-058-058-058-058-|-047-047-047-047-|-1285-1285-1285-1285-|
|-----------------|-----------------|---------------------|
|-----------------|-----------------|*-------------------*|
|-----------------|-----------------|---------------------|
|-----------------|-----------------|*-------------------*|
|-----------------|-----------------|---------------------|



  F5                    A#5                   F#5
  |   ||||  |   ||||    |   ||||  |   ||||    |   ||||  |   ||||
  @   @@@@  @   @@@@    @   @@@@  @   @@@@    @   @@@@  @   @@@@
  T PP T PP T PP T PP   T PP T PP T PP T PP   T PP T PP T PP T PP 
|-1385-1385-1385-1385-|-1396-1396-1396-1396-|-1496-1496-1496-1496-|
|---------------------|---------------------|---------------------|
|*-------------------*|*-------------------*|---------------------|
|---------------------|---------------------|---------------------|
|*-------------------*|*-------------------*|---------------------|
|---------------------|---------------------|---------------------|




  B5
  |    || | | |    || | |   |  |||| |  ||||   |  |||| |  ||||
  @    @@ @ @ @    @@ @ @   @  @@@@ @  @@@@   @  @@@@ @  @@@@
  T P P T P P T P P T P P    HH  HH  HH  HH    HH  HH  HH  HH
|-14107-14107-14107-14107-|-047-----047-----|-047-----047-----|
|-------------------------|-----047-----047-|-----047-----047-|
|*-----------------------*|-----------------|-----------------|
|-------------------------|-----------------|-----------------|
|*-----------------------*|-----------------|-----------------|
|-------------------------|-----------------|-----------------|




  |  |||| |  ||||   |  |||| |  ||||   |  |||| |  ||||   |  |||| |  ||||
  @  @@@@ @  @@@@   @  @@@@ @  @@@@   @  @@@@ @  @@@@   @  @@@@ @  @@@@
   HH  HH  HH  HH    HH  HH  HH  HH    HH  HH  HH  HH    HH  HH  HH  HH
|-----------------|-----------------|-----------------|-----------------|
|-047-----047-----|-047-----047-----|-----------------|-----------------|
|-----047-----047-|-----047-----047-|-047-----047-----|-047-----047-----|
|-----------------|-----------------|-----047-----047-|-----047-----047-|
|-----------------|-----------------|-----------------|-----------------|
|-----------------|-----------------|-----------------|-----------------|



                                        E5
  |  |||| |  ||||   |  |||| |  ||||     |      | | |  |   |      | | |  |
  @  @@@@ @  @@@@   @  @@@@ @  @@@@     @      @ @ @  @   @      @ @ @  @
   HH  HH  HH  HH                         P  P     P  P     P  P     P  P
|-----------------|-------------------|-------------------------------------|
|-----------------|----------------12-|-1514-0-0-1715-0-0-1514-0-0-1715-0-0-|
|-----------------|-------------/14---|-------------------------------------|
|-047-----047-----|-------------------|-------------------------------------|
|-----047-----047-|-------------------|-------------------------------------|
|-----------------|-7\----------------|-------------------------------------|



  |      | | |  |   |      | | |  |     |        |  | | |    |    ||| |
  @      @ @ @  @   @      @ @ @  @     @        @  @ @ @    @    @@@ @
    P  P    P  P    P  P    P  P
|-------------------------------------|---------------------------------|
|-1514-0-0-1715-0-0-1514-0-0-1715-0-0-|-1514-0-1412-0-1210-0-109-0-97-0-|
|-------------------------------------|---------------------------------|
|-------------------------------------|---------------------------------|
|-------------------------------------|---------------------------------|
|-------------------------------------|---------------------------------|


                      B5
  |  ||||  |  ||||    |   |||| |    || ||    |    |||| |  ||||
  @  @@@@  @  @@@@    @   @@@@ @    @@ @@    @    @@@@ @  @@@@ 
                     (Full)      P                     (Full)
|-------------------|----------------------|------------10^====|
|-7-----------------|-10^------107---7-----|-------------------|
|-7-9-7---7---------|--------------9---9-7-|-9-7---7-----------|
|-------------------|----------------------|-----9-------------|
|-------------------|----------------------|-------------------|
|-------------------|----------------------|-------------------|

 
  |   || || |       || | |    |    || | |  |  | | | |       (END SOLO)
  @   @@ @@ @       @@ @ @    @    @@ @ @  @  @ @ @ @
              H  P    H  P     H P   H P    ~~~~~~~~
|-9----12-------------------|--------------------------|
|-----------10-12-10-8-10-8-|-7-8-7-5-6-5--3========---|
|---------------------------|--------------------------|
|---------------------------|--------------------------|
|---------------------------|--------------------------|
|---------------------------|--------------------------|


*******Fast Riff 1 x 2 ( Note : Only repeat the first section )*******

On fourth repeat, Gtr 2 plays:

               P
|------------------|
|------------------|
|------------------|
|-/777-777-777-75--|
|----------------7-|
|------------------|


*******Fast Riff 2 x 4*******

*******Fast Riff 1 x 4*******


(Triplet feel - not strict time)

                             _________________________
                             |1,2,3.      |4.
                              H   H P 
|------------------|----------------------|----------| 
|------------------|----------------------|----------|
|------------------|---------------------*|----------|
|-----9---7-7------|-7-7------------------|-7--------|
|-----7---5-5------|-5-5---------5-7-5---*|-5---7----|
|-0-0--------------|---------5-7-------7--|-----5----|




    PM---|  PM-|  PM---|       h   h
              (Repeat 6 times)
|----------------------------|-----------------|
|----------------------------|-----------------|
|*--------------------------*|-----------------|
|---------------2--------3-2-|-------------2---|
|*2-2-2-2-5-2-2-0-2-2-2--1-0*|---------5---2---|
|-0-0-0-0-3-0-0---0-0-0------|-5---5---3---0---|
8.	Helpless
Intro
  Double Time Feel Q=154
 4/4
  Gtrs I, II
                                     PM        PM|         PM
  Wx3          H    E. S +E  S S     E S S +E  E E S S +E  E
|------------|-------------------||---------------------------|
|------------|-------------------||o--------------------------|
|------------|-------------------||---------------------------|
|------------|------2--4-(4)-----||---------------------------|
|------------|------0--2-(2)-2p0-||o-4---4-(4)-2-4---4-(4)-2--|
|------------|-------------------||--2---2-(2)-0-2---2-(2)-0--|
                                  |-Rhy Fig 1

  1.,2.,3.                     4.
  PM        PM                  PM        PM
  E S S +E  E E. S +E  S S      E S S +E  E E. S +E  S S
|---------------------------||---------------------------||
|--------------------------o||---------------------------||
|---------------------------||---------------------------||
|-------------2--4-(4)------||--------------2--4-(4)-----||
|-4---4-(4)-2-0--2-(2)-2p0-o||--4---4-(4)-2-0--2-(2)-2p0-||
|-2---2-(2)-0---------------||--2---2-(2)-0--------------||
              end Rhy Fig 1-|

   Verse 1, 2
||--
||o-
||-- Rhy Fig 1 x8
||--
||o-
||--



 Pre-chorus
  Gtrs I, II
  F#5        D5         E5         F#5
  W          W          W          W
  |          |          |          |
  /          /          /          /
|----------|----------|----------|------|


  F#5        D5         E5(type 2) F#5  F#
  W          W          W          H    S S S S S S S S
  |          |          |          |    | | | | | | | |
  /          /          /          /    o / / / / / / /
|----------|----------|----------|-----------------------||


 Chorus
  Gtrs I, II
  S S S S S S S S S S S S S S E   S S S S S S S S S S S S S S E
|-------------------------------|-------------------------------|
|-------------------------------|-------------------------------|
|-----------------------------5-|-----------------------------5-|
|-7-7-7-7-7-7-7-7-7p5---------5-|-7-7-7-7-7-7-7-7-7p5---------5-|
|---------------------7-5-5-7---|---------------------7-5-5-7---|
|-------------------------------|-------------------------------|
|-Rhy Fig 2

                                                PM----|
                                                |3| |3|
  S S S S S S S S S S S S S S E   S S S S S S E E Q E Q
|-------------------------------|-----------------------|
|-------------------------------|-----------------------|
|-----------------------------5-|-----------------------|
|-7-7-7-7-7-7-7-7-7p5---------5-|-7-7-7-7-7-7-----------|
|---------------------7-5-5-7---|-------------0-5-5-7-7-|
|-------------------------------|---------------3-3-5-5-|
                                          end Rhy Fig 2-|

Rhy Fig 2

Rhy Fig 1


                           1.
  PM        PM|         PM--|         PM
  E S S +E  E E S S +E  E   E S S +E  E E. S +E  S S
|-------------------------|---------------------------||
|-------------------------|--------------------------o||
|-------------------------|---------------------------||
|-------------------------|-------------2--4-(4)------||
|-4---4-(4)-2-4---4-(4)-2-|-4---4-(4)-2-0--2-(2)-2p0-o||
|-2---2-(2)-0-2---2-(2)-0-|-2---2-(2)-0---------------||


  2.
 Rhy Fig 1 (last bar only)

Rhy Fig 1 x2


 7/8
                                          PM
  Q  Q  Q  E   Wx3           E. S +E  S S E E S S  4x
|------------|-----------||------------------------||
|------------|-----------||o----------------------o||
|------------|-----------||------------------------||
|------------|-----------||------------------------||
|-4----------|-----------||o----0-(0)-2p0---0-2p0-o||
|-2----------|-----------||--2------------2--------||


                 PM
    E. S +E  S S E E S S  4x
||------------------------||-|
||o----------------------o||-|
||------------------------||-|
||------------------------||-|
||o----2-(2)-4p2---2-4p2-o||-|
||--4------------4--------||-|


                 PM                           PM
    E. S +E  S S E E S S  4x     E. S +E  S S E E S S  4x
||------------------------||-||------------------------||
||o----------------------o||-||o----------------------o||
||------------------------||-||------------------------||
||------------------------||-||------------------------||
||o----3-(3)-5p3---3-5p3-o||-||o----5-(5)-7p5---5-7p5-o||
||--5------------5--------||-||--7------------7--------||


  Gtr II
               PM                     PM                     PM
  E. S +E  S S E E S S   E. S +E  S S E E S S   E. S +E  S S E E S S
|----------------------|----------------------|----------------------|
|----------------------|----------------------|----------------------|
|----------------------|----------------------|----------------------|
|----5-(5)-7p5---5-7p5-|----5-(5)-7p5---5-7p5-|----7-(7)-9p7---7-9p7-|
|-7------------7-------|-7------------7-------|-9------------9-------|
|----------------------|----------------------|----------------------|
|
| Gtr I
|              PM                     PM                     PM
| E. S +E  S S E E S S   E. S +E  S S E E S S   E. S +E  S S E E S S
|----------------------|----------------------|----------------------|
|----------------------|----------------------|----------------------|
|----------------------|----------------------|----------------------|
|----------------------|----------------------|----------------------|
|----3-(3)-5p3---3-5p3-|----3-(3)-5p3---3-5p3-|----5-(5)-7p5---5-7p5-|
|-5------------5-------|-5------------5-------|-7------------7-------|


                        4/4
               PM                     PM
  E. S +E  S S E E S S   E. S +E  S S E. S +E  S S
|----------------------|---------------------------|
|----------------------|---------------------------|
|----------------------|---------------------------|
|----7-(7)-9p7---7-9p7-|----5-(5)-7p5----7-(7)-9p7-|
|-9------------9-------|-7------------9------------|
|----------------------|---------------------------|
|
|              PM                     PM
| E. S +E  S S E E S S   E. S +E  S S E. S +E  S S
|----------------------|---------------------------|
|----------------------|---------------------------|
|----------------------|---------------------------|
|----------------------|---------------------------|
|----5-(5)-7p5---5-7p5-|----3-(3)-5p3----5-(5)-5p3-|
|-7------------7-------|-5------------7------------|


                 PM
   E. S +E   S S E. S +E  S S
|-----------------------------|
|-----------------------------|
|-----9-(9)-11p9----7-(7)-9p7-|
|-11-------------9------------|
|-----------------------------|
|-----------------------------|
|
|  E. S +E   S S E. S +E  S S
|-----------------------------|
|-----------------------------|
|-----------------------------|
|-----7-(7)--9p7----5-(5)-7p5-|
|--9-------------7------------|
|-----------------------------|


               |-3-|
  E. S +E  S S q q q   E E Q  E E +S  E.   W
|--------------------|-------------------|------||
|--------------------|-------------------|------||
|----5-(5)-7p5-------|-------------------|------||
|-7------------5-----|-------------------|------||
|--------------3-5-7-|-9--------5-(5)-7--|-9----||
|----------------3-5-|-7--------3-(3)-5--|-7----||
|
|              |-3-|
| E. S +E  S S q q q   E E Q  E E +S  E.   W
|--------------------|-------------------|------||
|--------------------|-------------------|------||
|--------------------|-------------------|------||
|----3-(3)-5p3-5-----|-------------------|------||
|-5------------3-5-7-|-9--------5-(5)-7--|-9----||
|----------------3-5-|-7--------3-(3)-5--|-7----||


  F#5                                         D5 A5    E5
  Gtr II
  E   E    Q    H               H             E. S +E  E
  |                                           |  |  |  |
  /                                           /  /  /  /

  Gtr I
  S S S S +E  E S S S S +E  E   S S S S +E  E E. S +E  E
|-----------------------------|--------------------------||
|-----------------------------|--------------------------||
|-----------------------------|--------------------------||
|-------7-(7)---------7-(7)---|-------7-(7)---7--------9-||
|-9p7---7-(7)-9-9p7---7-(7)-9-|-9p7---7-(7)-9-5--7-(7)-7-||
|-----9-------------9---------|-----9------------5-(5)---||


    F#5IX                                            D5 A5    E5
    |---3---|
    E   E   E    Q    +H               H             E. S +E  E
    |   |   |    |     |                             |  |  |  |
    /   /   /    /     /                             /  /  /  /

    S S   S   S +E  E  S S S S +E  E   S S S S +E  E E. S +E  E  3x
||-----------------------------------|---------------------------||
||o----------------------------------|--------------------------o||
||-----------------------------------|---------------------------||
||------------7-(7)----------7-(7)---|-------7-(7)---7--------9--||
||o-9p7-------7-(7)-9--9p7---7-(7)-9-|-9p7---7-(7)-9-5--7-(7)-7-o||
||--------9----------------9---------|-----9------------5-(5)----||


    Gtrs I, II
    S S S S +E  E S S S S +E  E   S S S S +E  E E. S +E  E  4x
||------------------------------|---------------------------||
||o-----------------------------|--------------------------o||
||------------------------------|---------------------------||
||--------7-(7)---------7-(7)---|-------7-(7)---7--------9--||
||o-9p7---7-(7)-9-9p7---7-(7)-9-|-9p7---7-(7)-9-5--7-(7)-7-o||
||------9-------------9---------|-----9------------5-(5)----||
 |-Rhy Fig 3                                  end Rhy Fig 3-|

   Bridge
    Gtrs I, II
|-Rhy Fig 4
    F#5  A5     B5   D5 E5   D5
    H    H      H    E. S +E E
    |    |      |    |  |  | |
    /    /      /    /  /  / /

    W           W
||------------|----------------|
||o-----------|----------------|
||------------|----------------|
||------------|----------------|
||o-----------|----------------|
||------------|----------------|


  F#5  A5     B5   E5(type 2)
  H    H      H    E. S +E E
  |    |      |    |  |  | |
  /    /      /    /  /  / /
|-----------|----------------|


  F#5  A5     B5   D5 E5   D5
  H    H      H    E. S +E E
  |    |      |    |  |  | |
  /    /      /    /  /  / /
|-----------|----------------|


  F#5  A5     B5   D5 E5   D5
  H    H      H    E. S +E E
  |    |      |    |  |  | |
  /    /      /    /  /  / /
|-----------|----------------|
               end Rhy Fig 4-|

  Gtrs I, II
    PM--------|                PM--------|
  E S S S S S S E. S +E  E   E S S S S S S E. S +E  E   Q  Q   Q  Q
|--------------------------|--------------------------|---------------|
|--------------------------|--------------------------|---------------|
|--------------------------|--------------------------|---------------|
|-6-------------7--9-(9)-7-|-6-------------7--9-(9)-7-|-6------7------|
|-4-4-4-4-4-4-4-5--7-(7)-5-|-4-4-4-4-4-4-4-5--7-(7)-5-|-4------5------|
|--------------------------|--------------------------|----1/-----1/--|
|-Rhy Fig 5

                   H.=H
                  3/4
                   PM----------------|
  Q  Q    Q  Q     S E S +S  E S +S  E.
|----------------|----------------------|
|----------------|----------------------|
|----------------|----------------------|
|-9------10------|----------------------|
|-7-------8------|-9-7------------------|
|----1/------1/--|-----9-(9)-8-7-(7)-5--|
                          end Rhy Fig 5-|

  A Tempo Q=154
 4/4
Rhy Fig 3 x3.5


 1.                              2.
  S S S S +E  E E.  S +E   E      S S S S +E  E E. S +E  E
|-----------------------------||----------------------------||
|----------------------------o||----------------------------||
|-----------------------------||----------------------------||
|-------7-(7)---7----------9--||--------7-(7)---7--------9--||
|-9p7---7-(7)-9-5---7-(7)--7-o||--9p7---7-(7)-9-5--7-(7)-7--||
|-----9-------------5-(5)-----||------9------------5-(5)----||
|
| S S S S +E  E E.  S +Q          S S S S +E  E Q     Q
|-----------------------------||----------------------------||
|----------------------------o||----------------------------||
|-----------------------------||----------------------------||
|-------7-(7)---7-------------||--------7-(7)---------------||
|-9p7---7-(7)-9-5------------o||--9p7---7-(7)-9-x\----x\----||
|-----9------------/9-(9)\----||------9---------x\----x\----||


    Gtrs I, II
    PM        PM|         PM-
    E S S +E  E E S S +E  E
||--------------------------|
||o-------------------------|
||--------------------------|
||--------------------------|
||o-4---4-(4)-2-4---4-(4)-2-|
||--2---2-(2)-0-2---2-(2)-0-|


 1.,2.,3.                      4.
 -|         PM                              PM----|
  E S S +E  E E. S +E  S S      S S S S Q   E E E E
|---------------------------||----------------------||
|--------------------------o||----------------------||
|---------------------------||----------------------||
|-------------2--4-(4)------||----------7\----------||
|-4---4-(4)-2-0--2-(2)-2p0-o||--9-9-9-9-9\--4-2-2-2-||
|-2---2-(2)-0---------------||--------------2-0-0-0-||


 Guitar Solo
w/Rhy Fig 1 x8
  Gtr III
   E    E    E    E  E    E    S      +S   E
|--------------------------------------------|
|-17b19-----17b19---17b19-----17pb19r(17)-14-|
|--------------------------------------------|
|--------------------------------------------|
|--------------------------------------------|
|--------------------------------------------|

                                         ~~~~~~~~~~~~~~~~
                                                     |----3----|
   E      +S   S  E      +S   S  E      +E     +E   +S    S    S
|----------------------------------------------------------------|
|-17pb19r(17)-14-17pb19r(17)-14-17b19==(17)---(17)-(17)r-17---14-|
|----------------------------------------------------------------|
|----------------------------------------------------------------|
|----------------------------------------------------------------|
|----------------------------------------------------------------|


   Q          +Q      Q          +Q
|-17b19======(17)r---17b19======(17)r---|
|---------------------------------------|
|---------------------------------------|
|---------------------------------------|
|---------------------------------------|
|---------------------------------------|


   Q          +E.    S  S   E.    +E   S  S
|-17pb19r====(17)---14-17--14----(14)-14-14-|
|-------------------------------------------|
|-------------------------------------------|
|-------------------------------------------|
|-------------------------------------------|
|-------------------------------------------|


   S  S  S  S  E     S     S  S  S  S  S  E     S     S
|-17p14----14-------------14-17-14----14-------------14-|
|-------17----17b19-17b19----------17----17b19-17b19----|
|-------------------------------------------------------|
|-------------------------------------------------------|
|-------------------------------------------------------|
|-------------------------------------------------------|


   S  S  S  S  E     S     S  S   S  S  S  E     S     S
|-17p14----14-------------14-17--14----14-------------14-|
|-------17----17b19-17b19-----------17----17b19-17b19----|
|--------------------------------------------------------|
|--------------------------------------------------------|
|--------------------------------------------------------|
|--------------------------------------------------------|


   |--3--|        |--3---|        |--3--|        |--3---|
   S  S  S  S  S  S   S  S  S  S  S  S  S  S  S  S   S  S  S  S
|-17p16p14----14-17p=16p14----14-17p16p14----14-17p=16p14----14-|
|----------17--------------17-------------17--------------17----|
|---------------------------------------------------------------|
|---------------------------------------------------------------|
|---------------------------------------------------------------|
|---------------------------------------------------------------|


   S     S  S  S  S     S  S     S  S     S  S  S  S     S  S  S
|-------14-14-14-------14-------14-------14-14-14-------14-14-14--|
|-17b19----------17b19----17b19----17b19----------17b19-----------|
|-----------------------------------------------------------------|
|-----------------------------------------------------------------|
|-----------------------------------------------------------------|
|-----------------------------------------------------------------|


   T  S.  S  S  T   S.  S  S  S     S  S  S  S   S  S  S
|-17p14-----14-17p=14------------------------------------|
|--------17------------17-14-------14-17-14--------------|
|----------------------------16b18----------16--14----16-|
|--------------------------------------------------16----|
|--------------------------------------------------------|
|--------------------------------------------------------|


         |---3---|
   S  S  S  S    S  S   S  S  S  S   S  S  S  S   S  S  S
|----------------------------------------------------------|
|----------------------------------------------------------|
|-14-14-14h16p==14-----------------------------------------|
|------------------16--14----14-16--14---------------------|
|-------------------------16-----------16-15-14S=12-14-12--|
|----------------------------------------------------------|


   S  S  S  S  E   S  S  +S   E    S  +E   E
|--------------------------------------------|
|--------------------------------------------|
|-------------14-----14-(14)-14---14-(14)-14-|
|-------------14-----14-(14)-14---14-(14)-14-|
|----12-14S16-----16-------------------------|
|-14-----------------------------------------|


   Q         Q       S   S      +E      Q
|----------------------------------------------|
|----------------------------------------------|
|-16b17-----16b17---16--14b15==(14)r-----------|
|-16b17-----16b17----------------------16\-----|
|----------------------------------------------|
|----------------------------------------------|


               |-3-|     |--3--|       |-3-|
  E    S S  E  S S S S S S S   S  S  S S S S
|--------------------------------------------|
|--------------------------------------------|
|-4b6==4-4--4--4-4-4-4-4-4-4---4--4--4-4-4-4-|
|--------------------------------------------|
|--------------------------------------------|
|--------------------------------------------|


                                     ~~~
  |-----6-----|  |-3--|
  S S S S S   S  S  S S S S S S S S  Q
|-------------------------------------------|
|-------------------------------------------|
|-4-4-4-4-4---4--4--4-4-4r4-4p2------2------|
|-------------------------------4-4---------|
|-------------------------------------------|
|-------------------------------------------|


  ~~~~~~~~~~~~~~~~~~~~~~~~~~~~~~~~~~~~~~~~~
                                            |---3---|
  Q      Q    Q      Q      Q      Q    E   S  S    S  S   S E
|-------------------------|--------------------------------------|
|-------------------------|----------------12-12---12-12h=14-0---|
|-xs=====xs===xs=====xs===|=xs=====xs===x/-----------------------|
|-------------------------|--------------------------------------|
|-------------------------|--------------------------------------|
|-------------------------|--------------------------------------|


w/Rhy Fig 4
   S  S  S  S  S  S  S  S  S  S  S  S  S  S  S  S
|-19p14----19p14----19p14-17p14----17p14----17p14-|
|-------17-------17-------------15-------15-------|
|-------------------------------------------------|
|-------------------------------------------------|
|-------------------------------------------------|
|-------------------------------------------------|


   S  S  S  S  S  S  S  S  S   S  S  S  S  S  S  S
|-17p12----17p12----17p12-15--14-12-----------------|
|-------15-------15-----------------15-14-12----12--|
|--------------------------------------------14-----|
|---------------------------------------------------|
|---------------------------------------------------|
|---------------------------------------------------|


   S  S  S  S  S  S  S  S  S  S  S  S  S  S  S  S
|-19p14----19p14----19p14-17p14----17p14----17p14-|
|-------17-------17-------------15-------15-------|
|-------------------------------------------------|
|-------------------------------------------------|
|-------------------------------------------------|
|-------------------------------------------------|


   S  S  S  S  S  S  S  S  S   S  S  S  S  S  S  S
|-17p12----17p12----17p12-15--14-12-----------------|
|-------15-------15-----------------15-14-12----12--|
|--------------------------------------------14-----|
|---------------------------------------------------|
|---------------------------------------------------|
|---------------------------------------------------|


   S  S  S  S  S  S  S  S  S  S  S  S  S  S  S  S
|-19p14----19p14----19p14-17p14----17p14----17p14-|
|-------17-------17-------------15-------15-------|
|-------------------------------------------------|
|-------------------------------------------------|
|-------------------------------------------------|
|-------------------------------------------------|


   S  S  S  S  S  S  S  S  S   S  S  S  S  S  S  S
|-17p12----17p12----17p12-15--14-12-----------------|
|-------15-------15-----------------15-14-12----12--|
|--------------------------------------------14-----|

|---------------------------------------------------|
|---------------------------------------------------|
|---------------------------------------------------|


   S  S  S  S  S  S  S  S  S  S  S  S  S  S  S  S
|-19p14----19p14----19p14-17p14----17p14----17p14-|
|-------17-------17-------------15-------15-------|
|-------------------------------------------------|
|-------------------------------------------------|
|-------------------------------------------------|
|-------------------------------------------------|


   S  S  S  S  S  S  S  S  S   S  S     S  S  S  S  S
|-17p12----17p12----17p12-15--12-------12-15-12--------|
|-------15-------15--------------15b17----------15-12--|
|------------------------------------------------------|
|------------------------------------------------------|
|------------------------------------------------------|
|------------------------------------------------------|


 w/Rhy Fig 5
   H                 S   S  S  S  S   S  S     S
|-------------------17--14----14-17--14-------14-|
|-17b19--------------------17-----------17b19----|
|------------------------------------------------|
|------------------------------------------------|
|------------------------------------------------|
|------------------------------------------------|


                      |-3--|
   Q          +E      E    S  S  S  S  S  S   S  S     S
|--------------------14---14-19p14-17p14-16--14-------14-|
|-17b19======(17)r------------------------------17b19----|
|--------------------------------------------------------|
|--------------------------------------------------------|
|--------------------------------------------------------|
|--------------------------------------------------------|


   S     S  S  S  S     S  S  S     S     S  S  S  S     S  S     S
|-------14-14-14-------14-14-------------15-15-15-------15-------15-|
|-17b19----------17b19-------17b19-18b20----------18b20----18b20----|
|-------------------------------------------------------------------|
|-------------------------------------------------------------------|
|-------------------------------------------------------------------|
|-------------------------------------------------------------------|


   S     S  S  S  S     S  S     S  S     S  S  S  S     S  S     S
|-------17-17-17-------17-------17-------18-18-18-------18-------18--|
|-20b22----------20b22----20b22----21b23----------21b23----21b23-----|
|--------------------------------------------------------------------|
|--------------------------------------------------------------------|
|--------------------------------------------------------------------|
|--------------------------------------------------------------------|


  H.=H                       A Tempo Q=154
 3/4                            4/4
                                   >
               ~~~~            |-w/Rhy Fig 1 (1st bar)
   Q          +H                  +Q       +H.
|-22b24======(22)------------||--(22)r====(22)---------------|
|----------------------------||o-----------------------------|
|----------------------------||------------------------------|
|----------------------------||------------------------------|
|----------------------------||o-----------------------------|
|----------------------------||------------------------------|


                                   F#5
                               Gtr II
                                   |-3-| |-3-|
  W                                Q Q Q Q Q Q
                                   | |   | |
                                   / /   / /

  Gtrs I, II                   Gtr I
  PM        PM                     PM|   PM|
                                   |-3-| |-3-|
  E S S +E  E E. S +E  S S  4x     Q Q Q Q Q Q
|---------------------------||-||--------------|
|--------------------------o||-||o-------------|
|---------------------------||-||--------------|
|-------------2--4-(4)------||-||--------------|
|-4---4-(4)-2-0--2-(2)-2p0-o||-||o-4-4---4-4---|
|-2---2-(2)-0---------------||-||--2-2---2-2---|


          E5(type 2)    F#5
  |-3-| |-3-|           |-3-| |-3-|
  Q Q Q Q Q Q           Q Q Q Q Q Q
  | |   | | |           | |   | |
  / /   / / /           / /   / /

  PM|   PM----------------|   PM|
  |-3-| |--3--|         |-3-| |-3-|
  Q Q Q Q Q E E  4x     Q Q Q Q Q Q
|----------------||-||---------------||
|---------------o||-||o-------------o||
|----------------||-||---------------||
|-------2-4------||-||---------------||
|-4-4---0-2-2p0-o||-||o-4-4---4-4---o||
|-2-2------------||-||--2-2---2-2----||

comments
We did not receive enough feedback on this tab! Please rate:
print report bad tab
1 2 3 4 5
I want to post or [tab]
guest
You may want to rate the tab now too:
select rating
Please do not post tabs as comments. Select "correction" instead!