Oops, an error
Loading. Please wait.

Live Shit Binge And Purge Mexico City Disc 1 Bass Tab

3,360 views 1 this week
no commentswrite comment
1 2 3 4 5
not so good
x 6
add to favorites launch autoscroll
font size
0
reset
Autoscroll
+/-
esc
set tempo
stop
WARNING: You are trying to view
                                    content from Ultimate-Guitar.com
                                    in an unauthorized application,
                                    which is prohibited.

                                    Please use an official Ultimate
                                    Guitar Tabs application for iPhone,
                                    iPad or Android to access legitimate
                                    chords, guitar, bass, and drum tabs
                                    from Ultimate-Guitar.com database.

                                    Type "ultimate guitar tabs" in Apple
                                    App Store's or Android Market's
                                    search to find the application.
Metallica
Live shit binge and purge, mexico city
Disc 1

Enter Sandman

Intro
g|---------|
d|--5--(x6)| u let da guitar play dis twice before u com in
a|-7-------|
e|0--65----|

g|-----------------------------------------------------|
d|----------(x4)------------(x4)---------(x4)----------|
a|-------/7--------/7-------------/7-----------/7------|
e|0000000--------00--600001-----00--65001----00--650000|

g|-|--------------------|-|
d|*|------(x3)----------|*| do dis twice
a|*|-/7-----------------|*|
e|-|0--650----30202/3\20|-|

Verse
g|--------------------------------------------------------------|
d|--------------------------------------------------------------|
a|--------------------------------------------------------------|
e|00000001000000100000030202/3\2000000001000000100000030202/3\20|

Pre chorse
g|-2----|
d|4---4-|(x3)
a|--32--|
e|-----2|

Chorse
g|------------------------------|
d|------------------------------|
a|-432-432-432---432------------|
e|2---2---2---0-2---0-30202/3\20|

g|-|--------------------|-|
d|*|------(x3)----------|*| do dis twice
a|*|-/7-----------------|*|
e|-|0--650----30202/3\20|-|

Verse
g|--------------------------------------------------------------|
d|--------------------------------------------------------------|
a|--------------------------------------------------------------|
e|00000001000000100000030202/3\2000000001000000100000030202/3\20|

Pre chorse
g|-2----|
d|4---4-|(x3)
a|--32--|
e|-----2|

Chorse
g|------------------------------|
d|------------------------------|
a|-432-432-432---432------------|
e|2---2---2---0-2---0-30202/3\20|

g|-|--------------------|-|
d|*|------(x3)----------|*| do dis 2 da end of da solo 
a|*|-/7-----------------|*| then don't play when he goes 
e|-|0--650----30202/3\20|-| 'know i lay...' then when it goes 
'hush little baby...' do dis

g|------|
d|--5---| till da chorse and i can't be assed 2 tab it out, so just 
a|-7----| figure it out its da same sort of ting as the chorse just a  
e|0--65-| little different, and the outro is the intro backwards 

g|-|--------------------|-|
d|*|------(x3)----------|*| do dis twice
a|*|-/7-----------------|*| just before u com in let da guitar play
e|-|0--650----30202/3\20|-| it twice


g|-------------------------------------|
d|----------(x4)---------(x4)----------| repeat ito a fade
a|--/7------------/7-----------/7------|
e|00--650001----00--60001----00--000000|

Creeping Death

Time 4/4
beat 184    

Intro:

|Fig.1
|--------------------------------|--------------------------------|
|*-------------------------------|--------------------------------|
|*------------------------7------|(7)-----------------------------|
|-0---0---0---0---0--------------|--------------------------------|

                                                         end Fig.1|
|--------------------------------|--------------------------------|
|--------------------------------|-------------------------------*|
|-------------------------7---5--|(5)----------------------------*|
|-0---0---0---0---0--------------|--------------------------------|

|Fig.1A
|--------------------------------|--------------------------------|
|*-------------------------------|--------------------------------|
|*------------------------7------|(7)--------------7--------------|
|-0---0---0---0---0--------------|--------------------------------|

                                                        end Fig.1A|
|--------------------------------|--------------------------------|
|--------------------------------|-------------------------------*|
|-------------------------7---5--|(5)--------------5-------------*|
|-0---0---0---0---0--------------|--------------------------------|

|--------------------------------|--------------------------------|
|--------------------------------|--------------------------------|
|--------------------------------|--------------------------------|
|---------5-------3-------2------|-0------------------------------|

|--------------------------------|--------------------16--17--16-|
|------------- x 6 --------------|--------------------------------|
|--------------------------------|--------------------------------|
|--------------------------------|--------------------------------|

|Fig.2                                                   end Fig.2|
|--------------------------------|--------------------------------|
|*-------------------------------|-------------------------------*|x 4
|*-------------------------------|-----------------2---3---2---0-*|
|-0---0---0---0---0---0---0---0--|-0---0---0---0------------------|

|Fig.3                                                   end Fig.3|
|--------------------------------|--------------------------------|
|*-------------------------------|-------------------------------*|x 4
|*-------------------------------|-------------------------------*|
|-0---0---3-------0---0---3------|-0---0---2---2---2---2---2---2--|

|--------------------------------|--------------------------------|
|*-------------------------------|-------------------------------*|
|*-------------------------------|-----------------2---3---2---0-*|
|-0---0---0---0---0---0---0---0--|-0---0---0---0------------------|

|Fig.4                                                   
|--------------------------------|--------------------------------|
|--------------------------------|--------------------------------|
|---------7---------------7------|-----7---5-----------7---5---7--|
|-0---------------0---0-------0--|(0)-----------------------------|

                                                         end Fig.4|
|--------------------------------|--------------------------------|
|--------------------------------|--------------------------------|
|-5---7---5-------4-------0------|-2-------2-------4--------------|
|--------------------------------|-------------------------2------|

Verse 1, 2, 3:

   Repeat Fig.2 x 8
   Repeat Fig.3 x 4

Chorus:

|Fig.5
|--------------------------------|--------------------------------|
|--------------------------------|--------------------------------|
|--------------------------------|---------------------3-------5--|
|-0-------0-------0---0---0---0--|(0)--0---0---0---0--------------|

|--------------------------------|--------------------------------|
|--------------------------------|--------------------------------|
|(5)------5-------5---5---5---5--|-5---5---5---5---8-------8------|
|--------------------------------|--------------------------------|

|--------------------------------|--------------------------------|
|--------------------------------|--------------------------------|
|-7-------7-------7---7---7---7--|(7)--7---7---7---7---3-------5--|
|--------------------------------|--------------------------------|

|--------------------------------|--------------------------------|
|--------------------------------|--------------------------------|
|(5)------5-------5---5---5---5--|--------------------------------|
|--------------------------------|-1---1---1---1---3---3---3-----|

|--------------------------------|--------------------------------|
|--------------------------------|--------------------------------|
|--------------------------------|---------------------3-------5--|
|-0-------0-------0---0---0---0--|(0)--0---0---0---0--------------|

|--------------------------------|--------------------------------|
|--------------------------------|--------------------------------|
|(5)------5-------5---5---5---5--|-5---5---5---5---8-------8------|
|--------------------------------|--------------------------------|

|--------------------------------|--------------------------------|
|--------------------------------|--------------------------------|
|-7-------7-------7---7---7---7--|(7)--7---7---7---7---3-------5--|
|--------------------------------|--------------------------------|

                                                         end Fig.5|
|--------------------------------|--------------------------------|3rd	
|--------------------------------|--------------------------------|Time
|(5)------5---5---5---5---5---5--|-5-------2-------4--------------|to 
|--------------------------------|-------------------------2------|Coda

Repeat Fig.2 x 2
Repeat Fig.4

Guitar Solo:
|--------------------------------|--------------------------------|
|*-------------------------------|--------------------------------|
|*-------------------------------|-----------------2---3---2---0--|
|-0---0---0---0---0---0---0---0--|-0---0---0---0------------------|

|--------------------------------|--------------------------------|
|--------------------------------|-------------------------------*|x 4
|-0---0---0---0---0---0---0---0--|-0---0---0---0---0-------3-----*|
|--------------------------------|--------------------------------|

Repeat Fig.3 x 4
Repeat Fig.5 

|--------------------------------|
|--------------------------------|
|--------------------------------|
|-0------------------------------|

Bridge:
 half-time
|Fig.6
|--------------------------------|--------------------------------|
|*-------------------------------|--------------------------------|
|*----------------7---7---7---7--|-8---8---8-------5--------------|
|-0------------------------------|--------------------------------|

                                                         end Fig.6|
|--------------------------------|--------------------------------|
|--------------------------------|-------------------------------*|x 6
|-7------------------------------|-------------------------------*|
|-----------------0---0---0---0--|-3-------3---3---1-------1------|

Repeat Fig.2 x 2

|--------------------------------|--------------------------------|
|--------------------------------|--------------------------------|
|--------------------------------|-----------------5----------(5)|
|-0------------------------------|-0-----1-----3------------------|

Coda:
|--------------------------------|--------------------------------|
|*----------------------------2--|(2)-----------------------------|
|*----------------------------2--|(2)-----------------------------|
|-0---0---0---0---0---0---0------|---------0---0---0---0---3---2--|

|--------------------------------|--------------------------------|
|-----------------------------3--|(3)----------------------------*|x 6
|-----------------------------3--|(3)------3---3---3---3---5---5-*|
|-0---0---0---0---0---0---0------|--------------------------------|

|--------------------------------|--------------------------------|
|--------------------------------|--------------------------------|
|---------7-------5-------3---2--|(2)-----------------------------|
|-0---0--------------------------|--------------------------------|

|--------------------------------|--------------------------------|
|--------------------------------|--------------------------------|
|(2)------3-------2-------0---3--|(3)-----------------------------|
|--------------------------------|--------------------------------|

|--------------------------------|--------------------------------|
|*-------------------------------|--------------------------------|
|*(3)-----7-------5-------3---2--|(2)-----------------------------|
|--------------------------------|--------------------------------|

                                 1. 2. 3.
|--------------------------------|--------------------------------|
|--------------------------------|-------------------------------*|
|(2)------3-------2-------0---3--|(3)----------------------------*|
|--------------------------------|--------------------------------|

Repeat Fig.1
Repeat Fig.1A
                                
|--------------------------------|--------------------------------|
|--------------------------------|--------------------------------|
|--------------------------------|--------------------------------|
|-----------------5--------------|-3---------------2--------------|

|--------------------------------|--------------------------------|
|--------------------------------|--------------------------------|
|--------------------------------|--------------------------------|
|-0------------------------------|(0)-----------------------------|

|--------------------------------|--------------------------------|
|--------------------------------|--------------------------------|
|--------------------------------|--------------------------------|
|(0)-----------------------------|(0)-----------------------------|

|--------------------------------|--------------------------------|
|--------------------------------|--------------------------------|
|--------------------------------|--------------------------------|
|(0)-----------------------------|(0)----------------------0------|

|--------------------------------:
|--------------------------------:
|--------------------------------:
|-0------------------------------: End.

Harvester of Sorrow

INTRO
G|-----------------|---------------------------|-----------------------------|
D|-----------------|---------------------------|---------hold-through--------|
A|-------2-1-0-----|-----------------2-1-0-----|----------clean-gtr-intro----|
E|-3-2-0-------3-2-|-0---------3-2-0-------3-2-|-0---------------------------|

INTRO 2                                                repeat 3x
G|-------------|----------------|-------------|----------------------|
D|o------------|---------0---0-o|-------------|----------------------|
A|o.-----.-----|-.-----0-------o|-.-----.-----|-.----------2-1-0-----|
E|-0-----0-----|-0----3----1----|-0-----0-----|-0----3-2-0-------3-2-|

G|-------------------------------|-------------------------------|
D|o------------------------------|------------------------------o|
A|o--------------------2p1-------|---------------------2p1------o|
E|-0--0-0-0--0-0-3p2-0-----0-3p2-|-1--1-1-1--1-1-3p2-0-----0-3p2-|

G|-------------------------------|-------------------------------|
D|-------------------------------|-------------------------------|
A|---------------------2p1-------|-------------------------------|
E|-0--0-0-0--0-0-3p2-0-----0-3p2-|-1--1-1-1--1-1-3-2-0-5-5-5-5-3-|

G|-------------------------------|-------------------------------|
D|-------------------------------|-------------------------------|
A|-------------------------------|-------------------------------|
E|-0-----------------------------|-(0)---------------------------|

G|---------------|---------------|--------------------|--------------------|
D|---------------|---------------|--------------------|--------------------|
A|-----rest------|---------------|---1----------------|---1----------------|
E|---------------|-----------0-1-|-2---0-0----0-0-0-1-|-2---0-0----0-0-0-1-|

G|--------------------|--------------------|
D|o-------------------|---0---------------o|
A|o--1----------------|-------------------o|
E|-2---0-0----0-0-0-1-|-2---3-3----3-3-0-1-|

VERSE
G|-----------------|-----------------|-----------------|-----------------|
D|o----------------|-----------------|-----------------|-----------------|
A|o----------------|-----------------|-----------------|-----------------|
E|-2-0--0--0-0-0-1-|-2-0--0--0-0-0-1-|-2-0--0--0-0-0-1-|-2-3--3--3-3-0-1-|

BRIDGE
G|-------------------|-----------------|-----------------|-----------------|
D|-------------------|-----------------|-----------------|-----------------|
A|-------------------|-----------------|-----------------|-----------------|
E|-2-0--0-1-2-0--0-1-|-2-0--0--0-0-0-1-|-2-0--0--0-0-0-1-|-2-3--3--3-3-0-1-|

G|---------------|-------------------|-----------------|---------------------|
D|---------------|-------------------|-----------------|---------------------|
A|---------------|-------------------|-----------------|---------------------|
E|-0---------0-1-|-2-0--0-1-2-0--0-1-|-2-0--0--0-0-0-2-|-0-------------------|

G|--------------------------------|--------------------------------|
D|--------------------------------|--------------------------------|
A|----------------------2p1-------|----------------------2-1-0-----|
E|-0--0-0-0--0-0--3p2-0-----0-3p2-|-1--1-1-1--1-1--3-2-0-------3-2-|

CHORUS
G|--------------------------------|--------------------------------|
D|--------------------------------|--------------------------------|
A|----------------------2p1-------|----------------------2p1-------|
E|-0--0-0-0--0-0--3p2-0-----0-3p2-|-1--1-1-1--1-1--3p2-0-----0-3p2-|

G|--------------------------------|--------------------------------|
D|--------------------------------|--------------------------------|
A|----------------------2p1-------|--------------------------------|
E|-0--0-0-0--0-0--3p2-0-----0-3p2-|-1--1-1-1--1-1--3-2-0-5-5-5-5-3-|
 _______________________________________________________
|1.                                            repeat 2x
G|---------------|------------------|-------------------|
D|---------------|------------------|------------------o|
A|---------------|------------------|---1--------------o|
E|-0-------------|-(0)-------1--0-1-|-2---0-0---0-0-0-1-|
 __________________________________________________________
|2.
G|--------------|-----------|---------|--------------------|
D|--------------|-----------|---------|--------------------|
A|--------------|-----------|---------|--------------------|
E|-0------------|-0---------|-0-------|-(0)---------1--0-1-|

SOLO
G|-------------------|-----------------|-------------------|
D|-------------------|-----------------|-------------------|
A|-------------------|-----------------|-------------------|
E|-2-0--0-1-2-0--0-1-|-2-0--0--0-0-0-1-|-2-0--0-1-2-0--0-1-|

G|-----------------|-------------------|-----------------|--------------------|
D|-----------------|-------------------|-----------------|--------------------|
A|-----------------|-------------------|-----------------|--------------------|
E|-2-3--3--3-3-0-1-|-2-0--0-1-2-0--0-1-|-2-0--0--0-0-0-1-|-0------------------|

INTERLUDE
G|----------------|-------------------|--------------------------------|
D|----------------|-------------------|--------------------------------|
A|----------------|-------------7-7-7-|----------------------2p1-------|
E|------------0-2-|-0-0-0-0-0-0-------|-0--0-0-0--0-0--3p2-0-----0-3p2-|

G|----------------|--------------------------------|-----------------------|
D|----------------|--------------------------------|-----------------------|
A|--------rest----|----------------------2p1-------|-----------------------|
E|-0--------------|-1--1-1-1--1-1--3p2-0-----0-3p2-|-0-------0--0-0-0--0-0-|

G|----------------------|----------------------|---------------------|
D|o---------------------|----------------------|--------------------o|
A|o---------------------|----------------------|--------------------o|
E|-0------1--1-1-1--1-1-|-0------0--0-0-0--0-0-|-0---------0-1-0-0-1-|

G|-------------|--------------------|--------------------------|
D|-------------|--------------------|--------------------------|
A|-------------|--------------------|--------------------------|
E|-0-----------|-(0)------0-1-0-0-1-|----------------0-1-0-0-1-|

3RD VERSE
G|----------------|-----------------|-----------------|-----------------|
D|----------------|-----------------|-----------------|-----------------|
A|----------------|-----------------|-----------------|-----------------|
E|---0-0--0-0-0-1-|-2-0--0--0-0-0-1-|-2-0--0--0-0-0-1-|-2-3--3--3-3-0-1-|

G|----------------|-----------------|--------------------------------|
D|----------------|-----------------|--------------------------------|
A|----------------|-----------------|----------------------2p1-------|
E|-0--------------|-(0)-------------|-0--0-0-0--0-0--3p2-0-----0-3p2-|

G|--------------------------------|
D|--------------------------------|
A|----------------------2-1-0-----|
E|-1--1-1-1--1-1--3-2-0-------3-2-|

FINAL CHORUS/OUTRO
G|--------------------------------|--------------------------------|
D|o-------------------------------|-------------------------------o|
A|o---------------------2p1-------|----------------------2p1------o|
E|-0--0-0-0--0-0--3p2-0-----0-3p2-|-1--1-1-1--1-1--3p2-0-----0-3p2-|
                        repeat 10x
G|--------------------------------|-------------------------------||
D|o------------------------------o|-------------------------------||
A|o---------------------2p1------o|-------------------rest--------||
E|-0--0-0-0--0-0--3p2-0-----0-3p2-|-0--0-0-0--0-0-----------------||

Welcome Home (Sanitarium)

Intro 4/4                                2/4         4/4
    |-----------------|---------------------|-----------|----------------------|
    |-------7---------|------------7-----75-|(5)----57--|----------------------|
    |-----PAUSE-------|---------------------|-----------|7---------------------|
    |-----------------|---------------------|-----------|----------------------|
                                                    H
                           2/4            4/4                                    2/4
|-------------------------|-------------||-------------------|------------------|------------||
|---------------7------7/9|(9)-----57---||:------------------|------------------|-----------:||
|(7)----------------------|----7--------||----------3------3-|5------5----------|------------||
|-------------------------|-------------||-0------0----------|---------5------3-|(3)-3--°5---||
                                   H                                                 °2 (2nd,4th
                                                                                          times)
  4/4                                 2/4
||------------------|----------------|----------||
||------------------|----------------|----------||
||---------3-----23-|5-3-2-----------|----------||
||0------0----------|------3-5------3|(3)-3-2-2-||

1st, 2nd Verses
4/4                                    2/4
|----------------|----------------|-----------|-----------------|-----------------|-----------|
|----------------|----------------|-----------|-----------------|-----------------|-----------|
|--------3-----3-|5-----5---------|-----------|--------3------3-|5------5---------|-----------|
|0-----0---------|--------5---5-3-|(3)--3--5--|0-----0----------|---------5---5-3-|(3)-3-2-2--|

4/4                                2/4         4/4                                 2/4
|----------------|----------------|-----------|-----------------|-----------------|-----------|
|----------------|----------------|-----------|-----------------|-----------------|-----------|
|--------3-----23|5-3-2-----------|-----------|--------3------23|-5-3-2-----------|-----------|
|0-----0---------|------3---5----3|(3)-3-2-2--|0-----0----------|-------3-5-5-5-3-|(3)-3-2-2--|

4/4                                2/4      4/4                               2/4
|----------------|----------------|--------|----------------|----------------|--------||
|----------------|----------------|--------|----------------|----------------|--------||
|----2-2-----3-3-|----5-5---------|--------|----2-2-----3-3-|----5-5---------|--------||
|0-0-----0-0-----|0-0-----5-5-5-3-|3-3-5-2-|0-0-----0-0-----|0-0-----5-5-5-3-|3-3-5-2-||

Chorus
4/4
|-------------------|----------------|-------------------|------------------|
|-------------------|-------020------|-------------------|------------------|
|-----------32--32|(2)-------32----|-----------32--32|(2)-22222232------|
|0---XX32XX---XX---|------------5323|0---XX32XX---XX---|-------------3-X-1|
                            HP
                                                                            Second time to Coda
|-------------------|----------------|-------------------|------------------||
|-------------------|-------020------|-------------------|------------------||
|-----------32--32--|(2)-------32----|-----------32--3---|2-----------------||
|0---XX32XX---XX----|------------5323|0---XX32XX---XX----|------------------||
                            HP
                                     2/4           3 times
||-----------------|----------------|-------------||
||:----------------|----------------|------------:||
||---------3-----3-|5-----5---------|-------------||
||-0-----0---------|--------5-----3-|(3)--3--°5---||
                                             °2 (2nd time)

4/4                                   2/2       D.S. al Coda
|------------------|-----------------|----------||
|------------------|-----------------|----------||
|---------3------3-|5------5---------|----------||
|0------0----------|---------5-5-5-5-|(3)-3-2-2-||

Coda
2/4               4/4                              2/4
|----------------|------------------|-------------|----------------|
|-------020------|------------------|-------------|-------020------|
|----------32----|-----------32--3--|2------------|----------32----|
|------------5323|0---XX32XX---XX---|-------------|------------5323|
        HP                                                HP

Double time
4/4
|-------------|-------------|-------------|-------------|----------------|----------------|
|-------------|-------------|-------------|-------------|----------------|----------------|
|-------------|-------------|-------------|-------------|----------------|----------------|
|0------------|(0)----------|(0)----------|(0)----------|0-0-0-0-0-0-0-0-|0-0-0-0-0-0-0-0-|

|-------------|-------------|----------------|----------------|----------------|----------------|
|----%--------|------%------|----------------|----------------|----------------|----------------|
|-------------|-------------|----------------|----------------|----------------|----------------|
|-------------|-------------|5-7---5-7-0-0-0-|0-0-0-0-0-0-0-0-|5-6---5-6---5-6-|--5-7-0-0-0-0-0-|
                              H     H                           H     H     H      H

                                                                       X3
||-----------------|----------------|----------------|-----------------||
||:----------------|----------------|----------------|----------------:||
||-----------------|----------------|----------------|-----------------||
||-5-6---5-6-0-0-0-|0-0-0-0-0-0-0-0-|5-6---5-6---5-6-|--5-7-0-0-0-0-0--||
    H     H                           H     H     H      H

|------------|-----------|------------|--------------|
|------------|-----------|------------|--------------|
|02----------|02-55------|02----------|02-33-32-22---|
|---00-------|-----------|---11-------|--------------|

|------------|-----------|------------|--------------|-----------------|
|------------|-----------|------------|--------------|-----------------|
|02----------|02-55------|02----------|02-33-32-22---|-----------------|
|---00-------|-----------|---11-------|--------------|000000000000(12)|

Double time
Guitar Solo
||---------------------------------------------------------------------||
||:-------------------------------------------------------------------:||
||---------------------------------------------------------------------||
||-5-6---5-6-0-0-0-|0-0-0-0-0-0-0-0-|5-6---5-6---5-6-|--5-7-0-0-0-0-0--||

Nornal  time                                                                   X6
|------------|------------||------------|-----------|-----------|---------------||
|------------|------------||:-----------|-----------|-----------|--------------:||
|02----------|02-55---5---||-02---------|02-55------|02---------|02-33---32-22--||
|---00-------|------------||----00------|-----------|---11------|---------------||

|-----------|-----------|-----------|--------------|
|-----------|-----------|-----------|--------------|
|02---------|02-55------|02---------|02-33---32-22-|
|---00------|-----------|---11------|--------------|

|----------------|----------------|----------------|----------------|------------------|
|----------------|----------------|----------------|----------------|------------------|
|02--------------|02-55---5-5-5-5-|02--------------|02-33---2-2-2-2-|2-2-2-2--2-2-2-2--|
|---00---0-0-0-0-|----------------|---11---1-1-1-1-|----------------|------------------|

|----------------|----------------|----------------|----------------||
|----------------|----------------|----------------|----------------||
|2---0-----------|----------------|----------------|----------------||
|--------3---2---|0---------------|(0)-------------|7--------------||
                  /                 /
                  /                 /

Sad But True

F:------------------------------------|-------------------------------------|
C:------------------------------------|-------------------------------------|
G:--0----------0--0--0--1----------1--|--0-----------0--0--0--1-------------|
D:------------------------------------|-------------------------------------|

F:-----------------------------------------|-------------------------|------|
C:---------------------------------8--5----|-------------------------|------|
G:--0----------0--0--0--1---------------8--|--0----------0--0--0--1--|-Rest-|
D:-----------------------------------------|-------------------------|------|
               Riff 1.                    (x3) Bass Fill 1.
F:-----------|-------------------------------|-----------------------------|
C:-----------|*-----------------------------*|--------------------~~~~~~~--|
G:-Drum-Fill-|---------------5p0--1p0--------|--------------5-0-5-5--------|
D:-----------|*--0-----0--0------------3p0--*|--0-----0--0-----------------|

F:--------------|----------------------|-------------|---------------|
C:--------------|----------------------|-------------|---------------|
G:-Riff-1-(x3)--|---------------rest---|--Drum-Fill--|--Riff-1-(x2)--|
D:--------------|--0-----0--0----------|-------------|---------------|

   Bass Riff 2. (Verse)                              (x4)
F:--------------------------------------------------------|
C:*------------------------------------------------------*|
G:------------5-------------------------------------------|
D:*-0--0--0-0----0--0--R--0-0--0--0--0--6--0--0--R--0-0--*|

   Bass Riff 3. (Chorus)
F:---------------------------------------------------------------------------|
C:*--------------------------------------------------------------------------|
G:------------5--------------------------5-----------------------------------|
D:*-0--0--1-1----1--0--0--0-0--0--0--1-1----1--5--5--5-5-5--5-5-5-4-3--5--3--|

                                  (x2)
F:------------------------------------|-------------|--------------|
C:-----------------------------------*|-------------|--------------|
G:--------------3-3-3-3-------2-3-5---|-Riff-1-(x3)-|-Bass-Fill-1--|
D:3--3-3--3--3-----------0--X--------*|-------------|--------------|

                                                 *2nd Verse
F:---------|---------------------|-------------|---------------------|
C:---------|---------------------|-------------|---------------------|
G:-Riff-1--|---------------Rest--|--Drum-Fill--|--Bass-Riff-2.-(x4)--|
D:---------|--0-----0--0---------|-------------|---------------------|

   *2nd Chorus                            Bass Fill 2.
F:---------------------|----------------|----------------------------|
C:---------------------|----------------|----------------------------|
G:--Bass-Riff-3.-(x2)--|--Riff-1.-(x2)--|------------------0h1p0-----|
D:---------------------|----------------|--0-----0--0--0-3-------3---|

                                         (x4)
F:-------------------------------------------|--------------|
C:-------------------------------------------|--------------|
G:--0---------0-----0--1------------1--1--1--|--Rest,-Drums-|
D:---------------3---------------------------|--------------|

  Gtr. Solo 1
F:----------------|---------------------------|----------|---------|
C:----------------|---------------------------|----------|---------|
G:--Riff-1.-(x3)--|--------------5-0----------|--Riff-1--|-Fill-2--|
D:----------------|--0-----0--0------0-0-3-5--|----------|---------|

                           (x4)  *3rd Chorus     Gtr Solo 2
F:-----------------------------|---------------|----------|----------|
C:-----------------------------|---------------|----------|----------|
G:--0--0--1-1----1--0--0--0-0--|--Riff-3-(x2)--|--Riff-1--|--Fill-2--|
D:------------3----------------|---------------|----------|----------|

                                                            *3rd Verse
F:----------|---------|---------------------|-------------|---------------|
C:----------|---------|---------------------|-------------|---------------|
G:--Riff-1--|-Fill-2--|---------------Rest--|--Drum-Fill--|--Riff-2-(x4)--|
D:----------|---------|--0-----0--0---------|-------------|---------------|

    *4th Chorus                         (x2)
F:---------------|--------------------------|--------------------------|
C:---------------|--------------------------|--------------------------|
G:--Riff-3-(x2)--|--------------------------|--------------------------|
D:---------------|--0--0--0--0--0--0--0--0--|--0--0--12---0--0--0--0--|

F:------------------------|--------------|-------------------------||
C:------------------------|--------------|-------------------------||
G:------------------------|--Gtr,-Drums--|------------Rest.--------||
D:--0--0--0--0--0---Rest--|--------------|--0----------------------||
                                          
             accent                      accent

Of Wolf and Man


116 bpm (4/4) Intro:   (5)
   W||  E E E E E E E E  ||  W| (W)| (W)| (W)| (W)  |
g: R||                   ||   |    |    |    |      |
D: R||X                 X||X  |    |    |    |     X|
A: R||X                 X||X  |    |    |    |     X| 
E: R||  0 R 0 R 0 R 0 R  ||  0| (0)| (0)| (0)| (0)  |

1ST VERSE
   E S S Q. Q Q.| Q Q. Q Q.| Q Q. Q Q.| Q Q. Q Q.| E S S Q. Q Q.| Q Q. Q Q.|
G:              |          |          |          |              |          |
D:              |          |          |          |              |          |
A:              |          |          |          |              |          |
E: 0 0 0 0  R 0 | R 0  R 0 | R 0  R 0 | R 0  R 0 | 0 0 0 0  R 0 | R 0  R 0 |

   Q Q. Q Q.| E S S E E E S S E E|  E S S E E E E E E| (E) E E E E E E E  |
G:          |                    |                   |                    |
D:          |                    |X                  |                   X|
A:          |                 2 1|X             2   1| (1)               X|
E: R 0  R 0 | 0 0 0 1 0 0 0 0    |  0 0 0 1 0 0   0  |     0 0 0 0 0 0 0  |

2ND AND 3RD VERSES                       (4)                     (2/4)  
     E S S E E E E E E| (E) E E E E E E E  | E E E E E E E E| E E E E|
G:|                   |                    |                |        |
D:|X                  |                   X|                |        |
A:|X             2   1| (1)               X|                |   2   1|
E:|  0 0 0 1 0 0   0  |     0 0 0 0 0 0 0  | 0 R 0 R 0 R 0 R| 0   0  |

(4/4) CHORUS
   (E) E E E E E E E| E E E E E E E E| (E) E E E E E E E| E E E E E E E E|
G:                  |                |                  |                |
D:                  |                |                  |                |
A: (1) 1 1 1 1 1 1 1|           2   1| (1) 1 1 1 1 1 1 1|           4   3|
E:                  | 0 0 1 0 0   0  |                  | 0 0 1 0 0   0  |

   (E) E E E E E E E| E E E E E E E E| (E) E E E E E E E| E S S E E E S S E E|
G:                  |                |                  |                    |
D:                  |                |                  |                    |
A: (3) 3 3 3 3 3 3  |           4   3| (3) 3 3 3 3 3 3  |                    |
E:                 0| 2 2 3 2 0   0  |                 0| 2 2 2 3 2 2 2 2 3 2|

                   
1-------------------------------------------------------
   E E E E E E  Q | E S S E E E E E E| (E) E E E E E E E| E S S E E E E E E|
G:                |                  |                  |                  |
D:                |                  |                  |                  |
A:                |             2   1| (1)              |             2   1|
E: 2 r 2 r 2 r 12| 0 0 0 1 0 0   0  |     0 0 0 0 0 0 0| 0 0 0 1 0 0   0  |

(1)----------------------           2-----------              (3)
    E  E S   S   S S E   E E   E   | E S S Q. Q E|  (E) Q. Q Q  | W| (W)|
G:                                 |             |              |  |    |
D:        /-         /-   /-   X|             |X            X|  |    |
A: (1)   5 H 7 P 5   5 H 7 5 H 7 X|          R 7|X (7)      7 X|  |    |
E:     0      -/  7               | 0 0 0 0  R  |      0  R    | 0| (0)|

GUITAR SOLO               
     E S S E E E S S E S S| E S S E E E S S E S S| E S S E E E S S E S S|
G:|                       |                      |                      |
D:|X                      |                      |                      |
A:|X                      |                      |                      |
E:|  0 0 0 1 0 0 0 0 0 0 0| 0 0 0 1 0 0 0 0 0 0 0| 0 0 0 1 0 0 0 0 0 0 0|

   E E Q. E E E| E E E E E E E E| (E) E E E E E E E| E E E E E E E E|
G:             |                |                  |                |
D:             |                |                  |                |
A:             |           2   1| (1) 1 1 1 1 1 1 1| 1 1 1 1 1 4 1 3| 
E: 3 R 3  1 R 1| 0 0 1 0 0   0  |                  |                |


   (E) E E E E E Q | E E E E E E E| E S S E E E E E E| (E) E S   S  S  S E   E E   E|
G:                 |              |                  |                              |
D:                 | *   *   *   *|                  |        /-         /-   /- |
A: (3) 3 3 3 3 3 3| 3 R 4 R 5 R 6|             2   1| (1)   5 H 7 P 5   5 H 7 5 H 7|
E:                 |              | 0 0 0 1 0 0   0  |     0      -/  7            |

   E S S E E E E E E| (E) E S   S  S  S E   E E   E| (H) E E S S E| (W)|
G:                  |                              |              |    |
D:                  |        /-         /-   /- |              |    |
A:             2   1| (1)   5 H 7 P 5   5 H 7 5 H 7| (7)          |    |
E: 0 0 0 1 0 0   0  |     0      -/  7            |     3 0 3 3 2| (2)|

INTERLUDE  (7) I FEEL ...                                                 
       (4)
   W||  (W)  | E S S Q. Q Q.| Q Q. Q Q.| Q Q. Q Q.| Q Q. Q Q.|  E S S E E S S E E  |
G:  ||       |              |          |          |          |                     |
D:  ||X     X|              |          |          |          |X                   X|
A:  ||X     X|              |          |          |          |X               4 3 X|
E: 0||  (0)  | 0 0 0 0  R 0 | R 0  R 0 | R 0  R 0 | R 0  R 0 |  2 2 2 3 2 2 2      |

                                 END OF 3RD CHORUS
   E E E E E E E| E E E E E E E | E S S E E E S S E E|
G:              |               |                    |
D: *   *   *   *| *   *   *   * |                    |
A: 3 R 4 R 5 R 6| 4 R 5 R 6 R 7|                    |
E:              |               | 2 2 2 3 2 2 2 2 3 2|


The Unforgiven

INTRO

|----------------------------------------|---------------------------|
|------------====guitar====--------------|---------------------------|
|----------------------------------------|--0---2-2-3------3------3--|
|----------------------------------------|---------------------------|

|--------------------------------------------------------------------|
|-----------------------------------------------------------3-----3--|
|-3-2---------2-----------0-0-2-----0-------0---2---3----------------|
|-----3-----------0--------------------------------------------------|

|--------------------------------------------------------------------|
|-3-1----------------------------------------------------------------|
|-----2-------2-----------2-----2---0--------------------------------|
|-----------------4---------4----------------------------------------|

VERSE

It's kinda hard to get the right timing with this, so I did this part like
every other person did it, with a Chord sheet. Easier for everyone.


|---|     |---|    |---|    |---|    |---|
|---|     |---|    |---|    |---|    |---|
|---|     |---|    |-5-|    |---|    |-3-|
|-5-| A   |-0-| E  |---| D  |-3-| G  |---| C


A                     E
New blood joins this earth

D               A
And quickly he's subdued

                         E
Through constant pain disgrace

D                      A
The young boy learns their rules

                          E
With time the child draws in

D                 A
This whipping boy done a wrong

                     E
Deprived of all his thoughts

D                   A
the young man struggles on and on

             C            G
He knows a vow unto his own

C               G
That never from this day

     C                 G    E
His will they'll take away.CHORUS
|--------------------------------------------------------------------|
|--------------------------------------------------------------------|
|--------0---2---3-------3------3---3-2---------2-----------0-0-2----|
|---------------------------------------3-----------0----------------|


|--------------------------------------------------------------------|
|-------------------------3-----3---3-1------------------------------|
|-0-------0---2---3---------------------2-------2-----------2---0-2--|
|---------------------------------------------------4---------4------|

|--------------------------------------------------------------------|
|--------------------------------------------------------------------|
|-0-------0---2---3-------3-----3---3-2---------2-----------0-0-2----|
|---------------------------------------3-----------0----------------|


|--------------------------------------------------------------------|
|-------------------------3-----3---3-1------------------------------|
|-0-------0---2---3---------------------2-------2-----------2---0-2--|
|---------------------------------------------------4---------4------|

|---------------------------------|
|---------------------------------|
|-0-------------------------------|
|---------------------------------|

Justice Medley
I can't be bothered to get the order of how it goes, so I'll just give you the tabs for the four songs

Eye of the Beholder

Intro:
  s s s s s s s s  e  e  s s  e
E-0-0-0-0-0-0-0-0--0--0--0-0--0---------------
A---------------------------------------------
D---------------------------------------------
G---------------------------------------------

Verse:
   e  e  s s e  s s s s s s s s  e  e  s s e  s s s s s s s s
E--3--3--3-3-3--2-2-2-2-2-2-2-2--2--2--2-2-2--0-0-0-0-0-0-0-0
A------------------------------------------------------------
D------------------------------------------------------------
G------------------------------------------------------------

Blackened

INTRO         *backwards bass guitar
|--------------------------------------------------------------------|
|--------------------------------------------------------------------|
|--------------------7------------------------------------7----------|
|---7--------8------0--------7--------8--------10-------0------------|

|--------------------------------------------------------------------|
|--------------------------------------------------------------------|
|-9--10-----------------------7----------------------------------7---|
|--------7--8---------10------0--------7-------8-------10--------0---|

|-----------------------------------|-----|
|-----------------------------------|-----|
|--1------2--3-3--------------------|-----|
|----2--3--------1-0----------0-----|-----|

|--------------------|---|------------------------------|
|--------------------|---|------------------------------|
|--------------------|---|---7---7---7-8-7---7---7---7--|
|--3--3--3-3-0-2-2---|---|-0---0---0---------0---0---6--|

|-------------------------------------------------------------------|
|-------------------------------------------------------------------|
|---7---7---7-8-7-1-----2--3-3-----------------------1-----2--1-----|
|-0---0---0-----------2-3--------1---------000000------2-3------3---|

1,2,3VERSES...................2X's....................................
|-------------------------------------------------------------------|
|-------------------------------------------------------------------|
|---------------1-----2-1-------------------1-----2-1---------------|
|-0--0--0-0-00---2-3-----3---0-0-0-0--0-0--2-3-----3---0--0-0-0-0-0-|
...............
---------------||-------------------------|
---------------||-------------------------|
--1-----1------||-------------1-----1-----|
----2-3---2-3--||-000000---2-3---2-3------|

|------------------------------------------------------------|
|------------------------------------------------------------|
|-------------1-----2-3-3----------7---7---7-8-7---7---7---7-|
|333333---2-3-------1------0---0---0---------0----0----6-----|

|----------------------------------------------------------------------|
|----------------------------------------------------------------------|
|---7---7----7-8-7--1-----2--3-3-------7---7----7-8-7---7-7---7--------|
|-0---0----0----------2-3--------1---0---0----0--------0---0---6---0000|

CHORUS..............................................................
|-------------------------------------------------------------------------|
|-------------------------------------------------------------------------|
|--7---------------5--------3---------------------------------------------|
|--0-----------5-5--------3--3------3-3---2---2-2-2-2-0--3-3-3------3-3-3-|

.......................................................................
|-----------------------------------------------------------------------|
|-----------------------------------------------------------------------|
|-7------------5---------3-3--------------------------------------------|
|0--------5-5-----3--3-------3--2--------2-2-2-2-0-3----3-3-3-0-----2--2|
..........................................................
|-----|----------------------------------------------------|
|-----|----------------------------------------------------|
|-----|----------------------------------------------------|
|-----|-3-3-3-3--0--2-2-----1--1----0------(0)---------(0)-|

|---------------------------------------------------------------|
|---------------------------------------------------------------|
|-------------------------------------------------6--6----6--6--|
|-0-0-0-0-0-0-0-0--0-0-0-0--0-0-0--0-0-0-0--5--6----------------|

|-------------------------------------------------------------|
|-------------------------------------------------------------|
|-------7----------------8-7----------------7-----------------|
|-0-5-6---0-0-0-0---5-6---------0-0-0-0--0-5-6-------0-0-0-0--|

|---------------------------------------------------------------------|
|------------------------------------8--------------------------------|
|-----6----6-6--------7---------7-----7---------------7---------------|
|-5-6---------0-5-6---0-0-0-0----6-----0-0-0-0-0-5-6---0-0-0-0----6-0-|

--------------------|
--------------------|
-6-6-6-6-6-6-----7--|
---------------0----|

|---------------------------------------------------------------------|
|---------------------------------------------------------------------|
|----7-7-7-----------7-7-7----7--------7-7-7---7-5---6-----6-6-5-7----|
|-0--------5-7-6-0---------5----6--0---------0----------------------6-|

|----------------------------------------------------------------------|
|----------------------------------------------------------------------|
|----7-7-7-----------7-7-7----7--------7-7-7---7--5--6----6-6-6-6-----2|
|-0--------5-7-6-0---------5----6--0---------0----------------0-2------|

|---------------------------------------------------------------------------------|
|---4-----------------5-4------------------4--------------------------------------|
|-3----------------2-------------------2-3---------------3-2----------------------|
|------2-2-2-2-0-2-------------2--2--2-0-2-----------2-2-2---------3---1--1-1-1-1-|

|---------------------------------------------------------------|
|---------------------------------------------------------------|
|-------7--------------8-7----------------7--------------7------|
|-0-5-6-----0-0-0-0--5-6----------0-0-0-0-0-5-6----0-0-0-0--5-6-|

|---------------------------------------------------------------------------------|
|--------------------8------------------------------------------------------------|
|------7---------7-------7--------------7--------------6---6---6-----7------------|
|-0-5-6----0-0-0-0---6---------0-0-0-0-0-5-6----0-0-0-0--6-0--4---4---4------0----|

|--------------------------------------------------------------|
|--------------------------------------------------------------|
|-----7-7-7----------7-7-7---7-------7-7-7---7-5-6-----6-6-5-7-|
|--0--------5-7-6-0--------5---6--0--------0----------------6--|

|-------------------------------------------------------------------|
|-------------------------------------------------------------------|
|----7-7-7----------7-7-7---7------7-7-7---7-5-6---6-6-6----------2-|
|-0--------5-7-6-0--------5---6-0--------0---------------0-2--------|

|--------------------------------------------------------------|
|---4-------------5-4---------------4--------------------------|
|-3-------------2--------------2-3-----------3-2-----------8---|
|-----2-2-2-0-2----------2-2-2-0-2---------2-2-2-------3-1-----|

|-------------------------------------------------------|
|----9-----7--------------------------------------------|
|-7----7--5---3--3--2----------7--0--5---3--3---2--2----|2X's
|---------------------3-2--0-----------------------3--2-|

GUITAR SOLO.......6X's................
|-------------------------------------|-----------------------------|
|-------------------------------------|-----------------------------|
|-----------------------------9---10--|-----------------------------|
|-0-3-0--2-0-3-0-2-0-3-0-2-0-3-7---8--|-0-3-0-2-0-3-0-2-0-3-0-2-0-3-|

|----------------|--|----------|
|----------------|--|----------|
|----------------|--|------19--|
|-3--3-3-3-0-2-2-|--|-1-1------|

|------------------------------------------------------------------|
|------------------------------------------------------------------|
|---8---8---8---8---7---7-----5H7---7---7---7---7---5---5---5---5--|
|-0---0---0---0---0---0---0-0-----0---0---0---0---0---0---0---0----|

----------------------------------------------------|
----------------------------------------------------|
----8---8---8---8--7---7-----5H7--------------------|
--0---0---0---0---0---0---0-0-------0-0-0-0-0-0-0-0-|

|-----------------------------------------------------|
|----------------------------------------------------|
|-7----------5-----3---------------------------------|2X's
|-0------5-5----3-3---3-3-2--2-2-2-2-0--3-3-3--3-3-3-|
................................2X's................................
|---------------------------------------------------------------------|
|---------------------------------------------------------------------|
|---7---7---7---7---7---7---7---7---5---5---5---5---10---10---5----5--|
|-0---0---0---6---5---5---5---5---3---3---3---3---8----8----3----3----|

|---------------||------------------------------------------------------|
|---------------||------------------------------------------------------|
|---------------||--7---7---7-8-7---7---7---7---7---7---7-8-7-1-----2---|
|-3-3-3-3-3/----||0---0---0-----0---0---6---0---0---0-------2-3----1----|
.....................2X'S..........................
|-----------------||---------------------------------------------------|
|-----------------||---------------------------------------------------|
|-----------------||7--------5------3----------------------------------|
|-3--3-3-3-0-2----||0----5-5----3-3-----3-3--2---2-2-2-2-0--3-3-3-3-3-3|

|-----------------------------------------------------------------------|
|-----------------------------------------------------------------------|
|-------------------------------------7---7---7-8-7---7---7-------------|
|-0--2--2---3-3-3-3-0-2-2---1---1----------0---0---0------0---0---6---0-|

THE Frayed Ends of Sanity

Intro:

G|----------------------|
D|----------------------|
A|------3----------2----|
E|-0---------0----------|


  "Oh-ee-oh"
G|--------------|
D|--------------|
A|---1------1---|
E|-0---0-xx---0-|

  Whoosh
G|----------|
D|----------|
A|---1-11-1-|
E|----------|



Verse (this style of Verse is complex. It alternates
the 2nd and 1st riff. When singing, 2nd, and 1st when 
not. After a few of each, alternate between 3rd and 1st 
riff twice. Then go back and do the 1st riff twice):

G|-----------------------------|
D|-----------------------------|
A|---------1-------1-----------|
E|-0-0-0-0----0--0---0-0-0-0-1-|


G|-------------------------------------------------|
D|-------------------------------------------------|
A|-------------------------------------------------|
E|-7-0-0-7-0-0-6-0-0-6-0-0-5-0-0-5-0-0-4-0-0-3-0-0-|

G|-----------------|
D|-----------------|
A|-----------------|
E|-7-7-6-6-5-5-4-4-|



Pre-Chorus:

G|-----------------------------------------|
D|-----------------------------------------|
A|-----------------------------------------|
E|-0-0-3-3-5-0-0-3-3-5-0-0-3-3-0-0-3-4-5-6-|

G|-----------------------------------------|
D|-----------------------------------------|
A|-----------------------------------------|
E|-0-0-3-3-5-0-0-3-3-0-0-0-3-3-0-0-3-4-5-6-|



Chorus:

G|----------|-----------|----------|---------|
D|----------|-----------|----------|---------|
A|----------|-----------|------2---|---------|
E|-0---2----|-3-4-5-6---|-0--------|-3-4-5-6-|

G|----------|-----------|----------|
A|----------|-----------|----------|
D|----------|-----------|-7-----5--|
E|-0--3--2--|-3-4-5-6---|----------|

G|--------------------------|
D|--------------------------|
A|----------3-4-5-6---------|
E|-3-4-5-6----------3-4-5-6-|



Bridge (do this, then go one note higher, ect.):

G|--------------------------------|
D|-2-4-2-5------------------------|
A|---------4-2-2h4p2p-----------2-|
E|--------------------5-3-2-3-5---|



  Pre-Solo
G|-----------------------------|
D|-----------------------------|
A|-7p5h7-7p5h7-7p5h7-7p5h7-----|
E|-------------------------7-6-|

G|------------------------------|
D|------------------------------|
A|-7p5h7-7p5h7-7p5h7-7p5h7------|
E|--------------------------6-8-|



  Post-Solo
G|---------------------------|
D|---------------------------|
A|-7-----5-7---7---5h7-------|
E|---0-0-----0---0-----0-0-0-|

...And Justice For All

Bass Riff1
|-----------------------------|
|-----------------------------|
|--2-2-2-2-2-2-1-1-1-1-1-0-1--|
|-----------------------------|

Bass Riff2
|------------------------------------------------4-------------3----|
|-----------------------7--------------------4---------------3------|
|--7-7-7--7-5h7-5-5-5-5---5-3-3-3--3-3h5-2-2---2---2-1-1-3-1-----1--|
|-------------------------------------------------------------------|

Bass Riff3
|----------------------------------------------------------------|
|-----------------------------------------------------------3-2--|
|---------------------------------------------------------0------|
|---6----6-5----6-5-4----6-5-4-3----6-5-3-1-5-3-1-0-3-1-0--------|

Bass Riff3 (cont.)
|---------------------------------|
|---------------------------------|
|--3--2--0-----2-0-----0----------|
|-----------3------3-2---3-2-1-0--|

Bass Riff4
|---------------------------------------------------------------|
|---------------------------------------------------------------|
|-----------------------5h7--7-5------------------5h7--7-5------|
|--6--6--5---6--6--5--0------------7---6--6--5--0------------7--|

Bass Riff5
|-------------------------------------------------------------------------|
|-------------------------------------------------------------------------|
|-------------------------7------7-----------------------0----------0-----|
|--6--6--5---6--6--5---0------0------0--0---2--3--0---0------3--5------0--|

Bass Riff5 (cont.)
|----------------------------------------------------------------------|
|----------------------------------------------------------------------|
|------0-0-----0-0-----7------7-----------------------0----------0-----|
|--0-3-----0-3------0------0------0--0---2--3--0---0------3--5------0--|

Bass Riff5 (cont.)
|---------------------|
|---------------------|
|--------0---8--8--7--|
|--0--3---------------|

Bass Riff6
|----------------------------------------------------------------|
|----------------------------------------------------------------|
|----5h7--7-5------------------5h7--7-5--------------------------|
|--0------------7---6--6--5--0------------7---6--6--5---6--6--5--|

Bass Riff6 (cont.)
|----------------------------------------------------------------|
|----------------------------------------------------------------|
|----5h7--7-5------------------5h7--7-5--------------------------|
|--0------------7---6--6--5--0------------7---6--6--5---3--3--2--|

Bass Riff7
|-----------------------------------------------------------|
|-----------------------------------------------------------|
|----7----7--7---------------7----7--7----------------------|
|--0----0----0---0--0--1---0----0----0---6--6--5---6--6--5--|

Bass Riff8
|--------------------------|
|--------------------------|
|-----7--7--------5--5-----|
|--0--------0--0--------3--|

Bass Riff9
|-----------------------------------|
|-----------------------------------|
|-----------------------------------|
|--2---2-2-2-2-2-2-3-2-0-2h3---2h3--|

Bass Riff10
|-------------------|
|-------------------|
|-------------------|
|--2---2-2-2-2-2-2--|

Bass Riff11
|------------------------------|
|--5---------------------------|
|----------3--3-----------5h7--|
|---------------------5h7------|

Bass Riff12
|----------------------------------------------------------------|
|----------------------------------------------------------------|
|--7-------------------------------------------------------------|
|--0---0-0-0-0-0-0--1-0-0-0h1---0h1---5---5-5-3-5-7---7-7-5-7-8--|

Bass Riff12 (cont.)
|---------------------------------------------------------------------|
|---------------------------------------------------------------------|
|----------------------------------------------------------------7-8--|
|--7-5-3-1--0---0-0-0-0-0-0--1-0-0-0h1---0h1---5--5-5-3-5-7--10-------|

Bass Riff12 (cont.)
|----------------------------------------------------------------|
|----------------------------------------------------------------|
|--7-------------------------------------------------------------|
|--0---0-0-0-0-0-0--1-0-0-0h1---0h1---5---5-5-3-5-7---7-7-8-7-5--|

Bass Riff12 (cont.)
|-------------------------------------------------------|
|-------------------------------------------------------|
|----------5--3--3-3-2----------------------------------|
|--3-3-5-3-------------3-2-1----1----6--6--5---6--6--5--|

Bass Riff13
|----------------------------------------------------------------|
|----------------------------------------------------------------|
|----5h7--7-5------------------5h7--7-5--------------------------|
|--0------------7---6--6--5--0------------7---6--6--5---6--6--5--|

Bass Riff13 (cont.)
|--------------------------------------------|
|--------------------------------------------|
|----5h7--7-5------------------5h7--7-5------|
|--0------------7---6--6--5--0------------7--|

Bass Riff14
|------------------------------------|
|------------------------------------|
|------------------------------------|
|--0---0-0-0-0-0-0--1-0-0-0h1---0h1--|

Bass Riff15
|---------------------|
|---------------------|
|--3--3--2---3--3--2--|
|---------------------|

Bass Riff16
|----------------------|
|----------------------|
|----------------------|
|--0-2--0-2--2--0-2-3--|

Bass Riff17
|-----------------------------------------------------|
|-----------------------------------------------------|
|-----5--5--------3--3--------4--4--------2--2--------|
|--0--------3--0--------1--0--------2--0--------0--0--|

Bass Riff18
|-------------------------------------------------------------|
|----------------------------------------------------------4--|
|------------------------------------------------4------------|
|--5--5--3---5--5--3---3--3--2---3--3--2---2--2------2--2-----|

Bass Riff18 (cont.)
|--------------------|
|--------3-----------|
|--------------3-----|
|--1--1-----1-----1--|

Bass Riff19
|----------------------------------------------------4-------------3----|
|--------------9-----------7---------------5-----4---------------3------|
|--7-----9-7-7---5-----7-5---5-3-----5-3-3---2-2---2---2-1-1-3-1-----1--|
|----0-0-----------0-0-----------0-0------------------------------------|

Bass Riff19 (cont.)
|------------3-----------------------------------------------------------|
|------3---3-------------------------------------------------------------|
|--1-1---1-----1---7------7---5------5---3------3---2------2---1------1--|
|------------------0--x-x-0------x-x--------x-x--------x-x--------x-x----|

Bass Riff19 (cont.)
|--------------------------|
|--------------------------|
|--1------1---1------1-----|
|-----x-x--------x-x----0--|

Bass Riff20
|---------------------|
|---------------------|
|---------------------|
|--6--6--5---3--3--2--|

Bass Riff21
|-----------------------------------------------------|
|-----------------------------------------------------|
|-----7------7-----------------------0----------0-----|
|--0------0------0--0---2--3--0---0------3--5------0--|

Bass Riff21 (cont.)
|----------------------------------------------------------------------|
|----------------------------------------------------------------------|
|------0-0-----0-0-----7------7-----------------------0----------0-----|
|--0-3-----0-3------0------0------0--0---2--3--0---0------3--5------0--|

Bass Riff21 (cont.)
|---------------------|
|---------------------|
|--------0---8--8--7--|
|--0--3---------------|

Bass Riff22
|--------------------------------------------------------------------------|
|--------------------------------------------------------------------------|
|-----7------7--7----------------------------------------------------5--3--|
|--0------0-----0---0--2--3--0---5---5-5-3-5-7---7-7-8-7-5-3---3-5-3-------|

Bass Riff22 (cont.)
|--------------------------------------------|
|--------------------------------------------|
|--3--3--2-----------------------------------|
|------------3--2--1------6--6--5---6--6--5--|

Bass Riff23
|----------------9------------------------------|
|--9-------9----------------------------12------|
|--7----------7-----7--12-------12--------------|
|----------------------10-----------10------10--|

Bass Riff24
|---------------------------------------|
|----------------9-----7----------------|
|--9-------9-----------0----------------|
|--7----------7-----7----------3--3--2--|

Bass Riff25
|------------------------------------------------------|
|-------------------7----------------------------------|
|--9----------------0----------------------------------|
|--7-------6--6--5----------3--3--2-----------3--3--0--|

How it goes:
Bass Riff1 x 2
Bass Riff2 x 2
Bass Riff3 x 1
Let last note ring during drum bit
Bass Riff4 x 4
Bass Riff5 x 1
Bass Riff6 x 1
Bass Riff7 x 6
Bass Riff8 x 1
Bass Riff9 x 3
Bass Riff10 x 1
Pause for quick guitar bit
Bass Riff9 x 3
Bass Riff10 x 1 (No pause after here)
Bass Riff11 x 1
Bass Riff12 x 1
Bass Riff6 x 1
Bass Riff7 x 6
Bass Riff8 x 1
Bass Riff9 x 3
Bass Riff10 x 1
Pause for quick guitar bit
Bass Riff9 x 3
Bass Riff 10 x 1 (No pause after here)
Bass Riff11 x 1
Bass Riff12 x 1
Bass Riff13 x 1
Bass Riff3 x 1
Bass Riff14 x 3
Pause for quick guitar bit
Bass Riff14 x 3
Pause for quick guitar bit
Bass Riff15 x 1
Bass Riff16 x 3
Bass Riff15 x 1
Bass Riff16 x 3
Bass Riff15 x 1
Bass Riff8 x 2
Bass Riff17 x 1
Bass Riff7 x 4
Bass Riff18 x 1
Bass Riff2 x 4
Bass Riff19 x 1
Let last note ring during drum bit
Bass Riff4 x 2
Bass Riff20 x 1
Bass Riff7 x 4
Bass Riff8 x 2
Bass Riff9 x 3
Bass Riff10 x 1
Pause for quick guitar bit
Bass Riff9 x 3
Bass Riff10 x 1 (No pause after here)
Bass Riff11 x 1
Bass Riff12 x 1
Bass Riff21 x 1
Bass Riff22 x 1
Bass Riff21 x 1
Bass Riff23 x 1
Bass Riff24 x 1
Bass Riff23 x 1
Bass Riff25 x 1

That's it for disk 1, to see the names of the tabbers, look at the end of disk 3.
comments
print report bad tab
I want to post or [tab]
guest
You may want to rate the tab now too:
select rating
Please do not post tabs as comments. Select "correction" instead!