Oops, an error
Loading. Please wait.

Live Shit Binge And Purge Mexico City Disc 1 Tab

13,020 views 6 this week
4 commentsread comments
1 2 3 4 5
excellent!
x 5
Autoscroll
+/-
esc
set tempo
stop
Contributor
Hey! There's an official Ultimate Guitar app which is ideal
for learning songs when you're away from computer. Get the app
WARNING: You are trying to view
                                    content from Ultimate-Guitar.com
                                    in an unauthorized application,
                                    which is prohibited.

                                    Please use an official Ultimate
                                    Guitar Tabs application for iPhone,
                                    iPad or Android to access legitimate
                                    chords, guitar, bass, and drum tabs
                                    from Ultimate-Guitar.com database.

                                    Type "ultimate guitar tabs" in Apple
                                    App Store's or Android Market's
                                    search to find the application.
Band- Metallica
Album- Live Shit Binge And Purge Mexico City Disc 1

1.ENTER SANDMAN

Intro : 6x
            

|----------------------------------------------------------|
|----------------------------------------------------------|
|----------------------------------------------------------|
|-----------5-----------------------5----------------------|
|-------7-------------7---------8--------------7-----------|
|---0----------6---5--------0-----------6---5--------------|
|                                                          |
|---0------------------------------------------------------|
|---0------------------------------------------------------|
|---0------------------------------------------------------|
|---2------------------------------------------------------|
|----------------------------------------------------------|
|----------------------------------------------------------|
           ^
W/ Wah - Listen to recording, he does it twice. At 0:07 and 0:16

0:23

Play this Twice

|----------------------------------------------------------|
|----------------------------------------------------------|
|----------------------------------------------------------|
|-2--------------------------------------------------------|
|-2--2--2--2--2--2--2--5/7---2--2--2--2--2--2--2--2--5/7---|
|-0--0--0--0--0--0--0--------0--0--0--0--0--0--0--0--------|
|  							   |
|----------------------------------------------------------|
|----------------------------------------------------------|
|----------------------------------------------------------|
|-2------------(2)-------------(2)-------------(2)---------|
|-2------------(2)-------------(2)-------------(2)---------|
|-0------------(0)-------------(0)-------------(0)---------|

0:32

Play this twice

|----------------------------------------------------------|
|----------------------------------------------------------|
|----------------------------------------------------------|
|----------------------------------------------------------|
|-2--2---5/7----2--2--2--3-----2--2---5/7-----2--2--2--3---|
|-0--0-------6--0--0--0--1-----0--0--------6--0--0--0--1---|
|  							   |
|----------------------------------------------------------|
|----------------------------------------------------------|
|--------------------------------------------------------2-|
|-2------------(2)-------------(2)-------------(2)-------2-|
|-2------------(2)-------------(2)-------------(2)-------0-|
|-0------------(0)-------------(0)-------------(0)---------|

0:39
Play this 4 times.	

|----------------------------------------------------------|
|----------------------------------------------------------|
|----------------------------------------------------------|
|----------------------------------------------------------|
|-2--2---5/7-------2--2--3-----2--2---5/7--------2--2--3---|
|-0--0-------6--5--0--0--1-----0--0--------6--5--0--0--1---|
|  							   |
|----------------------------------------------------------|
|----------------------------------------------------------|
|----------------------------------------------------------|
|-2------------(2)-------------(2)-------------(2)---------|
|-2------------(2)-------------(2)-------------(2)---------|
|-0------------(0)-------------(0)-------------(0)---------|


0:55			
Main Riff : play twice

<-------3x------------->		
|-----------------------|----------------------------------|
|-----------------------|----------------------------------|
|-----------------------|----------------------------------|
|-----------------------|----------------------------------|
|-2----2-----7----------|-----5------4-------4---5---4-----|
|-0----0---------6----5-|-----3---0--2---0---2---3---2-----|
|  							   |
|-----------------------|----------------------------------|
|-----------------------|----------------------------------|
|-----------------------|----------------------------------|
|-----------------------|----------------------------------|
|-2----2-----7----------|-----5------4-------4---5---4-----|
|-0----0---------6----5-|-----3---0--2---0---2---3---2-----|

Verse Riff
|----------------------------------------------------------|
|----------------------------------------------------------|
|----------------------------------------------------------|
|-2--------------------------------------------------------|
|-2--2--2--2--2--2--2--3------2--2--2--2--2--2--2--2--3----|
|-0--0--0--0--0--0--0--1------0--0--0--0--0--0--0--0--1----|
|  							   |
|----------------------------------------------------------|
|----------------------------------------------------------|
|----------------------------------------------------------|
|----------------------------------------------------------|
|----------------------32----------------------------32--|
|-0--0--0--0--0--0--0--1----0--0--0--0--0--0--0--0--1--|

1Say your prayers little one,          Don\'t forget my son
2      I tuck you in,  warm within, Keep you free from sin


|-----------------------------------------------------|
|-----------------------------------------------------|
|-----------------------------------------------------|
|-----------------------------------------------------|
|-2--2--2--2--2--2--2-----5------4-------4---5---4----|
|-0--0--0--0--0--0--0-----3---0--2---0---2---3---2----|
|  					              |
|-----------------------------------------------------|
|-----------------------------------------------------|
|-----------------------------------------------------|
|-----------------------------------------------------|
|-------------------------5------4-------4---5---4----|
|-0--0--0--0--0--0--0-----3---0--2---0---2---3---2----|

1       To include Every      One
2            Till the sandman he comes.           Ah

Pre chorus.
|--------3x---------|

|---------------------|---------------------------|
|---------------------|---------------------------|
|----------2----------|---------------------------|
|------4--------------|---------------------------|
|-------------3---2---|--4--4--4--4--2--3--4------|
|--2------------------|--2--2--2--2--0--1--2------|
|  						  |
|---------------------|---------------------------|
|---------------------|---------------------------|
|----------2----------|----------2----------------|
|------4--------------|-------4-------------------|
|-------------3---2---|--------------3---2--------|
|--2------------------|---2------------------14/--|

Sleep with one eye open, Gripping your pillow tight.

Chorus

|------3x------|

|---------------|-------------------------------------------|
|---------------|-------------------------------------------|
|---------------|-------------------------------------------|
|--------5----4-|---2---------------------------------------|
|---4----3----2-|---2---------------------------------------|
|---2-----------|---0---------------------------------------|
|  						 	    |
|---------------|-------------------------------------------|
|---------------|-------------------------------------------|
|---------------|-------------------------------------------|
|---------------|------------------------4--0---------------|
|--------3----2-|------5---2---5---4--0---------------------|
|---2-----------|-------------------------------------------|

Exit Light
Enter Ni-ight


|---------------|-------------------------------------------|
|---------------|-------------------------------------------|
|---------------|-------------------------------------------|
|--------5----4-|---2---------------------------------------|
|---4----3----2-|---2---------------------------------------|
|---2-----------|---0---------------------------------------|
|  						 	    |
|---------------|-------------------------------------------|
|---------------|-------------------------------------------|
|---------------|-------------------------------------------|
|---------------|------------------------2------------------|
|--------3----2-|------5---2---5---2--2-----2---------------|
|---2-----------|-------------------------------------------|

Take my hand

|-------------------------------|
|-------------------------------|
|-------------------------------|
|-------------------------------|
|---5------4-------4---5---4----|
|---3---0--2---0---2---3---2----|
|                               |
|-------------------------------|
|-------------------------------|
|-------------------------------|
|-------------------------------|
|-------------------------------|
|-------------------------------|

We\'re off to never-never land


<-------3x------------>		
|-----------------------|----------------------------------|
|-----------------------|----------------------------------|
|-----------------------|----------------------------------|
|-----------------------|----------------------------------|
|-2----2-----7----------|-----5------4-------4---5---4-----|
|-0----0---------6----5-|-----3---0--2---0---2---3---2-----|
|  							   |
|-----------------------|----------------------------------|
|-----------------------|----------------------------------|
|-----------------------|----------------------------------|
|-----------------------|----------------------------------|
|-2----2-----7----------|-----5------4-------4---5---4-----|
|-0----0---------6----5-|-----3---0--2---0---2---3---2-----|


<-------3x------------->		
|-----------------------|----------------------------------|
|-----------------------|----------------------------------|
|-----------------------|----------------------------------|
|-----------------------|----------------------------------|
|-2----2-----7----------|-----5------4-------4---5---4-----|
|-0----0---------6----5-|-----3---0--2---0---2---3---2-----|
|  							   |
|-----------------------------Gradually Bend----------12/--|
|-12hb----14-12-14------14fb--------------------------14/--|
|-12------14-12-14------14fb-------------------------------|
|-------15----------12-------------------------------------|
|----------------------------------------------------------|
|----------------------------------------------------------|
W/Wah



|----------------------------------------------------------|
|----------------------------------------------------------|
|----------------------------------------------------------|
|-2--------------------------------------------------------|
|-2--2--2--2--2--2--2--3------2--2--2--2--2--2--2--2--3----|
|-0--0--0--0--0--0--0--1------0--0--0--0--0--0--0--0--1----|
|  							   |
|----------------------------------------------------------|
|----------------------------------------------------------|
|----------------------------------------------------------|
|----------------------------------------------------------|
|----------------------32----------------------------32--|
|-0--0--0--0--0--0--0--1----0--0--0--0--0--0--0--0--1--|

Somethings wrong, shut the light, heavy thoughts tonight



|-----------------------------------------------------|
|-----------------------------------------------------|
|-----------------------------------------------------|
|-----------------------------------------------------|
|-2--2--2--2--2--2--2-----5------4-------4---5---4----|
|-0--0--0--0--0--0--0-----3---0--2---0---2---3---2----|
|  					              |
|-----------------------------------------------------|
|---------------------------12fb--12fb--12fb----------|
|---------------------------12hb--12fb--12fb----------|
|---------------------------------------------14/-----|
|-----------------------------------------------------|
|-0--0--0--0--0--0--0---------------------------------|
			     W/Wah	

And they arent of snow wh-------ite


|----------------------------------------------------------|
|----------------------------------------------------------|
|----------------------------------------------------------|
|-2--------------------------------------------------------|
|-2--2--2--2--2--2--2--3------2--2--2--2--2--2--2--2--3----|
|-0--0--0--0--0--0--0--1------0--0--0--0--0--0--0--0--1----|
|  							   |
|----------------------------------------------------------|
|----------------------------------------------------------|
|----------------------------------------------------------|
|----------------------------------------------------------|
|----------------------32----------------------------32--|
|-0--0--0--0--0--0--0--1----0--0--0--0--0--0--0--0--1--|

Dreams of war, dreams of lies, dreams of dragons fire


|-----------------------------------------------------|
|-----------------------------------------------------|
|-----------------------------------------------------|
|-----------------------------------------------------|
|-2--2--2--2--2--2--2-----5------4-------4---5---4----|
|-0--0--0--0--0--0--0-----3---0--2---0---2---3---2----|
|  					              |
|-----------------------------------------------------|
|-----------------------------------------------------|
|-----------------------------------------------------|
|-----------------------------------------------------|
|-------------------------5------4-------4---5---4----|
|-0--0--0--0--0--0--0-----3---0--2---0---2---3---2----|

And of things that will bite, yeah!


Pre chorus.
|--------3x---------|
|---------------------|---------------------------|
|---------------------|---------------------------|
|----------2----------|---------------------------|
|------4--------------|---------------------------|
|-------------3---2---|--4--4--4--4--2--3--4------|
|--2------------------|--2--2--2--2--0--1--2------|
|  						  |
|---------------------|---------------------------|
|---------------------|---------------------------|
|----------2----------|----------2----------------|
|------4--------------|-------4-------------------|
|-------------3---2---|--------------3---2--------|
|--2------------------|---2------------------14/--|

Sleep with one eye open, Gripping your pillow tight.

Chorus

|------3x------|

|---------------|-------------------------------------------|
|---------------|-------------------------------------------|
|---------------|-------------------------------------------|
|--------5----4-|---2---------------------------------------|
|---4----3----2-|---2---------------------------------------|
|---2-----------|---0---------------------------------------|
|  						 	    |
|---------------|-------------------------------------------|
|---------------|-------------------------------------------|
|---------------|-------------------------------------------|
|---------------|------------------------4--0---------------|
|--------3----2-|------5---2---5---4--0---------------------|
|---2-----------|-------------------------------------------|

Exit Light
Enter Ni-ight


|---------------|-------------------------------------------|
|---------------|-------------------------------------------|
|---------------|-------------------------------------------|
|--------5----4-|---2---------------------------------------|
|---4----3----2-|---2---------------------------------------|
|---2-----------|---0---------------------------------------|
|  						 	    |
|---------------|-------------------------------------------|
|---------------|-------------------------------------------|
|---------------|-------------------------------------------|
|---------------|------------------------2------------------|
|--------3----2-|------5---2---5---2--2-----2---------------|
|---2-----------|-------------------------------------------|


Take my hand
|-------------------------------|
|-------------------------------|
|-------------------------------|
|-----------------------------2-|
|---5------4-------4---5---4--2-|
|---3---0--2---0---2---3---2--0-|
|                               |
|-------------------------------|
|-------------------------------|
|-------------------------------|
|-----------------------------2-|
|-----------------------------2-|
|-----------------------------0-|
We\'re off to never-never land


Note : This tab for the solo is greatly inspired by the original
tab of the solo, and many thanks to the author of that tab. It
Was quite accurate but wrong in a couple of places, basiclly here
I changed it to be as close as possible to Kirk.

For the solo, James plays the main riff twice, then his part of
the prechorus, and his part of the chorus. Its amazing how well
the solo fits in.

W/Wah        
|---------------------------------------------------------|
|-15---15---15---12-----15---------12-12----15fb-15bfb-/--|
|-14hb-14hb-14hb--14fb--14fb---14hb------14---------------|
|---------------------------------------------------------|
|---------------------------------------------------------|
|---------------------------------------------------------|

                                                    
Rock back and forth on pedal       
|-------------------------------------------------|
|-------------------------------------------------|
|-12/14-14-14-1412-12-12-12/14-14-14-1412-12-12-|
|-10/12-12-12-1210-10-10-10/12-12-12-1210-10-10-|
|-------------------------------------------------|
|-------------------------------------------------|
                                        
           
|-------------------------------------|
|-------------------------------------|
|-14p12-------------------------------|
|-------14-14p12----------------------|
|----------------14-14p12-------------|
|--------------------------15--12~~--|
                    

|-------12-10-12-------12-10-12------12-12-12-------12-12-12-|
|-15fb----------15fb--------------15fb-----------15fb--------|
|------------------------------------------------------------|
|------------------------------------------------------------|
|------------------------------------------------------------|
|------------------------------------------------------------|
                                                               
                   

|-12-12-12-15-12-15p12h15-12h15p12-12-15-12-12-14-14-|
|----------------------------------------------------|
|----------------------------------------------------|
|----------------------------------------------------|
|----------------------------------------------------|
|----------------------------------------------------|


           
|-17p14----17p14----17p14-19p15----19p15----19p15-|
|-------14-------14-------------17-------17-------|
|-------------------------------------------------|
|-------------------------------------------------|
|-------------------------------------------------|
|-------------------------------------------------|


                                                     
             
                              
|-21p17----21p17----21p17----22fb~~~~~~(R)/-------------------|
|-------17-------17-------17---------------9hb--------9hb---9-|
|------------------------------------------9fb--------9fb---9-|
|-------------------------------------------------------------|
|-------------------------------------------------------------|
|-------------------------------------------------------------|




                     
|-------------------------------------------------------------|
|-9hb--9hb-----------------10------10-8-7---7/87---7---------|
|-9fb--9fb--7--9--------7-----------------9-------9---9-7---7-|
|------------------7h9------------------------------------9---|
|-------------------------------------------------------------|
|-------------------------------------------------------------|

			      Lots of wah. Treble on all notes in 
			      16th fret. Bass on 14th.(toe up)
                    
|-----------------------------------------------------------------|
|-----------------------------------------------------------------|
|-9p7--------------------------16fb-14-----14-16-16fb--14------14-|
|-----9p7---7-9-7----------------------16---------------16--------|
|---------9-------9-6-7-------------------------------------------|
|-----------------------10-7-------------------------------------|


                                         
                     
|--------------------------------------|
|--------------------------------------|
|-16-16fb-14----14-16-16fb-14-------14-|
|---------------16------------16-16----|
|--------------------------------------|
|--------------------------------------|


                        Note : Slowly release bend while tremelo picking.
					
|-----------------------------------------------|
|---------17---------17--------17---------------|
|-16bfb----16hb----16fb----------16fb---(R)-----|
|-----------------------------------------------|
|-----------------------------------------------|
|-----------------------------------------------|


                                                          
  
|-21p17---21p17---21p17---21p17---21p17---21p17---|
|------17------17------17------17------17------17-|
|-------------------------------------------------|
|-------------------------------------------------|
|-------------------------------------------------|
|-------------------------------------------------|




|-22fb--21-22--22fb--21-22-22fb~~~~~--22-|
|-----------------------------------------|
|-----------------------------------------|
|-----------------------------------------|
|-----------------------------------------|
|-----------------------------------------|




|----------------------------------------------------|
|-10p9p8p7-------------------------------------------|
|----------9-9p7-------------------------------------|
|----------------9-9p7-5--7fb----5~~-----------------|
|-------------------------------------7~~~~~~~~~-5h7-|
|----------------------------------------------------|


                             

     
|--------------------------------------------------|
|--------------------------------------------------|
|--------------------------------------------------|
|--------------------------------------------------|
|-4~~~~~~~~~~--0--2--2--2--2--2--2--2--2--2--2--2--|
|--------------------------------------------------|
    Wah off.      Dip bar and release on each stroke.


Back to the usual tab form.

Play 4x

|----------------------------------------------------------|
|----------------------------------------------------------|
|----------------------------------------------------------|
|-----------5-----------------------5----------------------|
|-------7-------------7---------7--------------7-----------|
|---0----------6---5--------0-----------6---5--------------|
|                                                          |
|----------------------------------------------------------|
|----------------------------------------------------------|
|----------------------------------------------------------|
|----------------------------------------------------------|
|----------------------------------------------------------|
|----------------------------------------------------------|

|--------8x-----------|
|---------------------|---------------------------|
|---------------------|---------------------------|
|----------2----------|---------------------------|
|------4--------------|---------------------------|
|-------------3---2---|--4--4--4--4--2--3--4------|
|--2------------------|--2--2--2--2--0--1--2------|
|  						  |
|---------------------|---------------------------|
|---------------------|---------------------------|
|----------2----------|----------2----------------|
|------4--------------|-------4-------------------|
|-------------3---2---|--------------3---2--------|
|--2------------------|---2------------------14/--|

Chorus

|------3x------|

|---------------|-------------------------------------------|
|---------------|-------------------------------------------|
|---------------|-------------------------------------------|
|--------5----4-|---2---------------------------------------|
|---4----3----2-|---2---------------------------------------|
|---2-----------|---0---------------------------------------|
|  						 	    |
|---------------|-------------------------------------------|
|---------------|-------------------------------------------|
|---------------|-------------------------------------------|
|---------------|------------------------4---0--------------|
|--------3----2-|------5---2---5---4--0---------------------|
|---2-----------|-------------------------------------------|

Exit Light
Enter Ni-ight


|---------------|-------------------------------------------|
|---------------|-------------------------------------------|
|---------------|-------------------------------------------|
|--------5----4-|---2---------------------------------------|
|---4----3----2-|---2---------------------------------------|
|---2-----------|---0---------------------------------------|
|  						 	    |
|---------------|-------------------------------------------|
|---------------|-------------------------------------------|
|---------------|-------------------------------------------|
|---------------|-------------------------------------------|
|--------3----2-|-------------------------------------------|
|---2-----------|-------------------------------------------|

Grain of sand


|------3x------|

|---------------|-------------------------------------------|
|---------------|-------------------------------------------|
|---------------|-------------------------------------------|
|--------5----4-|---2---------------------------------------|
|---4----3----2-|---2---------------------------------------|
|---2-----------|---0---------------------------------------|
|  						 	    |
|---------------|-------------------------------------------|
|---------------|-------------------------------------------|
|---------------|-------------------------------------------|
|---------------|------------------------4--0---------------|
|--------3----2-|------5---2---5---4--0---------------------|
|---2-----------|-------------------------------------------|

Exit Light
Enter Ni-ight


|---------------|-------------------------------------------|
|---------------|-------------------------------------------|
|---------------|-------------------------------------------|
|--------5----4-|---2---------------------------------------|
|---4----3----2-|---2---------------------------------------|
|---2-----------|---0---------------------------------------|
|  						 	    |
|---------------|-------------------------------------------|
|---------------|-------------------------------------------|
|---------------|-------------------------------------------|
|---------------|------------------------4------------------|
|--------3----2-|------5---0---5---2--2-----4---------------|
|---2-----------|-------------------------------------------|

Take my hand
|-------------------------------|
|-------------------------------|
|-------------------------------|
|-----------------------------2-|
|---5------4-------4---5---4--2-|
|---3---0--2---0---2---3---2--0-|
|                               |
|-------------------------------|
|-------------------------------|
|-------------------------------|
|-----------------------------2-|
|-----------------------------2-|
|-----------------------------0-|

We\'re off to never-never land

<-------2x-------------->	
|-----------------------|
|-----------------------|
|-----------------------|
|-----------------------|
|-2----2-----7----------|
|-0----0---------6----5-|
|  			|
|-----------------------|
|-----------------------|
|-----------------------|
|-(2)-------------------|
|-(2)-------------------|
|-(0)-------------------|

<-------4x-------------->		
|-----------------------|----------------------------------|
|-----------------------|----------------------------------|
|-----------------------|----------------------------------|
|-----------------------|----------------------------------|
|-2----2-----7----------|-----5------4-------4---5---4-----|
|-0----0---------6----5-|-----3---0--2---0---2---3---2-----|
|  							   |
|-----------------------|----------------------------------|
|-----------------------|----------------------------------|
|-----------------------|----------------------------------|
|-----------------------|----------------------------------|
|-2----2-----7----------|-----5------4-------4---5---4-----|
|-0----0---------6----5-|-----3---0--2---0---2---3---2-----|



|----------------------------------------------------------|
|----------------------------------------------------------|
|----------------------------------------------------------|
|----------------------------------------------------------|
|-2--2---5/7-------2--2--3-----2--2---5/7--------2--2--3---|
|-0--0-------6--5--0--0--1-----0--0--------6--5--0--0--1---|
|							   |
|----------------------------------------------------------|
|----------------------------------------------------------|
|----------------------------------------------------------|
|-----------5--------------------------5-------------------|
|-------7-------------7------------7--------------7--------|
|---0----------6---5-----------0-----------6---5-----------|

Repeat and fade.
===================

For a Big ending while plaing it Live just do this:

|-----------------------------------------|
|-----------------------------------------|
|-----------------------------------------|
|--------------------------------------2--|
|---5------4-------4------5------4-----2--|
|---3---0--2---0---2------3------2-----0--|
|                                         |
|-----------------------------------------|
|-----------------------------------------|
|-----------------------------------------|
|--------------------------------------2--|
|---5------4-------4------5------4-----2--|
|---3---0--2---0---2------3------2-----0--|

2.CREEPING DEATH

E-----------------------------------------------------
B-----------------------------------------------------
G-----------------------------------------------------
D------------9------------9\7             ------------
A------------7------------7\5 4times then --7--5--4--2
E--0-0-0-0-0----0-0-0-0-0----             --5--3--2--0
  pm........    .........                   ..........
the last two times the second guitar does this
D-------------9------------9\7
A------------10-----------10\9 
E--0-0-0-0-0----0-0-0-0-0-----

                                   You do this right before the verse
D------2---2--2---2---2h3p2h3p2p0   -5-7-5
A------2---2--2---2---2h3p2h3p2p0   -3-5-3
E--0-0---0------0---0------------   ------
  pm....................  
           this is the pre chours and is done during the second intro
D---------------------------------------
A--------5--------5---------------------
E--0--0--3--0--0--3--0--0--2-2-2-2-2-2-2
 pm....     ....     ...................
chours
D--2-  --5-7--  -10-9-  --5-7--  -10-12-9---  -5-7-  -10-9-  -5-7--------
A--2-  --3-5-  --8--7-  --3-5-  --8--10-7--  --3-5-  -8--7-  -3-5---5-7-5
E--0-  -------  ------- --------   ---------  ------  ------  ------3-5-3

Then the repeat the hole song except for the main intro
Now the kickass yet some what cmplicated solo

e--------------------------------------|----------------------19h20h22--|
b--12-13-15-17p15-13-14-15-17-19p17-15-|-15-17-19-17-19-20-22-----------|
g--------------------------------------|--------------------------------|
d--------------------------------------|--------------------------------|

E--22b24----22b24----22b24----|--22b24--r22----22b24-r23-b24--22--19--|
B-----------------------------|---------------------------------------|
G-----------------------------|---------------------------------------|

E--22--20--19-\17--21--19--17-\15--19--17--15-\14--17--15--14-\12--|
B------------------------------------------------------------------|
G------------------------------------------------------------------|

E--15p14--------------------------------------------------|
B---------17p15--15p14p12h14--12-\10--10------------------|
G------------------------------------------12b14-r13-b14--|
D---------------------------------------------------------|

E-----------------------------------------|-----------------------------------|
B--------10--15------15---12--------------|-----------------------------------|
G--(14)------14b16---14---12------12--14--|--14b16--r14--12b13--------12--14b-|
D-----------------------------14----------|-----------------------14----------|
A-----------------------------------------|-----------------------------------|

E--------------------------------------------------------|
B--------12--15p12--15p12--------------12--15p12--15p12--|
G--b16---------------------14b16-(16)--------------------|
D---------------------------------*----------------------|
 * : hold bend and strike note                              
E------------------------------------------12-|-15p12----12----------------------14-|
B---------12--15p12--15p12--15b17----(17)-----|-------15----15-12-15p12----12-------|
G--14b16------------------------------*-------|-------------------------14----14----|
D---------------------------------------------|-------------------------------------|

E-17p15-14-15p14----14-------12-------|-------------------------------------|
B----------------17----17p15----15p14-|-15p14-12-14-12----------------------|
G-------------------------------------|----------------14--12------12--14-/-|
D-------------------------------------|------------------------14-----------|
                                  Sweep picking
E----------17--19-/22-~-~-22-~-~-|---------12--17p12-----------------12--17p12-------
B------18------------------------|-----13-------------13---------13------------13----
G-/19----------------------------|-14---------------------14-14-------------------14-
D--------------------------------|---------------------------------------------------

E----------12--17p12-------------------12--17p12------|
B------13-------------13-----------13-------------13--|
G--14--------------------14-14-14---------------------|
D-----------------------------------------------------|

E--12h15p12---------------------------------|----------------------------------------
B-----------15---12----12-15p12-------------|--15------15------15-------------(15)\--
G-------------------14----------14-12----12-|--14b16---14b16---14b16-r14-b16--(14)\--
D-------------------------------------14----|----------------------------------------

D---------------------------------|----------------------------------------------|
A--7--7-7-8-8-8-8-9-9-9-9-9-9-9-9-|-10-9-10-9-10-9-11-10-12-11-12-11-12-11-13-12-|
E---------------------------------|----------------------------------------------|

G-------------------------------------------------|
D----------------------------------------------11-|
A-14-13-14-13-14-14-15-15-14-14-15-14-14-14-15----|
E-------------------------------------------------|

E----------------------------------------------------------|
B---------------------------------------------------12/14--|
G-11-12-11-12-11-12-12-12-12-13-12-13-15-15---15-15--------|
D----------------------------------------------------------|

E-------------------------------------14-|-17p14-------------------------------------
B-------------------14-17-14----14-17----|-------17-14-----14---17p14----------------
G--17--14--13-14-16----------16----------|-------------16--------------16-14------14-
D----------------------------------------|------------------------------------16-----

E-------------------------------------|------------------------------------|
B-------------------------------------|------------------------------------|
G-16p14----14-------------------------|------------------------------------|
D-------16----16p14-16p14----14-------|----------------------------12--12--|
A-------------------------16----16-14-|-16p14-12-14p12-----12--14----------|
E-------------------------------------|----------------14------------------|

E-------------------------|------------------------------|--------------------------|
B-------------------------|------------------------------|--------------------------|
G-------------11--12--14--|--(14)----12----12-h-14-p-12--|--------------11--12--14--|
D--14------14-------------|------------------------------|--12------14--------------|
A-------------------------|------------------------------|--------------------------|
E-------------------------|------------------------------|--------------------------|

E----------------------------|--12--------12-/14--15--17--|
B----------12----13----15----|----------------------------|
G--(14)----------------------|----------------------------|
D----------------------------|----------------------------|
                              
E--(17)--15---14----------|--/17------17--19----20--|--(20)--19--17---15-14h15--
B-------------------17----|---//--------------------|---------------------------
G-------------------------|-------------------------|---------------------------

E-15p14p12-15p14p12-15p14p12-15p14p12-|-15p14p12-15p14p12-15p14p12-15-12/14-|
B-------------------------------------|-------------------------------------|
G-------------------------------------|-------------------------------------|

E-17p15p14-17p15p14-17p15p14-17p15p14-|-17p15p14-17p15p14-17p15p14-17-15-15-|
B-------------------------------------|-------------------------------------|
G-------------------------------------|-------------------------------------|


E-19p17p15-19p17p15-19p17p15-19-15-16-|-20p19p17-20p19p17-22p20p19-22p20p19-|
B-------------------------------------|-------------------------------------|
G-------------------------------------|-------------------------------------|

E--22b24----22b24----|--22b24----22b24--22b24-~-|------------|
B--------------------|--------------------------|------------|
G--------------------|--------------------------|------------|
D--------------------|--------------------------|--14-\-\-\--|
A--------------------|--------------------------|--14-\-\-\--|
E--------------------|--------------------------|--12-\-\-\--|
bridge
D--9---------10-7-9---------12-10-9---------10-7-9
A--7---------8--5-7---------10-8--7---------8--5-7
E----0-0-0-0--------0-0-0-0---------0-0-0-0-------
    pm......        .......         .......

first you do the the verse riff then this little solo thing
gtr.1
e-------------------------------------------
B--15-13-12---12----13---15-13-12---12----13
G----------------14--------------------14---
D-------------------------------------------
Gtr.2
e-----------------------------------
B--10-8-7---7---8---10-8-7---7---8--
G-------------9----------------9----
D-----------------------------------
Then  the last verse and so on then an outro

Gtr.3
D---9-7-5-4---5-4-2-5---9-7-5-4---5-4-2-5
A---7-5-3-2---3-2-0-3---7-5-3-2---3-2-0-3
E----------------------------------------
Gtr.2
E------------------------------------------------------------
B�17-15-13-12�-13-12-10-13---17-15-13-12---13-12-10-13-----
G------------------------------------------------------------
Gtr.1
E------------------------------------------------------------
B------------------------------------------------------------
G-19-17-15-14---15-14-12-15----19-17-15-14---15-14-12-15-----
Then gtr.3 stops and does this
e---------------------       (8 times)
B----19p16p0----------       

e--------------------       (8 times)
B----20p17p0--------
And this all ends with a slide like from the solo to the bidge
And this little outro thing

 E-------------|-------------|-14h15--14----|-------------|----------|----|
 B-------------|-------16-17-|-----------17-|-16----------|----------|----|
 G----------14-|-16-17-------|--------------|----17-16-14-|----------|----|
 D-14-16-17----|-------------|--------------|-------------|-17p16p14-|-14-|
 A-------------|-------------|--------------|-------------|----------|----|
 E-------------|-------------|--------------|-------------|----------|----|
   Oh yeah, and its all tremelo picked                                       
                                          

3.HARVESTER OF SORROW

intro    both guitars 
|-------------------|------------------------|
|-------------------|------------------------|
|-------------------|------------------------|
|-------4-3-2-------|-2---------4-3-2--------|
|5-4-2--2-1-0--5-2--|-2----5-4-2--2-1-0-5-2--|
|3-2-0---------3-4--|-0----3-2-0--------3-4--|

  guitar 2
|-----------------------------|--------------------|
|-----------------------------|--------------------|
|-----------------------------|--------------------|X2
|--------3--2--------5--3--2--|-----3--0----0---0--|
|-----2----------2------------|---2--------0-------|
|--0----------0---------------|0----------3---1----|


   guitar 2
|-----------------------------|--------------------|
|-----------------------------|--------------------|
|-----------------------------|--------------------|
|--------3--2-------5--3--2---|------3--0---0---0--|
|-----2----------2------------|---2--------0-------|
|--0----------0---------------|0----------3---1----|
|  guitar 1                                        |X2
|--------------------------------------------------|
|--------------------------------------------------|
|--------------------------------------------------|
|-2------------------------------------------------|
|-2-LET-RING-~~------------------------------------|
|-0------------------------------------------------|





3 times      both guitars 
|-----------------------------|---------------------|
|-----------------------------|---------------------|
|-----------------------------|---------------------|
|--------3--2--------5--3--2--|--------3--0----0--0-|
|-----2-----------2-----------|-----2---------0-----|
|--0-----------0--------------|--0-----------3---1--|
PM...........................|


|-------------------------------|
|-------------------------------|
|-------------------------------|
|--------3--2--------4-3-2------|
|-----2--------5-4-2-2-1-0-5-4--|
|--0-----------3-2-0-------3-2--|
 PM....|


Rhy Fig 1 end Rhy Fig 1
|--------------------------------|--------------------------------|
|--------------------------------|--------------------------------|
|--------------------------------|--------------------------------|
|----------------------4\3-------|---------------------4\3--------|
|--2--2-2-2--2-2-5\4---2\1---5\3-|-3--3-3-3--3---5\4---2\1---5\4--|
|--0--0-0-0--0-0-3\2-0-----0-3\2-|-1--1-1-1--1-0-3\2-0-----0-3\2--|
 PM......................................|


Rhy Fig 1A end Rhy Fig 1A
|--------------------------------|---------------------------------|
|--------------------------------|---------------------------------|
|--------------------------------|---------------------------------|
|----------------------4\3-------|---------------------3-3-3-3-----|
|--2--2-2-2--2-2-5\4---2\1---5\3-|-3--3-3-3--3---5-4---1-1-1-1-----|
|--0--0-0-0--0-0-3\2-0-----0-3\2-|-1--1-1-1--1-0-3-2-0---------3---|
 PM.................................................|

|------------|------------|------------|----------|----------------|
|------------|------------|------------|----------|----------------|
|------------|------------|------------|----------|----------------|
|-2----------|------------|------------|----------|----------------|
|-2----------|---0--------|---0--------|----------|---1--(1) ~ ----|
|-0------0-1-|-2------0-1-|-2------2-1-|-0----0-1-|-2----------2-1-|



|------------|----------------------|------------------------|
|------------|----------------------|------------------------|
|------------|----4---4---4--4------|----------2---2--2------|
|------------|----2---2---2--2------|----------2---2--2------|
|------------|----2---2---2--2------|----1-----2---2--2------|
|-0------1-1-|--2-0---0---0--0--0-1-|-2-----0--0---0--0--0-1-|
 PM.............|      PM..|


|--------------------------|------------------------|
|--------------------------|------------------------|
|------------2---2--2------|----------2---2--2------|
|------------2---2--2------|----------2---2--2------|
|----1-------2---2--2------|----1-----2---2--2------|
|-2-----0----0---0--0--0-1-|-2-----0--0---0--0--0-1-|
 PM......| PM...........| PM..|


|-----------------------|------------------------|------------------------|
|-----------------------|------------------------|------------------------|
|---------4---4--4------|----------2---2--2------|----------4---4--4------|
|----0----5---5--5------|----------2---2--2------|----0-----5---5--5------|
|------5--5---5--5------|----1-----2---2--2------|-------5--5---5--5------|
|-2----3--3---3--3--0-1-|-2-----0--0---0--0--0-1-|-2-----3--3---3--3--0-1-|
 PM PM PM..........|    PM......| PM    PM..|


Verse

My life suffocates    planting the seeds of hate I've loved, turned to hate
|------------------------|----------------------------|-------------------------|
|------------------------|----------------------------|-------------------------|
|----2----2----2--2------|----2----2----2--2----------|----2----2----2--2-------|
|----2----2----2--2------|----2----2----2--2----------|----2----2----2--2-------|
|----2----2----2--2------|----2----2----2--2----------|----2----2----2--2-------|
|-2--0----0----0--0--0-1-|-2--0----0----0--0--0-1-----|-2--0----0----0--0--0-1--|
 PM PM..|

Trapped far beyond my fate i give, you take this life that i forsake
|------------------------|------------------------|------------------------|
|----3----3----3--3------|------------------------|------------------------|
|----4----4----4--4------|----2-----------2-------|----2----2----2--2------|
|----5----5----5--5------|----2-----------2-------|----2----2----2--2------|
|----5----5----5--5------|----2-----------2-------|----2----2----2--2------|
|-2--3----3----3--3--0-1-|-2--0----0-1-2--0---0-1-|-2--0----0----0--0--0-1-|




Been cheated of my youth you turnd this love to truth
|------------------------|------------------------|--------------------------|
|------------------------|----3----3----3--3------|--------------------------|
|----2----2----2--2------|----4----4----4--4------|--------------------------|
|----2----2----2--2------|----5----5----5--5------|-------3--2-------5--3--2-|
|----2----2----2--2------|----5----5----5--5------|----2----------2----------|
|-2--0----0----0--0--0-1-|-2--3----3----3--3--0-1-|-0-----------0------------|
                    PM......|        PM.|




|---------------------------|
|---------------------------|
|---------------------------|
|-------3--0----0-----------|
|----2---------0------------|
|-0-----------3------1--0-1-|



PRE CHORUS

Rhy Fig 2A

                         E5
Anger,  misery    you'll suffer unto me
|-------------------------|------------------------|---------------------------|
|-------------------------|------------------------|---------------------------|
|----2-----------2--------|----2----2----2--2------|---------------------------|
|----2-----------2--------|----2----2----2--2------|-------3--2--------5--3--2-|
|----2-----------2--------|----2----2----2--2------|----2-----------2----------|
|-2--0----0-1-2--0----0-1-|-2--0----0----0--0--0-1-|-0------------0------------|
PM   PM.....| PM......|         PM.........|     PM..|

E5
   End Rhy Fig 2A
|------------------------|
|------------------------|
|------------------------|
|-------3--0------0----0-|
|----2----------0--------|
|-0-----------3------1---|
 PM............|

|--------------------------------|-------------------------------|
|--------------------------------|-------------------------------|
|--------------------------------|-------------------------------|
|----------------------4\3-------|---------------------4-3-------|
|--2--2-2-2--2-2-5\4---2\1---5\3-|-3--3-3-3--3---5-4---2-1-0-5-4-|
|--0--0-0-0--0-0-3\2-0-----0-3\2-|-1--1-1-1--1-0-3-2-0-------3-2-|
 PM.................................................|




CHORUS
W/Rhy Fig 1

  Harvester of sorrow.     language of the mad.

W/Rhy Fig 1A

  Hayester of sorrow.




|-------------------------|---------------------------|
|-------------------------|---------------------------|
|-------------------------|---------------------------|
|-------3--2------5--3--2-|-------3--0------0---------|
|----2----------2---------|----2----------0----3------|
|-0-----------0-----------|-0-----------3------1--0-1-|
 PM......................................|


|-------------------------|-------------------------|
|-------------------------|-------------------------|
|----------4----4--4------|----------2----2--2------|
|----------2----2--2------|----------2----2--2------|
|----1-----2----2--2------|----1-----2----2--2------|
|-2-----0--0----0--0--0-1-|-2-----0--0----0--0------|



|-------------------------|------------------------|
|-------------------------|------------------------|
|----------2----2--2------|----------4---4--4------|
|----------2----2--2------|----0-----5---5--5------|
|----1-----2----2--2------|-------5--5---5--5------|
|-2-----0--0----0--0--0-1-|-2-----3--3---3--3--0-1-|





2nd Verse
W/Rhy Fig 2


Pure black looking clear. My work is done soon here.
Try getting back to me. Get back what used to be.
Drink up, shoot in.    Let the beatings begin.
Distributor of pain.    Your loss becomes my gain.


 Pre Chorus
 W/Rhy Fig 2A

 Anger, misery,    	you'll suffer onto me.

 Rhy Fig 1

Chorus
 W/Rhy Fig 1

 Harvester of sorrow.    Language of the mad.

 W/Rhy Fig 1a

 Harvester of sorrow.



|-------------------------|-------------------------|
|-------------------------|-------------------------|
|-------------------------|-------------------------|
|-------3--2------5--3--2-|------3----------5--3--2-|
|----2----------2---------|----2----------2---------|
|-0-----------0-----------|-0-----------0-----------|
 PM...|   PM..|     PM...| PM.|


|-------------------------|---------------------------|
|-------------------------|---------------------------|
|-------------------------|---------------------------|
|-------3--2------5--3--2-|-------3--0------0---------|
|----2---------2----------|----2----------0----5------|
|-0----------0------------|-0-----------3------3--0-2-|
 PM...|  PM..|       PM..| PM.|



SOLO:

|-------------------------------------|-------------------------------------|
|--15b17---15b17~---15b17---15b17r15b-|--r15--17b19--15b17---15b17-r15------|
|-------------------------------------|----------------------------------14-|
|-------------------------------------|-------------------------------------|
|-------------------------------------|-------------------------------------|
|-------------------------------------|-------------------------------------|
|
|--------------------------------------|------------------------------------|
|--------------------------------------|------------------------------------|
|-----2-----------------2--------------|----2---------2-----------2---------|
|-----2-----------------2--------------|----2---------2-----------2---------|
|-----2-----------------2--------------|----2---------2-----------2---------|
|--2--0----------0-1-2--0---------0-1--|-2--0---------0-----------0----0-1--|
                   



|--17b19---17b19---15p14----14----------------------------|
|------------------------17----17p15-17-14p14\12-14p12\10-|
|---------------------------------------------------------|
|---------------------------------------------------------|
|---------------------------------------------------------|
|---------------------------------------------------------|
|                                                         |
|---------------------------------------------------------|
|---------------------------------------------------------|
|-------2-------------------2-----------------------------|
|-------2-------------------2-----------------------------|
|-------2-------------------2-----------------------------|
|--2----0----------0--1--2--0-----------------------0--1--|




|---------------------------------------------------------------------|
|--12b14r12p10--12b14r12p10-12b14r12p10-12b14r12p10-12b14-~-~---------|
|-------------------------------------------------------------12--14--|
|---------------------------------------------------------------------|
|---------------------------------------------------------------------|
|---------------------------------------------------------------------|
|								      |
|---------------------------------------------------------------------|
|--------3-----------------3--------------------3-----------3---------|
|--------4-----------------4--------------------4-----------4---------|
|--------5-----------------5--------------------5-----------5---------|
|--------5-----------------5--------------------5-----------5---------|
|--2-----3-----------------3--------------------3-----------3----0--1-|




|--------------------------------------------------|
|--------------------------------------------------|
|--11h12p11----------------------------------------|
|---------------------------/14-~-~------------14--|
|------------14------14h15-------------------------|
|--------------------------------------------------|
|                                                  |
|--------------------------------------------------|
|--------------------------------------------------|
|-------2----------------------2-------------------|
|-------2----------------------2-------------------|
|-------2----------------------2-------------------|
|--2----0-----------0--1--2----0-------------0--1--|




|-----------------14-15/19---------17--15--|--15h17p15p14----14h15p14------|
|--------14-15-17--------------------------|---------------------------15--|
|--14h16-----------------------------------|-------------------------------|
|------------------------------------------|-------------------------------|
|------------------------------------------|-------------------------------|
|------------------------------------------|-------------------------------|
|
|------------------------------------------|-------------------------------|
|------------------------------------------|-------------------------------|
|-------2------------2--------2----2-------|-------------------------------|
|-------2------------2--------2----2-------|-------------------------------|
|-------2------------2--------2----2-------|---------0---------------------|
|-------0------------0--------0----0--0-1--|--2------------------------2-1-|



|----------------|-----------------|
|--17------------|--(17)-----------|
|----------------|-----------------|
|----------------|-----------------|
|----------------|-----------------|
|----------------|-----------------|
|
|----------------|-----------------|
|----------------|-----------------|
|----------------|-----------------|
|----------------|-----------------|
|-----1----------|-----1-----------|
|--2---------0-1-|--2----------0-1-|









|------------------------|----------------------------|-----------------------------
|----0----0----0--0------|----------------------------|-----------------------------
|----1----1----1--1------|------------------------2-3-|-----------------------------
|----2----2----2--2------|-2----------0--2--3-3-5-----|---------------------4\3-----
|----2----2----2--2------|-2--0h1p0-3-----------------|-2--2-2-2--2-2-5\4---2\1---3\
|-2--0----0----0--0--0-2-|-0--------------------------|-0--0-0-0--0-0-3\2-0-----0-5\
                   


|----------------------------|-------------------------------|
|----------------------------|-------------------------------|
|------------------------2---|-------------------------------|
|-2----------0--2--3-3-5---3-|---------------------4\3-------|
|-2--0h1p0-3-----------------|-3--3-3-3--3---5\4---2\1---3\1-|
|-0--------------------------|-1--1-1-1--1-0-3\2-0-----0-5\3-|
       

          
|------------------------------------|------------------------------------|
|------------------------------------|------------------------------------|
|--3p2p0-2-3-2-0---------------------|-3p2p0-2-3-5-3-3p2p0----------------|
|--3p2p0-2-3-2-0-3p2p0---------------|-3p2p0-2-3-5-3-3p2p0----------------|
|----------------3p2p0-2--2-2-2--2-2-|---------------------3--3-3-3--3----|
|----------------------0--0-0-0--0-0-|---------------------1--1-1-1--1-0--|



|-----------------------------------|
|-----------------------------------|
|-3p2p0-2-3-5-3-3p2p0---------------|
|-3p2p0-2-3-5-3-3p2p0----3-----3----|
|------------------------3-----3----|
|---------------------1--1-1-1-1----|

4.WELCOME HOME(SANITARIUM)

-------<12>---------3---353-2---|-------<12>---------2---2-----3-|
-----------<12>-----------------|-----------<12>---------0-------|
--------------------------------|--------------------------------|
--------------------------------|--------------------------------|
--------------------------------|--------------------------------|
0-------------------------------|0-------------------------------|

0------<12>---------------------|-------<12>---------------------|
-----------<12>-----------------|-----------<12>-----------------|
--------------------------------|--------------------------------|
--------------------------------|--------------------------------|
--------------------------------|--------------------------------|
0-------------------------------|0-------------------------------|

-------<12>---------------------|-------<12>---------------------|
-----------<12>-----------------|-----------<12>-----------------|
--------------------------------|---------------<12>-------------|
--------------------------------|--------------------------------|
--------------------------------|--------------------------------|
0-------------------------------|0-------------------------------|

Rhy. Fig. 1 (8th=--)
----------------|----------------|--------|   Repeat this figure 4 times
----------------|----------------|--------|   alone, then 4 times under 
------0-------0-|------0---------|--------|   the solo and 6 times under
----4-------5---|----7-------0---|--0-----|   the verse. The notes with
--2-------3-----|--5-------4-----|2-----0-|   a ~ under them are cue notes.
0-------0-------|0-------5---5s3-|--3s5---|   They hardly take time to sound
                             ~      ~ 

Now comes solo 1. Timing isn't always exact but is close.

------------------------------|--------10-s12--15-s17--17----|----------------|
------------------------------|10-s12------------------------|----------------|
--------11--12--9---------12--|------------------------------|----------------|
----9-------------------------|------------------------------|----------------|
7-----------------------------|------------------------------|----------------|
------------------------------|------------------------------|----------------|

--15--15--12--12s14---12^-r---|---12---------------__3___----|----------------|
------------------------------|15-----15--13--13---121312----|----------------|
------------------------------|--------------------------14--|12-s11----------|
------------------------------|------------------------------|--------12------|
------------------------------|------------------------------|------------14--|
------------------------------|------------------------------|----------------|

------------------------------|----19-----19-------------17--|171514----------|
------------------------------|--17---------17---------------|------171514----|
12s14-------------------------|16-------------16-s14-14------|------------1614|
------------------------------|------------------------------|----------------|
------------------------------|------------------------------|----------------|
------------------------------|------------------------------|----------------|

                               __3___
----------------------------12|101210----------------5-------|----3-----------|
--------------------------13--|------13--12------------------|----------------|
12^-----r---------------14----|------------------6-----------|4-----------6---|
----------------------14------|-------------/7----------/5---|-------/7-------|
------------------------------|------------------------------|----------------|
------------------------------|------------------------------|----------------|

Verses:  (with Rhy. Fig. 1)
1. Welcome to where time stands still, noone lives and noone will
Moon is full never seems to change, just labeled mentally deranged
Dream the sane thing every night, I see our freedom in my sight
No locked doors, no windows barred , no things to make my brain seem scared

2. Build my fear of what's out there, cannot breath the open air
Whisper things into my brain, assuring me that I'm insane
They think our heads are in their hands, but violent use brings violent plans
Keep him tied, it makes him well, he's getting better can't you tell?

1.Sleep my friend and you will see that dream is my reality
2.No more can they keep us in, listen *** it we will win
----------------|----------------|--------|
----------------|----------------|--------|
----------------|----------------|--------| 8th=--
----------------|----------------|--------|
----2-2-----3-3-|----5-5---------|--------|
0-0-----0-0-----|0-0-----5-5-5-3-|3-3-5-3-|

1.Keep me locked up in this cage, can't they see it's why my brain says rage?
2.They see it right, they see it well, but they think this saves from our hell
----------------|----------------|--------|
----------------|----------------|--------|
----------------|----------------|--------|8th=--
----------------|----------------|--------|
----2-2-----3-3-|----5-5---------|--------|
0-0-----0-0-----|0-0-----5-5-5-3-|3-3-5-3-|

CHORUS
                                                 Sa   -    na   -
--------------------------------|--------------------------------|
--------------------------------|--------------------------------|
--------------------5s4-----5s4-|----------------_3_-------------|
------------5s4-----5s4-----5s4-|----------------020-------------|
------------5s4-----3s2-----3s2-|--------------------3-2---------|
0-------x-x-3s2-x-x-----x-x-----|------------------------5-3-2-3-|

tarium                                           leave   me
--------------------------------|--------------------------------|
--------------------------------|--------------------------------|
--------------------5s4-----5s4-|--------------------------------|
------------5s4-----5s4-----5s4-|--------------------------------|
------------5s4-----3s2-----3s2-|----2-2-2-2-2-2-3-2-------x-3---|
0-------x-x-3s2-x-x-----x-x-----|--------------------3-----x-1---|

be                                               Sa   -   ni    -
--------------------------------|--------------------------------|
--------------------------------|--------------------------------|
--------------------5s4-----5s4-|----------------_3_-------------|
------------5s4-----5s4-----5s4-|----------------020-------------|
------------5s4-----3s2-----3s2-|--------------------3-2---------|
0-------x-x-3s2-x-x-----x-x-----|------------------------5-3-2-3-|

tarium                                  just leave me alone
--------------------------------|--------------------------------| 1st time
--------------------------------|--------------------------------| go on with
--------------------5s4-----5---|4-------------------------------| the solo
------------5s4-----5s4-----5---|4-------------------------------| 2nd time
------------5s4-----3s2-----3---|2-------------------------------| skip to
0-------x-x-3s2-x-x-----x-x-----|--------------------------------| CODA

Now comes the second solo. The backing guitar plays a B chord for
the next line and then goes on 4 times with the backing rhythm 
of solo 1.


 ----------------------------------------------------------------|
 --------------------------------------------------------10------|
 ----------------------------------------7---7---9--s11----------|
 ------------------------7---7--s9-------------------------------|
 --------5---5---7--s9-------------------------------------------|
/7---------------------------------------------------------------|

For the next two lines we have two guitars soloing together.
For two notes they play on the same string (high E). In this
case the highest note is indicated above the tablature.

                22      22
--------15--17--19------19------19------------------------------|
17--19--------------------------17------------------------------|
----------------------------------------------------------------|
----------------------------------------------------------------|
----------------------------------------------------------------|
----------------------------------------------------------------|


                     
17-h19-p17------15------17-h19--17--------------17--19p17 17------|
19-h20-p19------17------19-h20--19------19------19--20p19 17------|
----------------------------------------19------------ -- --------|
------------------------------------------------------ -- --------|
------------------------------------------------------ -- --------|
------------------------------------------------------ -- --------|


15------------------------------|
--------------------------------|
16------------------------------|
--------------------------------|
--------------------------------|
--------------------------------|

14^---------------------r-------------------------------14--15--|
15^---------------------r-------15------------------------------|
----------------------------------------------------------------|
----------------------------------------------------------------|
----------------------------------------------------------------|
----------------------------------------------------------------|
                ___3____
17--15--14--15--14h15p14  ----14---------------- -- --------------------|
--------------------      17------17--17--14--15p14 16--14--------------|
--------------------      ---------------------- -- --------16--14-s12--|
--------------------      ---------------------- -- --------------------|
--------------------      ---------------------- -- --------------------|
--------------------      ---------------------- -- --------------------|

--------------------------------|
--------------------------------|
14-p12------12------------------|
--------16------16--14--12------|
----------------------------16--|
--------------------------------|

--------------------------------------------------------17------|
------------------------------------------------17-s15------15-s|
----------------------------------------------------------------|
12-h14----------------------------------------------------------|
----------------------------------------------------------------|
----------------------------------------------------------------|

----15----------14----------12----------10----------7-----------|
14------14-s12------12-s10------10-s8-------8-s-7-------7-------|
------------------------------------------------------------7---|
----------------------------------------------------------------|
----------------------------------------------------------------|
----------------------------------------------------------------|

--------------------------------|
--------------------------------|
----7---9-----9s11------9-------|
9-------------~-----------------|
--------------------------------|
--------------------------------|

----------------------------------------------------------------|
----------------------------------------------------------------|
9---------------------------------------9---9---9-------9-------|
----------------------------------------------------------------|
----------------------------------------------------------------|
----------------------------------------------------------------|

------------------------------------------------5---------------|
----------------------------------------------------------------|
9-------7-------------------------------6-----------------------|
----------------5--------------/7----------------------/5-------|
----------------------------------------------------------------|
----------------------------------------------------------------|

--------3-----------------------|
--------------------------------|
4-----------------------6-------| Now go back and play verse 2.
---------------/7---------------|
--------------------------------|
--------------------------------|

CODA

----------------|--------------------------------|
----------------|--------------------------------|
_3_-------------|--------------------5s4-----5---|
020-------------|------------5s4-----5s4-----5---|
----3-2---------|------------5s4-----3s2-----3---|
--------5-3-2-3-|0-------x-x-3s2-x-x-----x-x-----|


--------------------------------|----------------|----------
--------------------------------|----------------|----------
4-------------------------------|_3_-------------|----------
4-------------------------------|020-------------|2---------
2-------------------------------|----3-2---------|2---------
--------------------------------|--------5-3-2-3-|0---------

This last E chord lasts rather long for Metallica, while the song
doubles its tempo and the lyrics go "Just leave me alone".
Then you make a pick slide down the neck and you go:

----------------|----------------|----------------|----------------|
----------------|----------------|----------------|----------------|
----------------|----------------|----------------|----------------|
----------------|----------------|----------------|----------------|
----------------|----------------|----------------|----------------|
0-0-0-0-0-0-0-0-|0-0-0-0-0-0-0-0-|0-0-0-0-0-0-0-0-|0-0-0-0-0-0-0-0-|

----------------|----------------|----------------|----------------|
----------------|----------------|----------------|----------------|
----------------|----------------|----------------|----------------|
0h2---0h2-------|----------------|0h1---0h1---0h1-|--0h2-----------|
0h2---0h2-------|----------------|0h1---0h1---0h1-|--0h2-----------|
----------0-0-0-|0-0-0-0-0-0-0-0-|----------------|------0-0-0-0-0-|

Rhy. Fig. 2                                         (end Rhy.Fig. 2)
----------------|----------------|----------------|----------------| 
----------------|----------------|----------------|----------------| Repeat
----------------|----------------|----------------|----------------| this
0h1---0h1-------|----------------|0h1---0h1---0h1-|--0h2-----------| line
0h1---0h1-------|----------------|0h1---0h1---0h1-|--0h2-----------| 3 times
----------0-0-0-|0-0-0-0-0-0-0-0-|----------------|------0-0-0-0-0-|




             Fear of living on               Natives getting rest-
--------------------------------|--------------------------------|
--------------------------------|--------------------------------|
--------------------------------|------7-7-----------------------|
0-2---2-2-----------------------|0-2---7-7-----------------------|
0-2---2-2-----------------------|0-2---5-5-----------------------|
------0-0-----------------------|--------------------------------|

less now       mutiny in the air              got some death to do
--------------------------------|--------------------------------|
--------------------------------|--------------------------------|
--------------------------------|------5-5-------------4-4-------|
0-2---3-3-----------------------|0-2---5-5-------5-4---4-4-------|
0-2---3-3-----------------------|0-2---3-3-------3-2---2-2-------|
------1-1-----------------------|--------------------------------|

         Mirror stares back hard        "Kill" it's such a friend-
--------------------------------|--------------------------------|
--------------------------------|--------------------------------|
--------------------------------|------7-7-----------------------|
0-2---2-2-----------------------|0-2---7-7-----------------------|
0-2---2-2-----------------------|0-2---5-5-----------------------|
------0-0-----------------------|--------------------------------|

ly word       Seems the only way            for reaching out again
--------------------------------|--------------------------------|
--------------------------------|--------------------------------|
--------------------------------|------5-5-------------4-4-------|
0-2---3-3-----------------------|0-2---5-5-------5-4---4-4-------|
0-2---3-3-----------------------|0-2---3-3-------3-2---2-2-------|
------1-1-----------------------|--------------------------------|

--------------------------------|
--------------------------------|
--------------------------------|
--------------------------------|
--------------------------------|
0-0-0-0-0-0-0-0-0-0-0-0-12\-----|

Now we have another solo played over Rhy. Fig. 2 (4 times)

----------------------------------------------------------------|
----------------------------------------------------------------|
12--12--12--12--12--12--12--12--12--12--12--12--12--12--12--12--|
----------------------------------------------------------------|
----------------------------------------------------------------|
----------------------------------------------------------------|

----------------------------------------------------------------|
----------------------------------------------------------------|
16--12--12--12--12--12--12--12--12--12--12--12--12--12--12--12--|
----------------------------------------------------------------|
----------------------------------------------------------------|
----------------------------------------------------------------|

------------------------------------------------------------12--|
--------------------------------13--12--12--12--15--12--12------|
14--12--12--12--16--12--12--12----------------------------------|
----------------------------------------------------------------|
----------------------------------------------------------------|
----------------------------------------------------------------|

                ______3_______
13--12--12--12--15----12----12--17\---------------------12------|
-----------------------------------------------/12--------------|
----------------------------------------------------------------|
----------------------------------------------------------------|
----------------------------------------------------------------|
----------------------------------------------------------------|

17-p15-p12--------------12------17-p15-p12----------------------|
----------------17-p15--------------------------17-p15-p12------|
----------------------------------------------------------------|
----------------------------------------------------------------|
----------------------------------------------------------------|
----------------------------------------------------------------|

17-p15-p12--------------12------17-p15-p12--------------12------|
----------------17-p15--------------------------15-p12----------|
----------------------------------------------------------------|
----------------------------------------------------------------|
----------------------------------------------------------------|
----------------------------------------------------------------|

                                                ______3_______
17^---------------------r-------^---------------------17----15--|
------------------------------------------------17--------------|
----------------------------------------------------------------|
----------------------------------------------------------------|
----------------------------------------------------------------|
----------------------------------------------------------------|

14--------------14----------------------------------------------|
--------15--------------15--------------------------------------|
------------------------------------------------2---------------|
--------------------------------------------------------4-------|
----------------------------------------------------------------|
----------------------------------------------------------------|

----------------------------------------------------------------|
----------------------------------------------------------------|
----------------4-------2---------------2-------4---2-----------|
4^------------------------------4-----------------------4-------|
----------------------------------------------------------------|
----------------------------------------------------------------|

----------------------------------------------------------------|
----------------------------------------------------------------|
--------------------------------------------------------4-------|
3-------2---------------2^--------------------------------------|
----------------5-----------------------------------------------|
----------------------------------------------------------------|

----------------------------------------------------------------|
----------------5-----------------------5---------------5-------|
7^----------------------7^----------------------7^--------------|
----------------------------------------------------------------|
----------------------------------------------------------------|
----------------------------------------------------------------|

----------------------------------------------------------------|
--------5---------------5-------------------------------12------|
7^--------------7^--------------7\--------------14--------------|
----------------------------------------------------------------|
----------------------------------------------------------------|
----------------------------------------------------------------|

____________3__________         ___________3___________
--------------------------------15^--------15--------14---------|
15^--------15--------12-----------------------------------------|
----------------------------------------------------------------|
----------------------------------------------------------------|
----------------------------------------------------------------|
----------------------------------------------------------------|

____________3__________
12-------------------12-----------------------------------------|
-----------15-------------------15^---------------------17--17--|
----------------------------------------------------------------|
----------------------------------------------------------------|
----------------------------------------------------------------|
----------------------------------------------------------------|

15----------15--17--15------15--19--17-(15)--s--21------19--22--|
----17--18--------------19--------------------------------------|
----------------------------------------------------------------|
----------------------------------------------------------------|
----------------------------------------------------------------|
----------------------------------------------------------------|

22--19------22--22^-------------22^-----------------------------|
--------x-------------------------------------------------------|
-------------------------------------------End of solo 3--------|
----------------------------------------------------------------|
----------------------------------------------------------------|
----------------------------------------------------------------|


--------------------------------|--------------------------------|
--------------------------------|--------------------------------|
--------------------R-----------|------7-7-------7---R-----------|
0-2---2-2-------2---E-----------|0-2---7-7-------7---E-----------|
0-2---2-2-------2---S-----------|0-2---5-5-------5---S-----------|
------0-0-------0---T-----------|--------------------T-----------|


For the next part of the song there are 4 guitars playing from time
to time. We are going to use the following:

Rhy. Fig. 3
--------------------------------|--------------------------------|
--------------------------------|--------------------------------|
--------------------------------|------7-7-----------------------|
0-2---2-2-----------------------|0-2---7-7-----------------------|
0-2---2-2-----------------------|0-2---5-5-----------------------|
------0-0-----------------------|--------------------------------|

                                                 (end Rhy. Fig. 3)
--------------------------------|--------------------------------|
--------------------------------|--------------------------------|
--------------------------------|------5-5-------------4-4-------|
0-2---3-3-----------------------|0-2---5-5-------5-4---4-4-------|
0-2---3-3-----------------------|0-2---3-3-------3-2---2-2-------|
------1-1-----------------------|--------------------------------|

Riff 1
--------------------------------|--------------------------------|
--------------------------------|--------------------------------|
--------------------------------|2---------------2-2-2-----2-----|
(5)-------------5-5-5-4---5-----|----------------------5---------|
(7)-------------7-7-7-6---7-----|9---------------9-9-9-7---9-----|
--------------------------------|--------------------------------|

                                                      (end Riff 1)
--------------------------------|--------------------------------|
--------------------------+-----|--------------------------------|
----4-5---------5-5-5-7---5-----|--------------------------4-----|
5-----------------------------5-|----------------4-4-4-5-------5-|
10--9-8---------8-8-8-10--8---7-|----------------6-6-6-7---9---7-|
--------------------------+-----|--------------------------------|

Until the end of solo 4 one guitar plays Rhy. Fig. 3, another one
plays the following line...

--------------------------------|--------------------------------|
--------------------------------|--------------------------------|
--------------------------------|--------------------------------|
--------------------------------|--------------------------------|
------------5-s-7-7-7-5---7-----|9---------------9-9-9-7---9-----|
--------------------------------|--------------------------------|

--------------------------------|--------------------------------|
--------------------------------|--------------------------------|
--------------------------------|--------------------------------|
--------------------------------|--------------------------------|
10--9-8---------8-8-8-10--8---7-|----------------6-6-6-7---9-----|
--------------------------+-----|--------------------------------|

--------------------------------|--------------------------------|
--------------------------------|--------------------------------|
--------------------------------|--------------------------------|
--------------------------------|--------------------------------|
7---------------7-7-7-5---7-----|9---------------9-9-9-7---9---9-|
--------------------------------|--------------------------------|

--------------------------------|--------------------------------|
--------------------------------|--------------------------------|
--------------------------------|--------------------------------|
--------------------------------|------------------------------5-|
10--9-8---------8-8-8-10--8---7-|----------------6-6-6-7---9---7-|
--------------------------+-----|--------------------------------|

This last note on 5th fret of D string belongs to another guitar
whose line is tabbed in the upper part of Riff 1. All three
guitars play together Rhy. Fig. 3 and Riff 1 for 2 times, and then
continue for 2 times under the following solo 4.

 ----------------------------------------------------------------|
 ----------------------------------------------------------------|
 ----------------------------------------------------------------|
 ----------------------------------------------------------------|
 -------------------------------7---7---7---6-------7------------|
/7---------------------------------------------------------------|

----------------------------------------------------------------|
----------------------------------------------------------------|
----------------------------------------------------------------|
----------------------------------------------------------------|
9-------10--12------------------12--12--12--10------12----------|
----------------------------------------------------------------|

----------------------------------------------------------------|
----------------------------------------------------------------|
--------12--------------12------14^---------14^---------14^-----|
------------14------14------------------------------------------|
12-s14----------------------------------------------------------|
----------------------------------------------------------------|

----------------------------------------------------------------|
--------------------------------12----------12------------------|
12------------------------------12----------12------------------|
----14------------------14--14------14--14--------------14--14--|
----------------------------------------------------------------|
----------------------------------------------------------------|

----------------------------------------------------------------|
12----------12------------------__3___------------------12------|
12----------12----------12--14--14^r12--14--14------14----------|
----14--14----------14------------------------------------------|
----------------------------------------------------------------|
----------------------------------------------------------------|

                                                        ___3____
----12----------------------12--15^---------r-----------12h15p12|
--------12--15^---------15--------------------------------------|
14^-------------------------------------------------------------|
----------------------------------------------------------------|
----------------------------------------------------------------|
----------------------------------------------------------------|

___3____
15p12h15-------------------------------- ------------ ------------|
--------12------------------------------ ------------ ------------|
------------14--12------12--14^-r----p12 14--14^-rp12 14--14^-rp12|
--------------------14------------------ ------------ ------------|
---------------------------------------- ------------ ------------|
---------------------------------------- ------------ ------------|

----------------------------------------------------------------|
----------------------------------------------------------------|
14--14^-rp1214--14^-------------11--11--11--12------14---s--16--|
----------------------------------------------------------------|
----------------------------------------------------------------|
----------------------------------------------------------------|

----------------------------------------------------------------|
12-----s----17--17----------------------------------------------|
----------------------------------------------------------------|
------------------------------------End of solo 4---------------|
----------------------------------------------------------------|
----------------------------------------------------------------|

Together with the note on 12th fret of B string the backing guitars
go as follows until the end of the song.

--------------------------------|--------------------------------|
--------------------------------|--------------------------------|
--------------------------------|------7-7-----------------------|
0-2---2-2-----------------------|0-2---7-7-----------------------|
0-2---2-2--------------(8)\-----|0-2---5-5--------------(8)\-----|
------0-0--------------(6)\-----|-----------------------(6)\-----|

--------------------------------|--------------------------------|
--------------------------------|--------------------------------|
--------------------------------|------5-5-------------4-4-------|
0-2---3-3-----------------------|0-2---5-5-------5-4---4-4-------|
0-2---3-3--------------(8)\-----|0-2---3-3-------3-2---2-2-------|
------1-1--------------(6)\-----|--------------------------------|

--------------------------------|--------------------------------|
--------------------------------|----------------___3___---------|
----------------___3___---------|------7-7-------7--7--7-7-------|
0-2---2-2-------2--2--2-2-------|0-2---7-7-------7--7--7-7-------|
0-2---2-2-------2--2--2-2-------|0-2---5-5-------5--5--5-5-------|
------0-0-------0--0--0-0-------|--------------------------------|

--------------------------------|--------------------------------|
--------------------------------|----------------___3___---------|
----------------___3___---------|------5-5-------4--4--4-4-------|
0-2---3-3-------3--3--3-3-------|0-2---5-5-------4--4--4-4-------|
0-2---3-3-------3--3--3-3-------|0-2---3-3-------2--2--2-2-------|
------1-1-------1--1--1-1-------|--------------------------------|

--------------------------------|--------------------------------|
___3___---------___3___---------|--------------------------------|
4--4--4-4-------4--4--4-4-------|4-------2-----------------------|
4--4--4-4-------4--4--4-4-------|4-------2-------5-------4-------|
2--2--2-2-------2--2--2-2-------|2-------0-------5-------4-------|
--------------------------------|----------------3-------2-------|

--------------------------------|--------------------------------|----
--------------------------------|--------------------------------|----
--------------------------------|--------------------------------|----
2-------------------------------|--------------------------------|2\--
2-------------------------------|--------------------------------|2\--
0-------------------------------|--------------------------------|0\-

5.SAD BUT TRUE

FIG 1                                 END FIG 1
|-------------|---------|---------------|-------------------------------------|
|-------------|---------|---------------|-------------------------------------|
|-2---2--2--2-|--3---3--|--2------------|-------------------------------------|
|-2---2--2--2-|--3---3--|--2---/7--6--5-|--3H5P3H5P3H5P3H5P3H5P3H5P3H5P3H5P3H5|
|-0---0--0--0-|--1---1--|--0------------|-------------------------------------|
|-------------|---------|---------------|-------------------------------------|



---------------------------------------------
PLAY FIG 1.
---------------------------------------------


FIG 2
|-----------------------------|
|-----------------------------|
|-----------------------------|
|--2----2--2------------------|
|--2----2--2--5P0--1P0--------|
|--0----0--0-------------3P0--|


|-----------------------|
|-----------------------|
|-----------------------|
|-2----2--2-------------|
|-2----2--2----5P0-5-5--|
|-0----0--0-------------|



VERSES 1,2 AND 3
|------------------------|-----------------------|
|------------------------|-----------------------|
|------------------------|--------------3--------|X 4 EACH TIME
|-2--2--2-2-2--0---2--2--|-2--2--2-2-2--3--2--2--|
|-2--2--2-2-2--0---2--2--|-2--2--2-2-2--1--2--2--|
|-0--0--0-0-0------0--0--|-0--0--0-0-0-----0--0--|


CHOURS
|---------------------------|--------------------------------|
|---------------------------|--------------------------------|
|---------------------------|--------------------------------|
|------3-3-0--3--2----------|------3---3--0------------------|
|------3-3-0--3--2----------|------3---3--0-----7---7--7--7--|
|-0-0---------------0--0--0-|-0-0------------0--5---5--5--5--|




|--------------------------------------|
|--------------------------------------|
|--------------------------------------|
|--------------------------------------|
|--7---7---8---8--5---7---5---5--5--5--|
|--5---5---6---6--3---5---3---3--3--3--|




|-------------------------------------|
|-------------------------------------|
|-------------------------------------|X 2
|---------5---5---5---5---------------|
|--5---5--3---3---3---3------3--3-----|
|--3---3-----------------0---1--1--0--|


REPEAT FIG 2 FIVE TIMES.THEN

|-----------------------|-----------------------------|
|-----------------------|-----------------------------|
|-----------------------|-----------------------------|
|-----------------------|-----------------------------|
|--2---2--2--5P0--5--5--|--2---2--2--------0H1P0------|
|--0---0--0-------------|--0---0--0--0--3----------3--|


|-------------------------|------------------------|-----------------------|
|-------------------------|------------------------|-----------------------|
|-------------------------|------------------------|-----------------------|
|--/7--6--5--2 ~~~~~~~~~~-|--/7--6--5--3 ~~~~~~~~~-|--/7--6--5--2 ~~~~~~~~-|
|-------------------------|------------------------|-----------------------|
|-------------------------|------------------------|-----------------------|


|------------------------|---------------------|---------------------------|
|---------------5--4--3--|------------5--4--3--|---------------------------|
|------------------------|--2------------------|--3---------------------2--|
|--/7--6--5--4-----------|---------------------|----------2--3-5-3-5-3-----|
|------------------------|---------------------|---------------------------|
|------------------------|---------------------|---------------------------|


|------------------|
|------------------|
|------------------|
|-2--3-5-3-5-2--3--|
|---------------1--|
|------------------|


solo 1

|-------------------------------------------------------------------|
|-2/12----------------------------------------------12--12--12------|
|-3/13----------------------------------------------12--12--12------|
|-----------------------------------14\-----12--14------------------|
|-------------------------------------------------------------------|
|-------------------------------------------------------------------|

|----------------------------------------------------------------|
|----------------12----------------------------------------------|
|----------------12----------------------------------------------|
|14------------------14--12------14-12-----------\-------12--14--|
|----------------------------14--**------------------14----------|
|----------------------------------------------------------------|

|----------------------------------------------------------------|
|12--------------------------------------------------------------|
|12------------------------------9p7p6---------------------------|
|----14--12------14----------------------9---7---9-----------\---|
|------------14--**------------------------------**--------------|
|----------------------------------------------------------------|

|----------------------------------------------------------------|
|----------------------------------------------------------------|
|4-h-5p4-----4---------------------------------------------------|
|--------7-------7---5---4-----------------------9---s---5---s---|
|----------------------------5---7-------------------------------|
|--------------------------------**------------------------------|

|--------------------------------------------------------------------------|
|----12--15p12-15p12----12 12-15p12----12h15p12--12h15p12------------------|
|14^-----------------14^-----------14^---------14--------14-12-------------|
|--------------------------------------------------------------14--14------|
|--------------------------------------------------------------------------|
|--------------------------------------------------------------------------|

|----------------------------------------------------------------|
|--------12------------------------------------------------------|
|--------12------14--12------------------------------------------|
|12-h14------14----------14--12----------------------------------|
|--------------------------------14--12-s10--12--10--------------|
|----------------------------------------------------------------|

|----------------------------------------------------------------|
|14^-r---14^-r-------------------14^-r-----------12--------------|
|14^-r---14^-r---14^r12--12--14--14^-r---12------12----------12--|
|----------------------14--------------------14----------14------|
|----------------------------------------------------------------|
|----------------------------------------------------------------|

|----------------------------------------------------------------|
|14^-r---12--14^-r---12--14^-r---12--14^-r-----------------------|
|14^-r---12--14^-r---12--14^-r---12--14^-r---12--14^-------------|
|------------------------------------------------------------12--|
|----------------------------------------------------------------|
|----------------------------------------------------------------|


|------------------------------------------------------------------------|
|------------------------------------------------12-12-13-12-13-15-15-15-|
|---------------------------12----12-14-12-14-14^------------------------|
|---------12----12-14-12-14----14----------------------------------------|
|14-12-14----14----------------------------------------------------------|
|------------------------------------------------------------------------|


|--12h15p12--12--12-12-15p12-12-12-12-12-12-15p12--------------------------|
|--------15-------------------------------------15p13--13-15p13----13--15--|
|----------------------------------------------------14--------14----------|
|--------------------------------------------------------------------------|
|--------------------------------------------------------------------------|
|--------------------------------------------------------------------------|

|-15------15----------|
|-15^-----15^---------|
|---------------------|
|---------------------|
|---------------------|
|---------------------|




solo 2

|----------------------------------------------------------------|
|----------------------------------------------------------------|
|----------------------------------------------------------------|
|2-------2-p-0---2-------2-p-0---2-------------------------------|
|----------------------------------------------------------------|
|----------------------------------------------------------------|


|-------0------------0-------------------------------------------|
|-----------3^-----------3---0-----------------------------------|
|2^------------------------------2^rp0---------------------------|
|----------------------------------------2-----------------------|
|----------------------------------------------------------------|
|----------------------------------------------------------------|
                                                                


|----------------------------------------------------------------|
|----------------------------------------------------------------|
|4^------4^------4^------4^------4^--------------0---------------|
|-----Semi - harmonics-------------------------------2-----------|
|----------------------------------------------------------------|
|----------------------------------------------------------------|


|----------------------------------------------------------------|
|--------12--12--x---12--12------12--12--12--12--x---12--12--12--|
|--------12--12--x---12--12------12--12--12--12--x---12--12--12--|
|-/14------------------------14----------------------------------|
|----------------------------------------------------------------|
|----------------------------------------------------------------|


|--------12----------12------12----------------------------------|
|----12------15^---------15^-----15^-\---------------------------|
|14^-------------------------------------------------------------|
|----------------------------------------------------------------|
|----------------------------------------------------------------|
|----------------------------------------------------------------|

6.OF WOLF AND MAN

INTRO  
|------------|-----------|-----------|-----------|-----------|-----------|
|------------|-----------|-----------|-----------|-----------|-----------|
|------------|-----------|-----------|-----------|-----------|-----------|
|-2--2--2--2-|2--2--2--2-|2--2--2--2-|2--2--2--2-|2--2--2--2-|2--2--2--2-|
|-2--2--2--2-|2--2--2--2-|2--2--2--2-|2--2--2--2-|2--2--2--2-|2--2--2--2-|
|-0--0--0--0-|0--0--0--0-|0--0--0--0-|0--0--0--0-|0--0--0--0-|0--0--0--0-|
                            

|-----------------------------|-----------------------------|
|-----------------------------|-----------------------------|
|-----------------------------|-----------------------------|
|---------------------4-----3-|---------------------4-----3-|
|------------3--2-----2-----1-|------------3--2-----2-----1-|
|-0----0--0--1--0--0-----0----|-0----0--0--1--0--0-----0----|


|---------------------------------|
|---------------------------------|
|---------------------------------|
|----------------------------4--3-|
|------------3--2------------2--1-|
|-0----0--0--1--0--0---0--0-------|

                F5  E5    B5   Bb5  E5
Off through the new day's mist I    run.
             
             F5  E5    B5   Bb5  F5   E5
Out from the new day's mist  I   have come.
  F5 E5              F5 E5
I    hunt, therefore I  am.
        F5  E5
Harvest the land.
          F5  E5       B5  Bb5
Taking of the fal__len     lamb. 

|----------------------------|-------------------------------|
|----------------------------|-------------------------------|
|----------------------------|-------------------------------|
|--------------------4-----3-|-------------------------------|
|-----------3--2-----2-----1-|--------5-7-5-0-5-7---5-7--7\--|
|0----0--0--1--0--0-----0----|--5--7-------------------------|

                F5  E5    B5   Bb5  E5
Off through the new day's mist I    run.
             F5  E5    B5   Bb5  F5   E5
Out from the new day's mist  I   have come.

   F5 E5    B5 Bb5
We    shift,      pulsing with the earth.
               F5 E5
Company we keep,     roaming the land while you 
                           Shape shift.
   sleep.      Oh...                  Nose to the wind.
|---------------|----------------||--------------------------------|
|---------------|----------------||--------------------------------|
|---------------|----------------||--------------------------------|
|-2---2---2---2-|-----4-------3--||----------------------4-------3-|
|-2---2---2---2-|-----2-------1--||--2---2---3---2-------2-------1-|
|-0---0---0---0-|-0-------0------||--0---0---1---0---0-------0-----|
Shape shift. 
                         Move shift
   Feeling I've been               All senses clean
|-------------------------------|-------------------------------|
|-------------------------------|-------------------------------|
|-------------------------------|-------------------------------|
|---------------------6-------5-|---------------------6-------5-|
|-2---2---3---2-------4-------3-|-4---4---5---4-------4-------3-|
|-0---0---1---0---0-------0-----|-2---2---3---2---0-------0-----|
Earth's gift
(Back to the meaning),back to the meaning of...         life.
|-----------------------------------------|------------------|
|-----------------------------------------|------------------|
|-----------------------------------------|------------------|
|-----------------------------------------|------------------|
|-----------5---4-------------5---4-------|-4---4---4--------|
|-2---2-2---3---2---2---2-2---3---2-------|-2---2---2---14\--|
Solo 

|----------------------------------------|
|----------------------------------------|
|---4p2p0---0----4p2p0---0----4p2p0------|
|---------2------------2------------2p0--|
|----------------------------------------|
|----------------------------------------|
                   AH    AH  
|-------------------------------------------------|
|-------------------------------------------------|
|--4p2p0------------4p2p0-4p2p0-------------------|
|-------4p2p0-------------------4p2p0-4p2p0-------|
|-------------4p2p0-------------------------4p2p0-|
|-------------------------------------------------|

|----------------------------------------------------------------------------------|
|----------------------------------------------------------------------------------|
|------------------------------------------------------------------12-14-14b(16)---|
|-----------------------------------------------------------12h14------------------|
|-2p0-3p0-4p0-5p0-6p0-p7p0-8p0-9p0-9p0-10p0-11p0-12p0-12h14------------------------|
|----------------------------------------------------------------------------------|

         
|--------------------------------------| |--------------|
|---------------12-15---------12-15p12-| |----12h15p12--|
|-12-------9s14-------14b(16)----------| |-14-----------|
|----14--------------------------------| |--------------|x8
|--------------------------------------| |--------------|
|--------------------------------------| |--------------|
             ~~~~~~~~~~~~
|-------------------------12------------------12----------|
|-15b(17)-15b(17)----(17)----15p12---------12----15p12----|
|----------------------------------14b(16)----------------|
|---------------------------------------------------------|
|---------------------------------------------------------|
|---------------------------------------------------------|

|---------12-12---------------------------------------------------|
|---------------15p12---------12-15p12----------------------------|
|-14b(16)-------------14b(16)----------14p12----12-14b---(16)-----|
|--------------------------------------------14-------------------|
|-----------------------------------------------------------------|
|-----------------------------------------------------------------|
     ~~~~~~~~~~~         *
|----------------------|---------------------------------------|
|----------------------|-15--15-15--15-15--17p15----15--15-15--|
|-12-------------------|-15--15-15--15-15--17p15----15--15-15--|
|----14------(14)\8/17-|-------------------------17------------|
|----------------------|---------------------------------------|
|----------------------|---------------------------------------|

|-----------------------------------------------|
|-17p15-----------------------------------------|
|-17p15----15-17p15----15-17p15------------15\--|
|-------17----------17----------17-15-17--------|
|-----------------------------------------------|
|-----------------------------------------------|
 *
|------------------------------------|
|---------------------------8----8---|
|----------8----8--10-8-10----10-----|
|-10-8-10----10----------------------|
|------------------------------------|
|------------------------------------|

                    
|---------8------------------------------------------------------------|
|-11b(13)---11p8---------8-11p8-11b(13)--[13]-[13]-[13]-[13]-[13]-[13]-|
|----------------10b(11)-----------------------------------------------|
|----------------------------------------------------------------------|
|----------------------------------------------------------------------|
|----------------------------------------------------------------------|


|---------------------------------------------------------|
|-[13]--[13]-[13]-[13]-[13]--[13]--[13]--[13]--[13]--[13]-|
|---------------------------------------------------------|
|---------------------------------------------------------|
|---------------------------------------------------------|
|---------------------------------------------------------|

                     ~~~~~~~~~
|-------------------------------------|
|-(13)-------r(11)-8------------------|
|--------------------9----------------|
|------------------------------10/14--|
|-------------------------------------|
|-------------------------------------|


|-----------------------|   |----------------------|------------|----------------|
|--------------14p12----|   |-------------------12-|-(12)----12-|-(12)---(12)\---|
|--12h14p12-------------|   |-12h14p12----------12-|-(12)----12-|-(12)---(12)\---|
|-----------14-------14-|x4 |----------14-12-14----|------------|----------------|
|-----------------------|   |----------------------|------------|----------------|
|-----------------------|   |----------------------|------------|----------------|

7.THE UNFORGIVEN

Intro:Starts with a horn


rythm: clean electric
or acoustic guitar:Jaymz
(with fingers)
|--------------------------------|
|-0-----0-----0-----0-----1------|
|---2-----2-----2-----2-----2----|
|-----2-----2-----2-----2-----2--|
|-0------------------------------|
|--------------------------------|
Keep repeating along with the lead
guitar until the verse starts.


lead:clean electric guitar:Kirk
|------------------------------------------|
|------------------------------------------|
|--2--4--4h5---5-4-2----2--4--4h5---5--2---|
|------------------------------------------|
|------------------------------------------|
|------------------------------------------|
Repeat this one more time, then the drums and
bass come in, and a similar sounding but 
different line is played....

|-------------------------------------------|
|-------------------------------------------|
|--2--4--4h5--5--5--5--4---4\---2--2h4--2---|
|------------------------5----2-------------|
|-------------------------------------------|
|-------------------------------------------|

|------------------------------------------------|
|------------5--5--5--3--------------------------|
|--2--4--4h5------------4--4\--1--/4--1--2h4-2---|
|------------------------------------------------|
|------------------------------------------------|
|------------------------------------------------|


Verse 1: Im going to put in Kirk's part of the song.
If you want Jaymz's part of the verses,which is nothing
but a few power chords, go to the CHORD section for the 
unforgiven in OLGA..I recently added a correct file to that also.

Kirk's part (Played right along with the words.)
|-------------------------------------------|
|------------------8--8--7--7---------------|
|-7--5--4--4h5----------------5--5---7------|
|--------------5----------------------------|
|-------------------------------------------|
|-------------------------------------------|
Keep repeating throughtout.. 


|------------------------|
|------------------------|
|--5----4----2----0------|
|---0----0----0----0-----|
|----00---00---00---00---|
|------------------------|
 "on and on. He's known"

play Kirk's intro part for the chorus
then for the next verse, repeat the same
as the first verse.
Then, we get ready for the interlude and the solo
(for all of you who dont know, an interlude is 
the part right before the distortion sounding solo)


Interlude w/ reverb
Played by Kirk

|-------------------------------------------------|
|-----------------------------0-1-3-5-3-1-0h1/3---|
|---4-5-7-5-4h5p4---4-----------------------------|
|-7---------------7---5-5h7-----------------------|
|-------------------------------------------------|
|-------------------------------------------------|

|--3\5-3--2---------------------------------------|
|--3\5-3--3--3h5h3-3------------------------------|
|--------------------4-----------------5----------|
|----------------------5-------------5---5-5/7----|
|----------------------------3/5-6-7--------------|
|------------------------3-5----------------------|

|-------------------7---7-----10--------12---------14-----15--17--|
|--8-7h8p7---7-8-10---8---8-8----8-8/10---10-10/12---12-12--14----|
|----------9------------------------------------------------------|
|-----------------------------------------------------------------|
|-----------------------------------------------------------------|
|-----------------------------------------------------------------|


Solo: also by Kirk (i didnt figure this out, my friend did)
w/ distortion
|-----------------------------------------------------------------|
|--7^--7^---------------------------------------------------------|
|--7^--7^--5------------------------------------5--7--5-7-7/9-7-9-|
|------------7--7^--5------------------------/7-------------------|
|---------------------7-5/3-5-3--------3^-------------------------|
|-------------------------------5-3-5-----------------------------|
                                        (extreme repeated bending) 
|----------------10-------8------10------------------------|
|-7--7-8-7h8--10----10--10--10-10--10----20^^^^^^^^^-17----|
|---9------------------------------------------------------|
|----------------------------------------------------------|
|----------------------------------------------------------|
|----------------------------------------------------------|

|-20^--20^^^--17-17-20p17----17--------------10p9-7-9---9---------|
|-------------------------20----20^------------------10---8-7---7-|
|-----------------------------------------\9------------------9---|
|-------------------------------------17\-------------------------|
|-----------------------------------------------------------------|
|-----------------------------------------------------------------|

|------------------------------12--------12-------12-------12---------|
|---------------------------13----13--------13-------13-------13------|
|-9-7\5-7-5\4-5-4-2----\14-----------14--------14-------14-------14---|
|---------------------------------------------------------------------|
|---------------------------------------------------------------------|
|---------------------------------------------------------------------|

|-12--------12-------12--------------------------------------17-19-20-|
|----13--------13-------13----------------------20^---20^-------------|
|-------14--------14-------14----19^----19^--17-----------------------|
|---------------------------------------------------------------------|
|---------------------------------------------------------------------|
|---------------------------------------------------------------------|

|-19-17-19--17h19p17-----17-------------------------------------------|
|-------------------20^----20-17----20-17-----------------------------|
|-------------------------------19^------19-19^p17-19^p17--19^-19^-17-|
|---------------------------------------------------------------------|
|---------------------------------------------------------------------|
|---------------------------------------------------------------------|

|-------------------------------------------------|
|-20~~~---18h20p18---17~~~~~--18p17~~~~~~~~~~-----|
|-------------------------------------------------|
|-------------------------------------------------|
|-------------------------------------------------|
|-------------------------------------------------|

8.EYE OF THE BEHOLDER

Repeat & fade from pp-ff                    14x
||-------------------------------------------------||--||----------------------
||-------------------------------------------------||--||----------------------
||*-----------------------------------------------*||--||*---------------------
||*--------------------------------------------9--*||--||*---------------------
||---------------------------------------------7---||--||----------------------
||---0--0--0--0--0--0--0--0--0-----0-----0--0--0---||--||---0--0--0--0--0------
                                                                               

                                                                       4x
------------------------------|------------------------------------------------
------------------------------|------------------------------------------------
------------------------------|------------------------------------------------
------------------------------|------------------------------------------------
------------------------------|------------------------------------------------
0--0--0--3-----3-----3--3--3--|--2--2--2--2--2--2--2--2--2-----2-----2--2------
                                                                               

                                                                               
----||--||-------------------------------------------||--||--------------------
----||--||-------------------------------------------||--||--------------------
---*||--||*-----------------------------------------*||--||*-------------------
---*||--||*-----------------------------------------*||--||*-------------------
----||--||-------------------------------------------||--||--------------------
2---||--||---0--0--0-----0--0--0-----0--0--0--0--0---||--||---0--0--0-----0----
                                                                               

                                                                               
----------------------||----------------------------------------|--||----------
----------------------||----------------------------------------|--||----------
---------------------*||----------------------------------------|--||*---------
---------9--9--9--8--*||--------------------8h9p8---------------|--||*---------
---------7--7--7--7---||------------------------------7h8p7-----|--||----------
---0------------------||--0--0--0-----0--0---------0---------0--|--||---0------
                                                                               

                                                                               
-------------------------------||----------------------------------------------
-------------------------------||----------------------------------------------
------------------------------*||----------------------------------------------
------------------9--9--9--8--*||-----------------------8h9p8------------------
------------------7--7--7--7---||---------------------------------7h8p7--------
0--0-----0--0------------------||--0--0--0-----0--0------------0---------0-----
                                                                               

                                            Rhy. Fig. 1                        
|----------------------|-----------||--||--------------------------------------
|----------------------|-----------||--||--------------------------------------
|----------------------|-----------||--||*-------------------------------------
|----------------------|--2-----2--||--||*-------------------------------------
|----------------------|--2-----2--||--||--------------------------------------
|--6h7p6--0--2h3p2--0--|--0-----0--||--||----0--0--0--0--0--0--0--0--3---------
                                                                               

                                                                               
---------------|------------------------------------------------||-------------
---------------|------------------------------------------------||-------------
---------------|-----------------------------------------------*||-------------
------------5--|--------------------------------------------4--*||-------------
------------5--|--------------------------------------------4---||-------------
3-----3--3--3--|--2--2--2--2--2--2--2--2--2-----2-----2--2--2---||--0--0--0----
                                                                               

                                                                               
------------------------------------|------------------------------------------
------------------------------------|------------------------------------------
------------------------------------|------------------------------------------
------------------------------------|------------------------------------------
---------------------------------7--|------------------------------------------
0--0--0--0--0--0-----0-----0--0--0--|--0--0--0--0--0--0--0--0--0-----0---------
                                                                               

                   Rhy. Fig. 2                                                 
---------||-----|-------------------------|------------------------|-----------
---------||-----|-------------------------|------------------------|-----------
---------||-----|------9--9--10--7--7--8--|-----9--9--10--7--7--8--|-----9-----
---------||--4--|------9--9--10--7--7--8--|-----9--9--10--7--7--8--|-----9-----
------7--||--4--|------7--7--8---5--5--6--|-----7--7--8---5--5--6--|-----7-----
0--0--0--||--2--|---0---------------------|--0---------------------|--0--7-----
                                                                               

                                                                               
----------------|------------------------|------------------------|------------
----------------|------------------------|------------------------|------------
9--10--7--7--8--|-----9--9--10--7--7--8--|-----9--9--10--7--7--8--|------------
9--10--7--7--8--|-----9--9--10--7--7--8--|-----9--9--10--7--7--8--|--9---------
7--8---5--5--6--|-----7--7--8---5--5--6--|-----7--7--8---5--5--6--|--7---------
7--8---5--5--6--|--0--7--7--8---5--5--6--|--0--7--7--8---5--5--6--|--0---------
                                                                               

                                                                               
------------------|--------------------|-----------------------|---------------
------------------|--------------------|-----------------------|---------------
------------------|--------------------|-----------------------|---------------
---------------9--|--5--------------2--|-----------------------|---------------
---------------7--|--5--------------2--|-----------------------|---------------
0-----0-----0--0--|--3-----0--0--0--0--|--6--6--6-----3--3--3--|--5--5--5------
                                                                               

                                                                               
------------------------------------|--------------||--||----------------------
------------------------------------|--------------||--||----------------------
------------------------------------|--------------||--||*---------------------
------------------------------------|--4-----5--4--||--||*---------------------
------------------------------------|--4-----5--4--||--||----------------------
---3--3--3-----2--2--2-----3--3--3--|--2-----3--2--||--||---0--0--0--0--0------
                                                                               

                                                                               
------------|-----------------------------|-----------------------------|------
------------|-----------------------------|-----------------------------|------
------------|-----------------------------|-----------------------------|------
9--9--9--8--|-----------------9--9--9--8--|-----------------9--9--9--8--|------
7--7--7--7--|-----------------7--7--7--7--|-----------------7--7--7--7--|------
------------|--0--0--0--0--0--------------|--0--0--0--0--0--------------|------
                                                                               

                                                                               
-----------------------------------------------------------||------------------
-----------------------------------------------------------||------------------
----------------------------------------------------------*||------------------
---------------8h9p8-----------------------------------2--*||------------------
-------------------------7h8p7-------------------------2---||------------------
0--0--0--0--0---------0---------0--6h7p6--0--2h3p2--0--0---||------------------
                                                                               

Go back and play next verse here.                                              
-------------------------------||--||--------------------------||--------------
-------------------------------||--||--------------------------||--------------
-------------------------------||--||*-----9--9--10--7--7--8--*||--------------
-------------------------------||--||*-----9--9--10--7--7--8--*||--9-----------
-------------------------------||--||------7--7--8---5--5--6---||--7-----------
-------------------------------||--||---0--7--7--8---5--5--6---||--0-----0-----
                                                                               

                                                                               
---------||------------------------|------------------------|------------------
---------||------------------------|------------------------|------------------
---------||-----9--9--10--7--7--8--|-----9--9--10--7--7--8--|------------------
------9--||-----7--7--10--7--7--8--|-----9--9--10--7--7--8--|--9---------------
------7--||-----7--7--8---5--5--6--|-----7--7--8---5--5--6--|--7---------------
0--0--0--||--0---------------------|--0---------------------|--0-----0--0------
                                                                               

                                                                               
------|-----|-----------------------------------|-----||-----------------------
------|-----|-----------------------------------|-----||-----------------------
------|-----|-----------------------------------|-----||-----------------------
---9--|--2--|--5--------------------------------|--2--||-----------------------
---7--|--2--|--5--2--2--2--2--2--2--2--2--2--2--|--2--||-----------------------
0--0--|--0--|--3--0--0--0--0--0--0--0--0--0--0--|--0--||-----------------------
                                                                               
9.BLACKENED

E|--------------------------------------------|
B|--------------------------------------------|
G|--------------------------------------------|
D|-3-----------------------2-------------x----|
A|-1-----------2---3-3-----2-------------x----|
E|-----2---3-----------1-----------------x----|
!      .   .   .   . . .

E||-----------------------------------------------------------|
B||-----------------------------------------------------------|
G||*----------------------------------------------------------|
D||*-------------------------------------------------8--------|
A||------7-------7-------7---8---7-------7-------7-------7----|
E||--0-------0-------0---------------0-------0------(6)-------|
!    .       .       .               .       .       ^
!                                                  2nd guitar play this
!                                                    2nd time only

E|----------------------------------------------------------||
B|----------------------------------------------------------||
G|---------------------------------------------------------*|| 3x
D|---------------------------------------------------------*||
A|-----7-------7-------7---8---7---8-----------2---3-3------||
E|-0-------0-------0---------------6---2---3-----------1----||
   .       .       .                   .   .   .   . . .

   4th time
E|--------------------------------------------------------------|
B|--------------------------------------------------------------|
G|--------------------------------------------------------------|
D|-------------------------------------------------8------------|
A|-----7-------7-------7---8---7-------7-------7-------7--------|
E|-0-------0-------0---------------0-------0------(6)------0----|
!  .       .       .               .       .       ^       .
!                                                2nd gtr play this


E|----------------------------------|----------------------------------|

B|----------------------------------|----------------------------------|

G|----------------------------------|----------------------------------|

D|-5---5-5-5-------5---5------------|-5---5-5-5-------4---4------------|

A|-5---5-5-5-------5---5------------|-5---5-5-5-------4---4------------|

E|-3---3-3-3---0---3---3------------|-3---3-3-3---0---2---2------------|

   .   . . .   .   .                  .   . . .   .   .



E||-----------------------------------------------------------|
B||-----------------------------------------------------------|
G||*----------------------------------------------------------|
D||*-------------------------------------------------8--------|
A||------7-------7-------7---8---7-------7-------7-------7----|
E||--0-------0-------0---------------0-------0------(6)-------|
!    .       .       .               .       .       ^
!                                                   2nd gtr play this
!                                                   2nd and 4th time
only

 E|-----------------------------------------------------------||
 B|-----------------------------------------------------------||
 G|----------------------------------------------------------*|| 4x
 D|----------------------------------------------------------*||
 A|------7-------7-------7---8---7---8-----------2---3-3------||
 E|--0-------0-------0---------------6---2---3-----------1----||
!    .       .       .                   .   .   .   . . .



E||---------------------------------------------------||
B||---------------------------------------------------||
G||*-------------------------------------------------*|| 4x
D||*-------------------------3-----------------------*||
A||--2---2---2---2---2---2---1-----------2---1--------||
E||--0---0---0---0---0---0-------2---3-----------3----||
!   (.)  .   .   .   .   .       .   .
!    ^
!    palm mute 1st time only


1st verse

E||---------------------------------------------------|
B||---------------------------------------------------|
G||*--------------------------------------------------|
D||*-------------------------3------------------------|
A||--2---2---2---2---2---2---1-----------2---1--------|
E||--0---0---0---0---0---0-------2---3-----------3----|
!        .   .   .   .   .       .   .

 E|---------------------------------------------------|
 B|---------------------------------------------------|
 G|---------------------------------------------------|
 D|--------------------------3------------------------|
 A|--2---2---2---2---2---2---1-----------2---1--------|
 E|--0---0---0---0---0---0-------2---3-----------3----|
!        .   .   .   .   .       .   .

 E|---------------------------------------------------|
 B|---------------------------------------------------|
 G|---------------------------------------------------|
 D|--------------------------3-----------------s------|
 A|--2---2---2---2---2---2---1-----------1---4-/-5----|
 E|--0---0---0---0---0---0-------2---3-------2-/-3----|
!        .   .   .   .   .       .   .

     1st ending
 E|---------------------------------------------------||
 B|---------------------------------------------------||
 G|--------------------------------------------------*||
 D|--------------------------3-----------------------*||
 A|--5---5---5---5---5---5---1-----------2---1--------||
 E|--3---3---3---3---3---3-------2---3-----------3----||
!    .   .   .   .   .   .       .   .

     2nd ending
 E|----------------------------------------------------||
 B|----------------------------------------------------||
 G|---------------------------------------------------*||
 D|-------------------------3-------------s----s------*||
 A|-5---5---5---5---5---5---1-----------12\--12\-------||
 E|-3---3---3---3---3---3-------2---3---12\--12\-------||
!   .   .   .   .   .   .       .   .   ^    ^this slide done by a 2nd
gtr.
!                                       this slide done by 1st gtr and
!                                       is carried out over the 2nd one.

E|----------------------------------------------------------|
B|----------------------------------------------------------|
G|----------------------------------------------------------|
D|-------------------------------------------------8--------|
A|-----7-------7-------7---8---7-------7-------7-------7----|
E|-0-------0-------0---------------0-------0----------------|
!  .       .       .               .       .

E|----------------------------------------------------------|
B|----------------------------------------------------------|
G|----------------------------------------------------------|
D|----------------------------------------------------------|
A|-----7-------7-------7---8---7---8-----------2---3-3------|
E|-0-------0-------0---------------6---2---3-----------1----|
!  .       .       .                   .   .   .   . . .

E|----------------------------------------------------------|
B|----------------------------------------------------------|
G|----------------------------------------------------------|
D|-------------------------------------------------8--------|
A|-----7-------7-------7---8---7-------7-------7-------7----|
E|-0-------0-------0---------------0-------0------(6)-------|
!  .       .       .               .       .       ^
!                                                  2nd gtr

E|------------------|
B|------------------|
G|------------------|
D|------------------|
A|-2---2---2---2----|
E|-0---0---0---0----|
!  .   .   .   .


  1st Chorus
E|----------------------------------|----------------------------------|

B|----------------------------------|----------------------------------|

G|-9--------------------------------|-7---------------5----------------|

D|-9-----------------------7---7----|-7-------5---5---5-------5---5----|

A|-7-----------------------7---7----|-5-------5---5---3-------5---5----|

E|-------------------------5---5----|---------3---3-----------3---3----|

!                          .   .              .   .           .   .

E|----------------------------------|----------------------------------|

B|----------------------------------|----------------------------------|

G|----------------------------------|----------------------------------|

D|-4--------------------------------|-5-5-5-----------5-5-5------------|

A|-4--------------------------------|-5-5-5-----------5-5-5------------|

E|-2--------------------------------|-3-3-3-----------3-3-3------------|

!                                     . . .           . . .

E|----------------------------------|----------------------------------|

B|----------------------------------|----------------------------------|

G|----------------------------------|-7---------------5----5-----------|

D|-2-----------------------7---7----|-7-------5---5---5----5----5------|

A|-2-----------------------7---7----|-5-------5---5---3----3----5------|

E|-0-----------------------5---5----|---------3---3-------------3------|

!                          .   .              .   .   .    .    .

E|----------------------------------|----------------------------------|

B|----------------------------------|----------------------------------|

G|----------------------------------|----------------------------------|

D|-4--------------------------------|-5---5-5-5-------4---4------------|

A|-4--------------------------------|-5---5-5-5-------4---4------------|

E|-2--------------------------------|-3---3-3-3---0---2---2------------|

!                                     .   . . .   .   .


E|----------------------------------------------------------|
B|----------------------------------------------------------|
G|----------------------------------------------------------|
D|-------------------------------------------------8--------|
A|-----7-------7-------7---8---7-------7-------7-------7----|
E|-0-------0-------0---------------0-------0----------------|
!  .       .       .               .       .

E|-----------------------------------------------------------|
B|-----------------------------------------------------------|
G|-----------------------------------------------------------|
D|-----------------------------------------------------------|
A|------7-------7-------7---8---7---8-----------2---3-3------|
E|--0-------0-------0---------------6---2---3-----------1----|
!   .       .       .                   .   .   .   . . .


2nd verse

(same as 1st verse)


2nd Chorus

(same as 1st chorus)

E|----------------------------------|----------------------------------|

B|----(last-line-of-the-chorus)-----|----------------------------------|

G|----------------------------------|----------------------------------|

D|-4--------------------------------|-5---5-5-5-------4---4------------|

A|-4--------------------------------|-5---5-5-5-------4---4------------|

E|-2--------------------------------|-3---3-3-3---0---2---2------------|

!                                     .   . . .   .   .

E|------------------|--------------|----------------------------------|
B|------------------|--------------|----------------------------------|
G|------------------|--------------|-----Gtr1-------------------------|
D|-3---3------------|-2-----------^|(2)--let-ring-for-the-------------|
A|-3---3------------|-2-----------^|(2)--next-8-measures--------------|
E|-1---1------------|-0-----------^|(0)----------------------0---5----|
!  .                  1  2  3  4                             ^
!                                                            2nd Guitar

E|----------------------------------|----------------------------------|

B|----------------------------------|----------------------------------|

G|----------------------------------|----------------------------------|

D|----------------------------------|----------------------------------|

A|-----7----------------------------|-8---7----------------------------|

E|-6-------0---0---0---0---5---6----|---------0---0---0---0---0---5----|

!          .   .   .   .                      .   .   .   .

E|----------------------------------|----------------------------------|

B|----------------------------------|----------------------------------|

G|----------------------------------|-3--------------------------------|

D|----------------------------------|-1--------------------------------|

A|-----7------------------s----1---^|(1)-------------------------------|

E|-6-------0---0---0---0--/6--------|-------------------------0---5----|

!          .   .   .   .

E|----------------------------------|----------------------------------|

B|----------------------------------|----------------------------------|

G|----------------------------------|----------------------------------|

D|------------------------s---------|-8--------------------------------|

A|-----7------------------/7--------|-----7----------------------------|

E|-6-------0---0---0---0-------6----|---------0---0---0---0---0---5----|

!          .   .   .   .                      .   .   .   .

E|----------------------------------|--------------------------------------|

B|----------------------------------|--------------------------------------|

G|----------------------------------|-3------*-----------------------------|

D|----------------------------------|-1-----s----s----s----s---------------|

A|-----7------------------s----1---^|(1)--12\--12\--12\--12\---------------|

E|-6-------0---0---0---0--/6--------|-----12---12---12---12-------0---5----|

!          .   .   .   .                       2         3        4
!                                         * slides actually done by
!                                         4 different guitars



E||-----------------------------------|----------------------------------|

B||-----------------------------------|----------------------------------|

G||*----------------------------------|----------------------------------|

D||*----------------------------------|----------------------------------|

A||------7----------------------------|-8---7----------------------------|

E||--6-------0---0---0---0---5---6----|---------0---0---0---0---0---5----|

!            .   .   .   .                      .   .   .   .

 E|----------------------------------|----------------------------------|

 B|----------------------------------|----------------------------------|

 G|----------------------------------|-3--------------------------------|

 D|----------------------------------|-1--------------------------------|

 A|-----7------------------s----1---^|(1)-------------------------------|

 E|-6-------0---0---0---0--/6--------|-------------------------0---5----|

!           .   .   .   .

 E|----------------------------------|----------------------------------|

 B|----------------------------------|----------------------------------|

 G|----------------------------------|----------------------------------|

 D|------------------------s---------|-8--------------------------------|

 A|-----7------------------/7--------|-----7----------------------------|

 E|-6-------0---0---0---0-------6----|---------0---0---0---0---0---5----|

!           .   .   .   .                      .   .   .   .

 E|----------------------------------|----------------------------------|

 B|----------------------------------|----------------------------------|

 G|----------------------------------|-3--------------------------------|

 D|----------------------------------|-1--------------------------------|

 A|-----7------------------s----1---^|(1)-----------------s-------s-----|

 E|-6-------0---0---0---0--/6--------|--------------------/6---0--/6----|

!           .   .   .   .

 E|----------------------------------|----------------------------------|

 B|----------------------------------|----------------------------------|

 G|----------------------------------|----------------------------------|

 D|----------------------------------|----------------------------------|

 A|-2-------2---2---2---2-----------^|(2)------2---2---2---2-----------^|

 E|-0-------0---0---0---0-----------^|(0)------0---0---0---0-----------^|

!           .   .   .                          .   .   .

 E|----------------------------------|----------------------------------|

 B|----------------------------------|----------------------------------|

 G|----------------------------------|----------------------------------|

 D|----------------------------------|-8--------------------------------|

 A|(2)------2---2---2---2------s-----|-6--------------------------s-----|

 E|(0)------0---0---0---0------/6---^|(6)----------------------0--/6----|

!           .   .   .

 E|----------------------------------|----------------------------------|

 B|----------------------------------|----------------------------------|

 G|----------------------------------|----------------------------------|

 D|----------------------------------|----------------------------------|

 A|-2-------2---2---2---2-----------^|(2)------2---2---2---2-----------^|

 E|-0-------0---0---0---0-----------^|(0)------0---0---0---0-----------^|

!           .   .   .                          .   .   .

 E|----------------------------------|----------------------------------|

 B|----------------------------------|----------------------------------|

 G|----------------------------------|----------------------------------|

 D|----------------------------------|-8--------------------------------|

 A|(2)------2---2---2---2------s-----|-6--------------------------s-----|

 E|(0)------0---0---0---0------/6---^|(6)----------------------0--/6----|

!           .   .   .

 E|----------------------------------|----------------------------------|

 B|----------------------------------|----------------------------------|

 G|----------------------------------|----------------------------------|

 D|----------------------------------|----------------------------------|

 A|-4-------4---4---4---4-----------^|(4)------4---4---4---4-----------^|

 E|-2-------2---2---2---2-----------^|(2)------2---2---2---2-----------^|

!           .   .   .                          .   .   .

 E|----------------------------------|-----------------------------------||

 B|----------------------------------|-----------------------------------||

 G|----------------------------------|----------------------------------*||

 D|----------------------------------|-10-------------------------------*||

 A|(2)------4---4---4---4------s-----|-8------------------s--------------||

 E|(0)------2---2---2---2------/8---^|(8)---------------12\-----0---5----||

!           .   .   .
!                             play this second time--->
12\-----12\------||
!                                                         s       s

   1st time
E|----------------------------------|------------------|
B|----------------------------------|------------------|
G|-9-----------7-----------5-------^|(5)--4------------|
D|-9-----------7-----------5-------^|(5)--4------------|
A|-7-----------5-----------3-------^|(3)--2------------|
E|----------------------------------|---------3---2----|
!                                             .   .

E|----------------------------------|--------------------------|
B|----------------------------------|--------------------------|
G|-------------7-----------5-------^|(5)--4--------------------|
D|-2-----------7-----------5-------^|(5)--4--------------------|
A|-2-----------5-----------3-------^|(3)--2--------------------|
E|-0--------------------------------|-----------------3---2----|
!                                                     .   .

     2nd, 3rd and 4th times
E||-----------------------------------|------------------|
B||-----------------------------------|------------------|
G||*-------------7-----------5-------^|(5)--4------------|
D||*-2-----------7-----------5-------^|(5)--4------------|
A||--2-----------5-----------3-------^|(3)--2------------|
E||--0--------------------------------|---------3---2----|
!                                               .   .

 E|----------------------------------|--------------------------||
 B|----------------------------------|--------------------------||
 G|-------------7-----------5-------^|(5)--4-------------------*||
 D|-2-----------7-----------5-------^|(5)--4-------------------*||
 A|-2-----------5-----------3-------^|(3)--2--------------------||
 E|-0--------------------------------|-----------------3---2----||
!                                                      .   .



     Solo                                                          6x
E||-----------------------------------|----------------------------------||

B||-----------------------------------|----------------------------------||

G||*----------------------------------|---------------------------------*||

D||*----------------------------------|----------------------------s----*||

A||--2---2---2---2---2---2---2---2----|-2---2---2---2---2---2---2--/3----||

E||--0---3---0---2---0---3---0---2----|-0---3---0---2---0---3------------||

     .   .   .   .   .   .   .   .      .   .   .   .   .   .

E|----------------------------------|----------------------------------------|

B|----------------------------------|----------------------------------------|

G|----------------------------------|----------------------------------------|

D|----------------------------------|-------------------------4---5----------|

A|-2---2---2---2---2---2---2---2----|-2---2---2---2---2---2---2---3----------|

E|-0---3---0---2---0---3---0---2----|-0---3---0---2---0---3------------------|

   .   .   .   .   .   .   .   .      .   .   .   .   .   .

E|----------------------------------|----------------------------------|

B|----------------------------------|----------------------------------|

G|----------------------------------|----------------------------------|

D|-5---5-5-5-------4---4------------|-5---5-5-5-------4---4------------|

A|-5---5-5-5-------4---4------------|-5---5-5-5-------4---4------------|

E|-3---3-3-3---0---2---2------------|-3---3-3-3---0---2---2------------|

   .   . . .   .   .                  .   . . .   .   .

E|------------------|
B|------------------|
G|------------------|
D|-3---3------------|
A|-3---3------------|
E|-1---1------------|
   .


E||-----------------------------------|----------------------------------|

B||-----------------------------------|----------------------------------|

G||*----------------------------------|----------------------------------|

D||*----------------------------------|----------------------------------|

A||------7-------7-------7-------7----|-----5-------5-------5-------5----|

E||--0-------0-------0-------0--------|-0-------0-------0-------0--------|

     .       .       .       .          .       .       .       .

 E|----------------------------------|----------------------------------||

 B|----------------------------------|----------------------------------||

 G|----------------------------------|---------------------------------*||

 D|----------------------------------|---------------------------h-----*||

 A|-----8-------8-------8-------8----|-----7-------7-------7---5-^-7----||

 E|-0-------0-------0-------0--------|-0-------0-------0----------------||

    .       .       .       .          .       .       .


E|----------------------------------|
B|----------------------------------|
G|----------------------------------|
D|----------------------------------|
A|-2---2---2---2---2---2---2---2----|
E|-0---0---0---0---0---0---0---0----|
   .   .   .   .   .   .   .   .



E|----------------------------------|----------------------------------|

B|----------------------------------|----------------------------------|

G|-9--------------------------------|-7---------------5----------------|

D|-9-----------------------7---7----|-7-------5---5---5-------5---5----|

A|-7-----------------------7---7----|-5-------5---5---3-------5---5----|

E|-------------------------5---5----|---------3---3-----------3---3----|

!                          .   .              .   .           .   .

E|----------------------------------|----------------------------------|

B|----------------------------------|----------------------------------|

G|----------------------------------|----------------------------------|

D|-4--------------------------------|-5-5-5-----------5-5-5------------|

A|-4--------------------------------|-5-5-5-----------5-5-5------------|

E|-2--------------------------------|-3-3-3-----------3-3-3------------|

!                                     . . .           . . .

E|----------------------------------|----------------------------------|

B|----------------------------------|----------------------------------|

G|----------------------------------|-7---------------5----------------|

D|-2-----------------------7---7----|-7-------5---5---5-------5---5----|

A|-2-----------------------7---7----|-5-------5---5---3-------5---5----|

E|-0-----------------------5---5----|---------3---3-----------3---3----|

!                          .   .              .   .           .   .

E|----------------------------------|----------------------|
B|----------------------------------|----------------------|
G|----------------------------------|----------------------|
D|-4--------------------------------|-5---5-5-5-------4----|
A|-4--------------------------------|-5---5-5-5-------4----|
E|-2--------------------------------|-3---3-3-3---0---2----|
!                                     .   . . .   .   .


E|----------------------------------|----------------------------------|

B|----------------------------------|----------------------------------|

G|----------------------------------|----------------------------------|

D|----------------------------------|----------------------------------|

A|-----7-------7-------7-------7----|-----7-------7-------7-------7----|

E|-0-------0-------0-------6--------|-5-------5-------5-------5--------|

   .       .       .       .          .       .       .       .

E|----------------------------------|----------------------------------|

B|----------------------------------|----------------------------------|

G|----------------------------------|----------------------------------|

D|----------------------------------|-----5-------5--------------------|

A|-----5-------5-------5-------5----|-3-------3-----------5-------5----|

E|-3-------3-------3-------3--------|-----------------3-------3--------|

   .       .       .       .          .       .       .       .


E|----------------------------------|----------------------------------|

B|----------------------------------|----------------------------------|

G|----------------------------------|----------------------------------|

D|----------------------------------|----------------------------------|

A|-----7-------7-------7-------7----|-----7-------7-------7-------7----|

E|-0-------0-------0-------6--------|-5-------5-------5-------5--------|

   .       .       .       .          .       .       .       .




         (note the extra 1/8 note in this meas.)
E|----------------------------------|--------------------------------------|

B|----------------------------------|--------------------------------------|

G|----------------------------------|--------------------------------------|

D|-5---5---5---5---5---5---5---5----|-5---5---5---5---5---5---5---5---5----|

A|-5---5---5---5---5---5---5---5----|-3---3---3---3---5---5---5---5---5----|

E|-3---3---3---3---3---3---3---3----|-----------------3---3---3---3---3----|

!  .   .   .   .   .   .   .   .      .   .   .   .   .   .   .   .   .
!                It's easier to play this last note as an muted low-E ^

E|----------------------------------------------------------|
B|----------------------------------------------------------|
G|----------------------------------------------------------|
D|---------------------------------------------8------------|
A|-7-------7-------7---8---7-------7-------7-------7--------|
E|-----0-------0---------------0-------0---------------0----|
       .       .               .       .               .

E|----------------------------------------------------------|
B|----------------------------------------------------------|
G|----------------------------------------------------------|
D|----------------------------------------------------------|
A|-7-------7-------7---8---7---8-----------2---3-3----------|
E|-----0-------0---------------6---2---3-----------1---0----|
       .       .                   .   .   .   . . .   .

E|----------------------------------------------------------|
B|----------------------------------------------------------|
G|----------------------------------------------------------|
D|---------------------------------------------8------------|
A|-7-------7-------7---8---7-------7-------7-------7--------|
E|-----0-------0---------------0-------0------(6)------0----|
       .       .               .       .               .

    (note this meas. is an 1/8 note short)
E|------------------------------------------------------|
B|------------------------------------------------------|
G|------------------------------------------------------|
D|------------------------------------------------------|
A|-7-------7-------7---8---7---8-----------2---3-3------|
E|-----0-------0---------------6---2---3-----------1----|
       .       .                   .   .   .   . . .

E||-----------------------------------------------------------|
B||-----------------------------------------------------------|
G||*----------------------------------------------------------|
D||*-------------------------------------------------8--------|
A||------7-------7-------7---8---7-------7-------7-------7----|
E||--0-------0-------0---------------0-------0------(6)-------|
!    .       .       .               .       .       ^
!                                                2nd guitar play this
!                                                  2nd time only

 E|----------------------------------------------------------||
 B|----------------------------------------------------------||
 G|---------------------------------------------------------*||
 D|---------------------------------------------------------*||
 A|-----7-------7-------7---8---7---8-----------2---3-3------||
 E|-0-------0-------0---------------6---2---3-----------1----||
!   .       .       .                   .   .   .   . . .

3rd verse

(same as first)

3rd Chorus

E|----------------------------------|----------------------------------|

B|----------------------------------|----------------------------------|

G|-9--------------------------------|-7---------------5----------------|

D|-9-----------------------7---7----|-7-------5---5---5-------5---5----|

A|-7-----------------------7---7----|-5-------5---5---3-------5---5----|

E|-------------------------5---5----|---------3---3-----------3---3----|

!                          .   .              .   .           .   .

E|----------------------------------|----------------------------------|

B|----------------------------------|----------------------------------|

G|----------------------------------|----------------------------------|

D|-4--------------------------------|-5-5-5-----------5-5-5------------|

A|-4--------------------------------|-5-5-5-----------5-5-5------------|

E|-2--------------------------------|-3-3-3-----------3-3-3------------|

!                                     . . .           . . .

E|----------------------------------|----------------------------------|

B|----------------------------------|----------------------------------|

G|----------------------------------|-7---------------5----5-----------|

D|-2-----------------------7---7----|-7-------5---5---5----5----5------|

A|-2-----------------------7---7----|-5-------5---5---3----3----5------|

E|-0-----------------------5---5----|---------3---3-------------3------|

!                          .   .              .   .   .    .    .

E|----------------------------------|----------------------|
B|----------------------------------|----------------------|
G|----------------------------------|----------------------|
D|-4--------------------------------|----------------------|
A|-4--------------------------------|-5---5-5-5-------4----|
E|-2--------------------------------|-3---3-3-3---0---2----|
!                                     .   . . .   .   .

E|----------------------------------|----------------------------------|

B|----------------------------------|----------------------------------|

G|----------------------------------|-7---------------5----------------|

D|-2-----------------------7---7----|-7-------5---5---5-------5---5----|

A|-2-----------------------7---7----|-5-------5---5---3-------5---5----|

E|-0-----------------------5---5----|---------3---3-----------3---3----|

!                          .   .              .   .           .   .

E|----------------------------------|----------------------------------|

B|----------------------------------|----------------------------------|

G|----------------------------------|----------------------------------|

D|-4--------------------------------|-5-5-5-----------5-5-5------------|

A|-4--------------------------------|-5-5-5-----------5-5-5------------|

E|-2--------------------------------|-3-3-3-----------3-3-3------------|

!                                     . . .           . . .

E|----------------------------------|----------------------------------|

B|----------------------------------|----------------------------------|

G|----------------------------------|-7---------------5----5-----------|

D|-2-----------------------5---5----|-7-------5---5---5----5----5------|

A|-2-----------------------5---5----|-5-------5---5---3----3----5------|

E|-0-----------------------3---3----|---------3---3-------------3------|

!                          .   .              .   .   .    .    .

E|----------------------------------|--------------------------|
B|----------------------------------|--------------------------|
G|----------------------------------|--------------------------|
D|-4--------------------------------|-5---5-5-5-------4---4----|
A|-4--------------------------------|-5---5-5-5-------4---4----|
E|-2--------------------------------|-3---3-3-3---0---2---2----|
!                                     .   . . .   .   .

E|----------------------------------|------------------|
B|----------------------------------|------------------|
G|----------------------------------|------------------|
D|-5---5-5-5-------4---4------------|-3---3------------|
A|-5---5-5-5-------4---4------------|-3---3------------|
E|-3---3-3-3---0---2---2------------|-1---1------------|
   .   . . .   .   .                  .

E|----------------------------------------------------------|
B|----------------------------------------------------------|
G|----------------------------------------------------------|
D|-------------------------------------------------8---2----|
A|-----7-------7-------7---8---7-------7-------7-------2----|
E|-0-------0-------0---------------0-------0-----------0----|

10.FRAYED ENDS OF SANITY

Intro:

                              
e-|----------------------------------|
B-|----------------------------------|
G-|----------5---------------4-------|
D-|-2--------5-------2-------4-------|
A-|-2--------3-------2-------2-------|
E-|-0----------------0---------------|

Riff 1 Repeat 6 times
                                                        P.M..|
e-|----------------------------------------------------------|
B-|----------------------------------------------------------|
G-|-----3----------3---------------3-----------3-------------|
D-|-2---3---2------3---2-------2---3---2-------3---2---------|
A-|-2---1---2------1---2-------2---1---2-------1---2---------|
E-|-0-------0--X-X-----0---X-X-0-------0---X-X-----0---0-0-0-|

Main riff:
      P.M.|      |.|     |     |.|
e-|----------------------------------|
B-|----------------------------------|
G-|---------3--------3---------------|
D-|-2-------3--------3-----4-------3\|
A-|-2-------1--------1-----4-------3\|
E-|-0-0-0-0------0-0-----0-2---0-0-1\|

Add 1:
      P.M.|      |.|
e-|--------------------------------|
B-|--------------------------------|
G-|---------3--------3-------3-3-3-|
D-|-2-------3--------3-------3-3-3-|
A-|-2-------1--------1-------1-1-1-|
E-|-0-0-0-0------0-0---------------|

Add 2:
      P.M.|      |.|
e-|----------------------------------------|
B-|----------------------------------------|
G-|---------3--------3------3-3------3-3-3-|
D-|-2-------3--------3------3-3------3-3-3-|
A-|-2-------1--------1----X-1-1------1-1-1-|
E-|-0-0-0-0------0-0-----------------------|

Verse 1:
        P.M     |.|     |.|     |.|     |.|
e-|-------------------------------------------
B-|-------------------------------------------
G-|-------------------------------------------
D-|-2-------2---------------------------------
A-|-2-------2-------7-------7-------7-------7-
E-|-0---0-0-0---0-0-6---0-0-6---0-0-5---0-0-5-

 |.|     |.|
--------------------|
--------------------|
--------------------|
--------------------|
-----7--------------|
-0-0-4---0-0-2br2br-|

Verse 2:

e-|---------------|
B-|---------------|
G-|-4---3---2-----|
D-|-4---3---2---6-|
A-|-2---1---0---6-|
E-|-------------4-|

Prechorus (very drunken rhythm):
    P.M           |.|         |.|       |.|
e-|-------------------------------------------------
B-|-------------------------------------------------
G-|-------------------------------------------------
D-|------5/5-7--------5/5-7-------5-5-------5-6-7-8-
A-|------5/5-7--------5/5-7-------5-5-------5-6-7-8-
E-|-0-0--3/3-5----0-0-3/3-5---0-0-3-3---0-0-3-4-5-6-
  
  |.|         |.|         |.|       |.|
------------------------------------------------|
------------------------------------------------|
------------------------------------------------|
------5/5-7-------5-5-2-------5-5-------5-6-7-8-|
------5/5-5-------5-5-2-------5-5-------5-6-7-8-|
--0-0-3/3-5---0-0/3-3-0---0-0/3-3---0-0-3-4-5-6-|

Chorus:
                   P.M                   P.M
e-|------------------------------------------------------
B-|------------------------------------------------------
G-|------------------------------4-----------------------
D-|-2------4------5-6-7-8-2------4------5-6-7-8-2------5-
A-|-2------4------5-6-7-8-2------2------5-6-7-8-2------5-
E-|-0------2------3-4-5-6-0-------------3-4-5-6-0------3-
         
           P.M                  P.M..|  |...........|    
------------------------------------------------------|
------------------------------------------------------|
--------------------9------7----------5-6-7-8---------|
-----4------5-6-7-8-9------7--5-6-7-8-5-6-7-8-5-6-7-8-|
-----4------5-6-7-8-7------5--5-6-7-8-3-4-5-6-5-6-7-8-|
-----2------3-4-5-6-0---------3-4-5-6---------3-4-5-6-|

Riff 2a(rhythm guitar plays B5):
            P.M.|       |.....|
e-|---------------------------------|
B-|---------------------------------|
G-|---------------------------------|
D-|-2h4p2---------------------------|
A-|---------5-4-2-2h4p2---------2-5-|
E-|---------------------5-3-2-5-----|

Riff 3a(rhythm guitar plays C#5):
             P.M.|       |.....|
e-|----------------------------------|
B-|----------------------------------|
G-|----------------------------------|
D-|-----4h6p-------------------------|
A-|-4--------7-6-4-4h6p4---------4-7-|
E-|----------------------7-5-4-7-----|

Add 3:

e-|--------|
B-|--------|
G-|--------|
D-|--4---4-|
A-|--2---2-|
E-|--------|

Riff 2b(rhythm guitar plays B5):
              P.M.|       |.....|
e-|-----------------------------------|
B-|-----------------------------------|
G-|-----2h4p2-------------------------|
D-|-0---2h4p2-4-2-0-0h2p0---------0h4-|
A-|-2---------5-4-2-2h4p2-4-2-0-4-2h5-|
E-|-----------------------5-3-2-5-----|

Riff 3b(rhythm guitar plays C#5):
              P.M.|       |.....|
e-|-----------------------------------|
B-|-----------------------------------|
G-|-----4h6p4-------------------------|
D-|-2---4h6p4-6-4-3-2h4p2---------2h6-|
A-|-4---------7-6-4-4h6p4-6-4-2-6-4h7-|
E-|-----------------------7-5-4-7-----|

Riff 4:
    D5                              D#5
              P.M.|           |...|           |...|
e-|-------------------------------------------------
B-|-------------------------------------------------
G-|-----5h7p5-----------5h7p5-----------6h8p6-------
D-|-7---5h7p5-7-5-3-7---5h7p5-7-5-3-8---6h8p6-8-6-4-
A-|-5---------8-7-5-5---------8-7-5-6---------9-8-6-
E-|-------------------------------------------------
            |....|
------------------|
------------------|
------6h8p6-------|
--8---6h8p6-------|
--6---------9-8-6-|
------------------|

Riff 5:
    E5
                                      P.M.......|
e-|----------------------------------------------
B-|-8---7h8p7---8---7h8p7---8p7---7h8p7----------
G-|-9---7h9p7---9---7h9p7---9p7---7h9p7---9------
D-|-9---7h9p7---9---7h9p7---9p7---7h9p7---10-7-5-
A-|---------------------------------------10-7-5-
E-|------------------------------------------9-7-
 
       |...........|
-------------------------------|
-------------------------------|
--4h5p4-----------------4-7-9--|
--5h7p5-7--5-4---4-7----5-7-9--|
--7h9p7-9--7-5---5-9----7-9-10-|
--------10-8-7---7-10----------|

Riff 6:
    P.M.....|        |.....|       |.....|
e-|-----------------------------------------------
B-|-----------------------------------------------
G-|-----------------------------------------------
D-|-----------------------------------------------
A-|-------------7p5h7---------7p5h7---------7p5h7-
E-|-0---0-0-0---------0-0-0---------0-0-0---------

  |..|    |..|    |...|         |...|         |...|
----------------------------------------------------
----------------------------------------------------
----------------------------------------------------
----------------------------------------------------
--------------------------7p5h7---------7p5h7-------
--0-0-7---0-0-6---0-0-0---------0-0-0---------0-0-0-

       |..|     |.|
--------------------------|
--------------------------|
--------------------------|
--------------------------|
--7p5h7-----6-------5p0---|
--------7-7-----6-6-----3-|

Add 4
e-|-----------------------------|
B-|-----------------------------|
G-|-----------------------------|
D-|-5p4h5------5p4h5------5p4h5-|
A-|-----------------------------|
E-|-----------------------------|

Add 5
e-|-----------------------------|
B-|-----------------------------|
G-|-----------------------------|
D-|-9p7h9------9p7h9------9p7h9-|
A-|-----------------------------|
E-|-----------------------------|

Add 6
e-|--------------------------------------|
B-|--------------------------------------|
G-|--------------------------------------|
D-|-14p12h14------14p12h14------14p12h14-|
A-|--------------------------------------|
E-|--------------------------------------|


Solo: I got this somewhere, it's anything but complete. I can't 
play the damn thing anyway. 

e-|------|-t14p10p7---t14p10p7---t14---(14)p10p7---t14p10p7-
B-|---//-|--------------------------------------------------
G-|-5//--|--------------------------------------------------
D-|-7/---|--------------------------------------------------
A-|------|--------------------------------------------------
E-|------|--------------------------------------------------

-t14/15p10p7---t14/15p10p7---t14/15p10p7h(10)--t17p10p7--
---------------------------------------------------------
---------------------------------------------------------
---------------------------------------------------------
---------------------------------------------------------
---------------------------------------------------------

-t14/15p10p7---t14t14p10p7---t14/15p10p7-t14-t14p10p7--
-------------------------------------------------------
-------------------------------------------------------
-------------------------------------------------------
-------------------------------------------------------
-------------------------------------------------------

-t15p10p7---t14p10p7---t15p10p7---t14p10p7---t15p10p7--
-------------------------------------------------------
-------------------------------------------------------
-------------------------------------------------------
-------------------------------------------------------
-------------------------------------------------------

-t14p10p7---t15p10p7---5-----------------------------------
-----------------------5---h2---(2)/---17b/\/\/\full/\/\/\-
-----------------------------------------------------------
-----------------------------------------------------------
-----------------------------------------------------------
-----------------------------------------------------------

-----------/\/\full/\/\----------------14---17p14-------14--
-17b---17b/---------------(17)------17--------------17------
------------------------------------------------------------
------------------------------------------------------------
------------------------------------------------------------
------------------------------------------------------------

--------------------------------------------------------
-17p14---17p14---17b---14-------------------------------
----------------------------16---14---16p14-----14-16b--
----------------------------------------------16--------
--------------------------------------------------------
--------------------------------------------------------

----------17p14-------------------------------------------
-14-17p14-------17p14-------14h17p14----------------------
----------------------17b------------16---14------14-16b--
---------------------------------------------16-----------
----------------------------------------------------------
----------------------------------------------------------

---------------------------------------------------------
-14-14h17p14---------14-17p14---14-17p14----14h17p14-----
---------------17b------------17---------16----------16--
---------------------------------------------------------
---------------------------------------------------------
---------------------------------------------------------

-----------------------|
-14h17p-14----14h17p14-|
-----------16----------|
-----------------------|
-----------------------|
-----------------------|

I haven't got more than this, maybe it's totally wrong, I 
haven't played more than the beginning, that part sounds 
quite good. 
The rhythm guitar plays very weird and unfinished
lines, the rhythm varies between 4/4, 3/4 and 5/4:

     P.M......|
e-|----------------|
B-|----------------|
G-|-------------3--|
D-|-4-4-4-4-4-4-3--|
A-|-2-2-2-2-2-2-1--|
E-|----------------|

     P.M...................|     P.M.    P.M.
e-||-----------------------------------------
B-||*----------------------------------------
G-||-----------------------------------------
D-||-----------------------------------------
A-||*----------------------------------------
E-||-0---0-0-0---0-0-0---0-0-7---0-0-6---0-0-

P.M............|     |.|     |..................|
-------------------------------------------------
-------------------------------------------------
-------------------------------------------------
-------------------------------------------------
-------------------------------------------------
-0---0-0-0---0-0-7---0-0-6---0-0-0---0-0-0---0-0-

   |   |   |   |   |        P.M...........|
-----------------------------------------------
-----------------------------------------------
-----------------------------------------------
---------------------8-------------------------
---------7-0-6-------8-------------------------
-7-0-6-0-------0-7-0-6------0---0-0-0---0-0-7\-

 P.M....................|    |.|     |.............
---------------------------------------------------
---------------------------------------------------
---------------------------------------------------
---------------------------------------------------
-------------------------4-------3-----------------
-2---2-2-2---2-2-2---2-2-----2-2-----2-2-2---2-2-2-
                                        Play twice
 ..|     |.|     |.................|     |-|
----------------------------------------------||
---------------------------------------------*||
----------------------------------------------||
----------------------------------------------||
-----4-------3-----------------------4-------*||
-2-2-----2-2-----2-2-2---2-2-2---2-2-----2-2--||

    P.M...................|     |.|    |.............|
e-|---------------------------------------------------
B-|---------------------------------------------------
G-|---------------------------------------------------
D-|---------------------------------------------------
A-|---------------------------------------------------
E-|-0---0-0-0---0-0-0---0-0-7---0-0-6---0-0-0---0-0-0-

 P.M     |.|     |.................|     |.|
---------------------------------------------
---------------------------------------------
---------------------------------------------
---------------------------------------------
---------------------------------------------
-0-0-7---0-0-6---0-0-0---0-0-0---0-0-7---0-0-

 P.M...................|    |.|      |............|
---------------------------------------------------
---------------------------------------------------
---------------------------------------------------
---------------------------------------------------
-------------------------4-------3-----------------
-2---2-2-2---2-2-2---2-2-----2-2-----2-2-2---2-2-2-

 P.M     |.|     |.................|     |.|
---------------------------------------------   
---------------------------------------------
---------------------------------------------
---------------------------------------------
-----4-------3-----------------------4-------
-2-2-----2-2-----2-2-2---2-2-2---2-2-----2-2-

 P.M...................|     |.|     |...........|
---------------------------------------------------
---------------------------------------------------
---------------------------------------------------
---------------------------------------------------
-0---0-0-0---0-0-0---0-0-7---0-0-6---0-0-0---0-0-0-
---------------------------------------------------

 P.M     |.|     |..................|
-------------------------------------
-------------------------------------
-------------------------------------
-----7-------6-----------------------
-0-0-----0-0-----0-0-0---0-0-0---0-0-
-------------------------------------

   |   |   |   |   |        |.............|     |.|
------------------------------------------------------
------------------------------------------------------
---------------------8--------------------------------
---------7-0-6-------8--------------------------------
-7-0-6-0-------0-7-0-6------0---0-0-0---0-0-7---0-0-6-
------------------------------------------------------

 P.M...............|     |.|     |.................|
-----------------------------------------------------
-----------------------------------------------------
-----------------------------------------------------
-----------------------------------------------------
-0-0-0---0-0-0---0-0-7---0-0-6---0-0-0---0-0-0---0-0-
-----------------------------------------------------

   |   |   |   |   |     |........|
-------------------------------------|
-------------------------------------|
---------------------9---------------|
---------7-0-6-------9---9-9-9-9-9-9-|
-7-0-6-0-------0-7-0-7---9-9-9-9-9-9-|
-------------------------7-7-7-7-7-7-|
That was the solo stuff

Riff 7:
      P.M   |   |.|   |     |......|
e-|---------------------------------|
B-|---------------------------------|
G-|---------------------------------|
D-|-5-----7---9-----5---7-9---------|
A-|-7-----5---7-----7---5-7---------|
E-|---0-0---0---0-0---0-----0-0-0-0-|

Riff 9:
              P.M..|       |......|
e-|-------------------------------------|
B-|-8---7h8p7---------------------------|
G-|-9---7h9p7-7--6-4-4-6-4----------4h6-|
D-|-9---7h9p7-9--7-5-5h7p5-7--5-4-7-5h7-|
A-|-----------10-9-7-7h9p7-9--7-5-9-7h9-|
E-|------------------------10-8-7-10----|

Add 7
e-|----------------------|
B-|----------------------|
G-|-3---3------3---3---3-|
D-|-3---3------3---3---3-|
A-|-1---1------1---1---1-|
E-|----------------------|


Chorus 2:
                   P.M                   P.M
e-|------------------------------------------------------
B-|------------------------------------------------------
G-|------------------------------4-----------------------
D-|-2------4------5-6-7-8-2------4------5-6-7-8-2------5-
A-|-2------4------5-6-7-8-2------2------5-6-7-8-2------5-
E-|-0------2------3-4-5-6-0-------------3-4-5-6-0------3-
         
             P.M                   |.....|
----------------------------------------------------
----------------------------------------------------
--------------------9------7--------------9------7--
-----4------5-6-7-8-9------7------5-6-7-8-9------7--
-----4------5-6-7-8-7------5------5-6-7-8-7------5--
-----2------3-4-5-6-0-------------3-4-5-6-0---------

  P.M...|  |............|
-------------------------|
-------------------------|
---------5-6-7-8---------|
-5-6-7-8-5-6-7-8-5-6-7-8-|
-5-6-7-8-3-4-5-6-5-6-7-8-|
-3-4-5-6---------3-4-5-6-|


Riff 8:
      P.M.|     |.|     |             |-|    |.|    |
e-|------------------------------------------------------
B-|------------------------------------------------------
G-|---------3-------3-----3-3---3---3-----3------3-------
D-|-2-------3-------3-----3-3---3---3-----3------3----4--
A-|-2-------1-------1---1-1-1---1---1-----1------1----4--
E-|-0-0-0-0-----0-0-------------------0-0----0-0----0-2--

 |..|
--------|
--------|
--------|
-----3\-|
-----3\-|
-0-0-1\-|

Riff 9:
      P.M...................|
e-|---------------------------------|
B-|---------------------------------|
G-|---------------------------------|
D-|-2-------------------------3-3-3-|
A-|-2-------------------------1-1-1-|
E-|-0-0-0-0-0-0-0-0-0-0-0-0-0-------|

End:

e-|-----------------|
B-|-----------------|
G-|-9---------------|
D-|-9------------\2-|
A-|-7------------\2-|
E-|-0------------\0-|

11.AND JUSTICE FOR ALL

Intro: (clean)
|----------------------------------------------|
|----------------------------------------------|
|.---------------------------------------------|
|.-6-7-9---7-6h7p6-4-5-5-4-7-4-2-3-5---3-2h3p2-|
|--7-----7---------5-----5---5-3-----3---------|
|--0-------------------------------------------|

 (x 5)
|----------------------------|
|----------------------------| 
|-----------------------2---.|     
|-0-2-2-0-2-0-0-2-2-0-2---3-.| 
|-2-----2---2-1-----1-----1--| 
|----------------------------|

Solo
|-------------------------------|
|-------------------------------|
|---------9---------7--------5--|
|---6/-7--9----4/-5-7---2/-3-5--|
|--7----------5--------3--------|
|-0----------0--------0---------|

Riff 1:
|------------------------------|--------------------------|
|-.----------------------------|--------------------------|
|-3----.-.----.-.-.----.-.-.-.-|-5-3-2---3-2-----2--------|
|-3----8-7----8-7-6----8-7-6-5-|-5-3-2-5-3-2-5-3-2-5-3-2--|
|-1----8-7----8-7-6----8-7-6-5-|-------5-----5-3---5-3-2--|
|------6-5----6-5-4----6-5-4-3-|--------------------------|

|---------------------------------|
|---------------------------------|
|--2------------------------------|
|--2--5--3--2----5-3-2---2--------|
|-----5--3--2----5-3-2-5-2-5-3-2--|
|----------------------5---5-3-2--|

 Riff 2                                                         (x 4)
|--------------------------------|-----------------------------------|
|--------------------------------|-----------------------------------|
|--------------------------------|.---------------------------------.|
|-2------------------------(2)---|.-(2)-------------------------(2)-.|
|-2------------------------(2)---|--(2)-------------------------(2)--|
|-0------------------------(0)---|--(0)-------------------------(0)--|

 Riff 3: (x 4)
|------------------------------------------------|
|------------------------------------------------|
|-.-.----.-.------------------.-.----------------|
|-8-8-7--8-8-7---------------8-8-7---------------|
|-8-8-7--8-8-7----5h7-7-5----8-8-7----5h7-7-5----|
|-6-6-5--6-6-5--0---------7--6-6-5--0---------7--|

 Riff 4:
|-------------------------|-----------|-----------|-----------|
|-------------------------|-----------|-----------|-----------|
|-.-.----.-.--------------|-2---------|-----------|-2---------|
|-8-8-7--8-8-7--2---------|-2---------|-2---------|-2---------|
|-8-8-7--8-8-7--2---------|-0---------|-2---------|-0---------|
|-6-6-5--6-6-5--0---------|-----------|-0---------|-----------|

Riff 3 (x 2)

 Riff 5:
|-------------------------------------------------|
|-------------------------------------------------|
|-.-.----.-.------.----.--------------.----.------|
|-8-8-7--5-5-4----2--x-2-2-------3----2--x-2--2---|
|-8-8-7--5-5-4--.-2--x-2-2---.-.-3--.-2--x-2--2---|
|-6-6-5--3-3-2--0-0--x-0-0---0-0-1--0-0--x-0--0---|

|---------------------------------------------------------------|
|---------------------------------------------------------------|
|-.-.----.-.------.----.--------------.----.------.-.----.-.----|
|-8-8-7--8-8-7----2--x-2-2-------3----2--x-2--2---8-8-7--8-8-8\-|
|-8-8-7--8-8-7--.-2--x-2-2---.-.-3--.-2--x-2--2---8-8-7--8-8-8\-|
|-6-6-5--6-6-5--0-0--x-0-0---0-0-1--0-0--x-0--0---6-6-5--6-6-6\-|

Verse 1
=======

 Riff 6: (x 4)
|-------------------------------------------------|
|-------------------------------------------------|
|--------.-------------------.------.-.----.-.----|
|---2--x-2-2-------3----2--x-2--2---8-8-7--8-8-7--|
|-.-2--x-2-2---.-.-3--.-2--x-2--2---8-8-7--8-8-7--|
|-0-0--x-0-0---0-0-1--0-0--x-0--0---6-6-5--6-6-5--|

 Fill 1: ??
|-----------------------------|
|-----------------------------|
|-----------------------------|
|-----------------------------|
|-----------------------------|
|-----------------------------|

 Riff 7:                  (x 3)
|-------------------------------|------------------------------------|
|-------------------------------|------------------------------------|
|.-----------------------------.|--------------0h5h7-----------------|
|.-3-------------4\3---4/5-4/5-.|-3-----------------0h5h7------------|
|--3-------------4\3---4/5-4/5--|-3----------------------0h5h7-0h2h3-|
|--1-1-1-1-1-1-1-2\1-0-2/3-2/3--|-1-1-1-1-1-1-1----------------------|

                          (x 3)
|-------------------------------|------------------------------------|
|-------------------------------|------------------------------------|
|.-----------------------------.|--------------0h5h7-----------------|
|.-3-------------4\3---4/5-4/5-.|-3-----------------0h5h7------------|
|--3-------------4\3---4/5-4/5--|-3----------------------0h5h7-0h2h3-|
|--1-1-1-1-1-1-1-2\1-0-2/3-2/3--|-1-1-1-1-1-1-1----------------------|

|-------------------------------------------------------|
|-------------------------------------------------------|
|-0h5h7-------------------------------------------------|
|------0h5h7------------4-2--------------4\3---4/5-4/5--|
|-----------0h5h7-0h2h3-4-2--------------4\3---4/5-4/5--|
|-----------------------2-0--0-0-0-0-0-0-2\1-0-2/3-2/3--|

Chorus
======

 Riff 8:
|-------------------------------------------------|
|-------------------------------------------------|
|--2----4----5------------------------------------|
|--2----4----5----4-2--------------4\3---4/5-4/5--|
|--0----2----3----4-2--------------4\3---4/5-4/5--|
|-----------------2-0--0-0-0-0-0-0-2\1-0-2/3-2/3--|

|------------------------------------------|-------------------------|
|------------------------------------------|-------------------------|
|-2----4-----------------------------------|-2----4----0----5--------|
|-2----4----4-2--------------4\3---4/5-4/5-|-2----4----0----5----2---|
|-0----2----4-2--------------4\3---4/5-4/5-|-0----2---------3----2---|
|-----------2-0--0-0-0-0-0-0-2\1-0-2/3-2/3-|-----------3---------0---|

Riff 3 (x 2)
Riff 5
Verse
Chorus

Riff 3 (x 2)
Riff 1
Riff 2

Solo
====

Riff 7
Riff 6 (x ?)

Fill 2:
|------------------------------------------|
|------------------------------------------|
|------------------------------------------|
|------------------------------------------|
|------------------------------------------|
|------------------------------------------|

Riff 6 (x 3)
|--------------------------------------------------------------------|
|--------------------------------------------------------------------|
|--------------------------------------------------------------------|
|-8-8-7--8-8-7--7-7-6--7-7-6--6-6-5--6-6-5--5-5-4--5-5-4--3-4-4-4-4--|
|-8-8-7--8-8-7--7-7-6--7-7-6--6-6-5--6-6-5--5-5-4--5-5-4--3-4-4-4-4--|
|-6-6-5--6-6-5--5-5-4--5-5-4--4-4-3--4-4-3--3-3-2--3-3-2--1-2-2-2-2--|

Intro (x 5) w/distortion
                                                                (x 3)
|--------------------------------------------------|-----------------|
|--------------------------------------------------|-----------------|
|------.-.---.-----.-.---.-----.-.---.-----.-.---.-|.-----.-.---.---.|
|--6---6-6-6-6-4---4-4-4-4-2---2-2-2-2-0---0-0-0-0-|.-0---0-0-0-0---.|
|--7---7-7-7-7-5---5-5-5-5-3---3-3-3-3-2---2-2-2-2-|--1---1-1-1-1----|
|--------------------------------------------------|-----------------|

                                            (x 2)
|--------------------|---------------------------|
|--------------------|---------------------------|
|--------------------|.-------------------------.|
|--2------------(2)--|.-(2)-----------------(2)-.|
|--2------------(2)--|--(2)-----------------(2)--|
|--0------------(0)--|--(0)-----------------(0)--|

Riff 3 (x 2)

 Fill 3:
|--------------|
|--------------|
|-.-.----.-.---|
|-8-8-7--2-2-3-|
|-8-8-7--2-2-3-|
|-6-6-5--0-0-1-|

Verse
Chorus
Riff 4 
Riff 8 
Riff 4

|---------|---------|---------|---------|---------|
|---------|---------|---------|---------|---------|
|-7-------|-5-------|---------|---------|-.-.-.---|
|-7-------|-5-------|-7-------|-5-------|-5-4-2---|
|-5-------|-3-------|-7-------|-5-------|-5-4-2---|
|---------|---------|-5-------|-3-------|-3-2-0---|

|---------|---------|---------|---------|
|---------|---------|---------|---------|
|---------|-5-------|---------|-.-.-.---|
|-5-------|-5-------|-7-------|-5-4-2---|
|-5-------|-3-------|-7-------|-5-4-2---|
|-3-------|---------|-5-------|-3-2-0---|

|---------|---------|---------|---------|
|---------|---------|---------|---------|
|---------|-.-.-.---|---------|-.-.-.---|
|-5-------|-5-4-2---|---------|-5-4-2---|
|-5-------|-5-4-2---|---------|-5-4-2---|
|-3-------|-3-2-0---|---------|-3-2-0---|
comments
print report bad tab
4 comments total. Showing first comments.
0 reply
monkey_xxx2003 wrote on March 5 2005, 12:00 am

dude, have you even heard live *** binge and purge? you did the regular songs alright but you missed out on a bunch of stuff like the solos, and the riffs between songs and different ways of playing them. come on, you tabbed all the album versions of these songs. they are good i admit but its not live ***, its the regular versions. ill give you three stars though K?

0 reply
monkey_xxx2003 wrote on March 5 2005, 12:00 am

wait a second...............

0 reply
monkey_xxx2003 wrote on March 5 2005, 12:00 am

Andrew Zara, you are the one who commented my tab. I did the Motorbreath chords (version one(is there still only one version of chords there?(i havent checked))) any way, thanx for your comment and vote but did you notice that i put a notice that said some of these may be notes? they arent all in chords man> READ THE TAB YOU ***!!!!!!!!!!!!!!!!!


no, im just kidding but i did put that notice there.
i just got registered now and its a sh*tload of fun

YEEEEEEEEEEEEEEEEEEEEHAAAAAAAAAAAAAAA!!!!!!!!!!!!!!

I want to post or [tab]
guest
You may want to rate the tab now too:
select rating
Please do not post tabs as comments. Select "correction" instead!