Oops, an error
Loading. Please wait.

Live Shit Binge And Purge Mexico City Disc 2 Bass Tab

1,758 views 9 this week
no commentswrite comment
1 2 3 4 5
worth learning
x 2
Autoscroll
+/-
esc
set tempo
stop
Hey! There's an official Ultimate Guitar app which is ideal
for learning songs when you're away from computer. Get the app
WARNING: You are trying to view
                                    content from Ultimate-Guitar.com
                                    in an unauthorized application,
                                    which is prohibited.

                                    Please use an official Ultimate
                                    Guitar Tabs application for iPhone,
                                    iPad or Android to access legitimate
                                    chords, guitar, bass, and drum tabs
                                    from Ultimate-Guitar.com database.

                                    Type "ultimate guitar tabs" in Apple
                                    App Store's or Android Market's
                                    search to find the application.
Metallica
Live shit binge and purge, mexico city
Disc 2

Through the never

188 bmp
(4/4)

Intro (guitar)
    (12)
||---------|----------||
||----r----|----------||
||---------|----------||
||---------|--------3-||

/--Bass fig.1--------
||------------------|-----------------|---------|---------------|
||o-----------------|-----------------|----%----|---------------|
||o-----4-------3---|-----4-------3---|---------|-----4---------|
||--0-2---2-0-2---2-|-0-2---2-0-2---2-|---------|-0-2---2-0-2-3-|

|-----------------|-----------------|-------|
|-----------------|-----------------|---%---|
|-----4-------3---|-----4-------3---|-------|
|-0-2---2-0-2---2-|-0-2---2-0-2---2-|-------|
 ______________
|1.
|-------------||
|------------o||
|------------o||
|-0-0-------3-||
 ______________
|2.
|--------|--------||
|--------|----r---||
|--------|--------||
|-0-0----|--------||


(Half time feel)
1st, 2nd verses
||-----------------|-----------------|----------------|-----------------|
||-----------------|-----------------|----------------|-------------0-2-|
||-----------------|-----------------|----------------|-0-1-0-----------|
||-0---0-0-0-0-0-0-|-0-0-0-0-0-0-0-0-|-0-5-----0-6----|-------3-1-0-----|

|-----------------|-----------------|-----------------|-----------------|
|-3-2-------------|-----------------|-----------------|-------------0-2-|
|-----------------|-----------------|-----------------|-0-1-0-----------|
|-----0-0-0-0-0-0-|-0-0-0-0-0-0-0-0-|-0-5------0-6----|-------3-1-0-----|

|-----------------|-----------------|-----------------|-----------------|
|-3-2-------------|-----------------|-----------------|-----------------|
|-----------------|---------7-5-----|-----------------|-----------5-7---|
|-----0-0-0-0-0-0-|-0-0-5-7-----7-5-|-0-0-0-0-0-0-0-0-|-0-0-0-5-7-----0-|

|-----------------|-----------------|-----------------|-----------------|
|-----------------|-----------------|-----------------|-----------------|
|-----------------|-----------5-7---|-----------------|-----------------|
|-0-0-0-0-0-0-0-0-|-0-0-0-5-7-----0-|-0-5------0-6----|-0-0-0-0-0-0-0-0-|

|-----------------|-----------------|-----------------|-----------------|
|-----------------|-----------------|--------%--------|-----------------|
|---------7-5-----|-----------------|-----------------|-----------------|
|-0-0-0-0-----7-5-|-3-3-3-3-3-3-3-3-|-----------------|-2-2-2-2-2-2-2-2-|

|-----------------|-----------------|-----------------|
|-----------------|-----------------|-------------0-2-|
|-----------------|-----------------|-0-1-0-----------|
|-2-2-2-2-2-2-2-2-|-0-5------0-6----|-------3-1-0-----|

Play Bass. fig.1 (4 times)

Chorus
  Bass fig.2                             (end bass fig.2)---
||-----------------|-------|-------|-------|-----------------|--------------|
||-----------------|---%---|---%---|---%---|-----------------|--------------|
||-----------------|-------|-------|-------|-----------------|--------------|
||-0-2-2-2-0-2-2-2-|-------|-------|-------|-0-2-----0-2-----|-0-2-----0-2--|
    H       H

|----------||
|----------||
|----------||
|-----3----||

||------------------|-----------------|---------|
||o-----------------|-----------------|----%----|
||o-----4-------3---|-----4-------3---|---------|
||--0-2---2-0-2---2-|-0-2---2-0-2---2-|---------|
 _______________
|1.
|---------------||
|--------------o||
|-----4--------o||
|-0-2---2-0-2-3-||
 _______________
|2.
|------------|-----------------||
|------------|-------------0-2-||
|------------|-0-1-0-----------||
|-0-0--------|-------3-1-0-----||

|--------------|-2-3-2-0---------|--------------||
|--------------|---------3-2-0---|--------------||
|--------------|-----------------|--------------||
|-0-2-----0-2--|-----------------|-0-1--2--3--4-||


Guitar solo

||------------------|-------|-------|-----------------|
||o-0-2-2-2-0-2-2-2-|---%---|---%---|-0-2-2-2-0-2-3---|
||o-----------------|-------|-------|-----------------|
||------------------|-------|-------|-----------------|

|-----------------|-------|-------|
|-----------------|---%---|---%---|
|-0-2-2-2-0-2-2-2-|-------|-------|
|-----------------|-------|-------|
 ____________________
|1.
|------------------||
|-----------------o||
|-0-0---0---3---3-o||
|------------------||
 ___________________
|2.
|-----------------||
|-----------------||
|-----------3---3-||
|-0-0---0---------||

|-----------------|-------|-------|-----------------------||
|-----------------|---%---|---%---|-----------------------||
|-----------------|-------|-------|/12-12-12-12-12-12-3---||
|-3-5-5-5-3-5-5-5-|-------|-------|-----------------------||

|-----------------|-------|-------|-------|-------------|-------------||
|-----------------|---%---|---%---|---%---|-------------|-------------||
|-----------------|-------|-------|-------|-------------|-------------||
|-0-2-2-2-0-2-2-2-|-------|-------|-------|-0-2----0-2--|-0-2----0-2--||

|-------|-------|-------|--------|
|---r---|---r---|-19----|-(7)----|
|-------|-------|-------|--------|
|-------|-------|-------|--------|

  Bass fig.3------------------------- (play 16 times)
||------------------|-----------------||
||o-----------------|----------------o||
||o-----------------|-1--------------o||
||--0---0-0-3---0-0-|-----3---3---3---||

|----------|----------|----------|-----------||
|----------|----------|----------|-----------||
|----------|----------|----------|-----------||
|-0--------|-(0)------|-(0)------|-(0)-----3-||


Play bass fig.1 (4 times)

||-----------------|-------|--------------|-------|--------||
||-----------------|---%---|--------------|---%---|--------||
||-----------------|-------|--------------|-------|--------||
||-0-2-2-2-0-2-2-2-|-------|-0-2-----0-2--|-------|------3-||

||-----------------|-----------------|-------|-----------||
||-----------------|-----------------|---%---|-----------||
||-----4-------3---|-----4-------3---|-------|-----------||
||-0-2---2-0-2---2-|-0-2---2-0-2---2-|-------|-3-3-------||

For Whom the Bell Tolls

beat 120

Intro:
4/4                              
:--------------------------------|--------------------------------|
:--------------------------------|--------------------------------|
:--------------------------------|--------------------------------|
:--------------------------------|-----------------2-2-----2-2----|

There are two basses, the first plays the higher note and starting E.
The second plays ending F#.

With distortion and wah wah
|--------19-18-17-16-------19p16-|--------19----------------------|
|*-------------------------------|17--16-------------------------*|x 8
|*-------------------------------|------------17--16--------(16)*|
|-0------------------------------|(0)--------------2--2----2--2---|

Normal Bass
|--------------------------------|--------------------------------|
|*-------------------------------|--------------------------------|
|*-------------------------------|-----------------------------0--|
|-0---3---2---1---0---3---2---1--|-0---3---2---1---0---2---3------|

|--------------------------------|--------------------------------|
|--------------------------------|-------------------------------*|x 4
|--------------------------------|-----------------------------2-*|
|-0---3---2---1---0---3---2---1--|-0---3---2---1---0---2---3------|

|--------------------------------|--------------------------------|
|--------------------------------|--------------------------------|
|--------------------------------|--------------------------------|
|-0------------------------------|(0)-----------------------------|

|Fig.1
|--------------------------------|--------------------------------|
|*----------tripl-----------tripl|-----------tripl-----------tripl|
|*>------------------------------|--------------------------------|
|-0---------0-0-0-0---------0-0-0|-0---------0-0-0-0---------0-0-0|

|--------------------------------|--------------------------------|
|-----------tripl-----------tripl|--------------------------------|
|->------------------------------|->------------------------------|
|-3---------3-3-3-3---------3-3-3|-3-------------------------12--|

|--------------------------------|--------------------------------|
|-----------tripl-----------tripl|-----------tripl-----------tripl|
|->------------------------------|--------------------------------|
|-0---------0-0-0-0---------0-0-0|-0---------0-0-0-0---------0-0-0|

                                  1.                           (1)
|--------------------------------|-tripl-----------tripl----------|
|-----------tripl-----------tripl|------->--------------->-------*|
|->------------------------------|-3-3-3-3---------0-0-0-0-------*|
|-3---------3-3-3-3---------3-3-3|--------------------------------|

                                  2.                  (2) end Fig.1
                                 |---tripl-----------tripl--------|
                                 |->------------------------------|
                                 |-3-3-3-3---------0-0-0-12------|
                                 |--------------------------------|

|Fig.2
|--------------------------------|--------------------------------|
|*tripl-----------tripl----------|-tripl--------------------------|
|*------>--------------->--------|------->--------->------->------|
|-0-0-0-3---------0-0-0-5--------|-0-0-0-3-------0-6-------2------|

                                                         end Fig.2|
|--------------------------------|--------------------------------|
|-tripl-----------tripl----------|-tripl--tripl------------------*|
|------->--------------->--------|-------->-------->------>----->*|
|-0-0-0-3---------0-0-0-5--------|-0-0-0--3-0-0----6------2-----1-|

Verse 1, 2:

   Repeat Fig.1

End Verse

Chorus:

   Repeat Fig.2 x 2  (To Coda at the end of second chorus)

End Chorus

Interlude (between first chorus and second verse):
:--------------------------------|--------------------------------|
:*----------tripl-----------tripl|-----------tripl-----------tripl|
:*>------------------------------|--------------------------------|
:-0---------0-0-0-0---------0-0-0|-0---------0-0-0-0---------0-0-0|

|--------------------------------|--------------------------------|
|-----------tripl----------------|-----------tripl-----------tripl|
|->------------------------------|->------------------------------|
|-0---------0-0-0-0---------/12-|-3---------3-3-3-3---------3-3-3|

                                  1.                           (1)
|--------------------------------|-----------tripl----------------|
|-----------tripl-----------tripl|->-----------------------------*|
|->------------------------------|-2---------2-2-2-2----------/14*|
|-0---------0-0-0-0---------0-0-0|--------------------------------|

                                  2.                           (2)
                                 |-----------tripl----------------:
                                 |->------------------------------:
                                 |-2---------2-2-2-2-----------2--:
                                 |--------------------------------:

Coda:
|--------------------------------|--------------------------------|
|*-------------------------------|--------------------------------|
|*-------------------------------|--------------------------------|
|-0---------------2---2----------|-0---------------2---2----------|

2/4
|--------------------------------:
|-------------------------------*:
|-------------------------------*:
|-3---3--------------------------: End (fade out)

Fade to Black

Time 4/4
beat 116	

Intro:
:----|----|----|-----------------|-----------------|----|----|
:----|----|----|-----------------|-----------------|----|----|
:----|----|----|-----------------|-----------------|----|----|
:----|----|----|---------------5-|-7---------------|----|----|

|----------------|-----------------|----------------|-----------------|
|----------------|-----------------|----------------|-----------------|
|----------------|-----------------|--------------5-|-----------------|
|--------------5-|-7---------------|----------------|-7---------------|

|-----------------|-----------------|----|----|
|-----------------|-----------------|----|----|
|-----------------|-----------------|----|----|
|---------------5-|-7---------------|----|----|

|-----------------|-----------------|----|----|----|
|-----------------|-----------------|----|----|----|
|-----------------|-----------------|----|----|----|
|---------------5-|-7---------------|----|----|----|

|--------------------------------|--------------------------------|
|--------------------------------|--------------------------------|
|--------------------------------|-2-----------2------------------|
|-1-----------1---4-----------4--|-----------------0--------------|

|--------------------------------|----|----|
|--------------------------------|----|----|
|-0------------------------------|----|----|
|--------------------------------|----|----|

|--------------------------------|
|--------------------------------|
|--------------------------------|
|-----------------3-----/----7---|

|--------------------------------|----|----|----|
|--------------------------------|----|----|----|
|-0------------------------------|----|----|----|
|--------------------------------|----|----|----|

(Drum Enter)
|--------------------------------|--------------------------------|
|--------------------------------|--------------------------------|
|-0-----------------------0---2--|-3-----------------------3---2--|
|--------------------------------|--------------------------------|

|--------------------------------|--------------------------------|
|--------------------------------|--------------------------------|
|-------------------------3---2--|-----------------2---/---7------|
|-3------------------------------|-0------------------------------|

|--------------------------------|--------------------------------|
|--------------------------------|--------------------------------|
|-0-----------------------0---2--|-3---------------------------5--|
|--------------------------------|------------------------5/7-----|

|--------------------------------|--------------------------------:
|--------------------------------|--------------------------------:
|--------------------------------|-----------------7--------------:
|-3-----------------------5---3--|-0---------------------------0--:

Verse 1:
:--------------------------------|--------------------------------|
:--------------------------------|--------------------------------|
:-0-----------------------0---2--|-3-----------3---3-----2h3---2--|
:--------------------------------|--------------------------------|

|--------------------------------|--------------------------------|
|--------------------------------|--------------------------------|
|--------------------------------|---------------------5---7------|
|-3-----------------------5---3--|-0-------0---0-/-7--------------|

|--------------------------------|--------------------------------|
|--------------------------------|--------------------------------|
|-0-----------------------0---2--|-3---------------------------5--|
|--------------------------------|------------------------5/7-----|

|--------------------------------|--------------------------------|
|--------------------------------|--------------------------------|
|--------------------------------|--------------------------------|
|-3-----------------------5---3--|-0---------------3-----/----7---|

|--------------------------------|--------------------------------|
|--------------------------------|--------------------------------|
|-0-----------------------0---2--|-3-----------3---3-----2h3---2--|
|--------------------------------|--------------------------------|

|--------------------------------|--------------------------------|
|--------------------------------|--------------------------------|
|-------------------------3---2--|-----------------7-------7------|
|-3------------------------------|-0------------------------------|

|--------------------------------|--------------------------------|
|--------------------------------|-----------------------5h7p5----|
|-0-----------------------0---2--|-3-----------------/-7-------7--|
|--------------------------------|--------------------------------|

|--------------------------------|--------------------------------:
|-5-----------------------5h7-5--|--------------------------------:
|---------------------5h7--------|-7---7---7---7---7---7---7---7--:
|--------------------------------|--------------------------------:

Chorus:
|Fig.1
:--------------------------------|--------------------------------|
:*-------------------------------|--------------------------------|
:*----------------------------5--|-3-----------3---3-----------5--|
:-5-----------5---5---0-0-3------|---------------------0-0-3------|

|--------------------------------|--------------------------------|
|--------------------------------|--------------------------------|
|-------------------------5------|-7------------------------------|
|-5-----------5---5--------------|-------------0---0---0-0-8---7--|

|--------------------------------|--------------------------------|
|--------------------------------|--------------------------------|
|-----------------------------5--|-3-----------3---3-----------5--|
|-5-----------5---5---0-0-3------|---------------------0-0-3------|

                                                         end Fig.1|
|--------------------------------|--------------------------------:
|--------------------------------|-------------------------------*:
|--------------------------------|-------------------------------*:
|-5-----------5---5-------3---2--|-0------------------------------:

Interlude:
:--------------------------------|--------------------------------|
:--------------------------------|--------------------------------|
:-0-----------------------0---2--|-3---------------------------5--|
:--------------------------------|------------------------5/7-----|

|--------------------------------|--------------------------------|
|--------------------------------|--------------------------------|
|--------------------------------|-----------------------/-7-----|
|-3-----------------------5---3--|-0------------------------------|

|--------------------------------|--------------------------------|
|--------------------------------|--------------------------------|
|-0-----------------------0---2--|-3-------3-------3--------0-3-5-|
|--------------------------------|--------------------------------|

|--------------------------------|--------------------------------:
|--------------------------------|--------------------------------:
|--------------------------------|--------------------------------:
|-3-------3-------3-------5---3--|-0---------------------/-7------:

Verse 2:
:--------------------------------|--------------------------------|
:--------------------------------|--------------------------------|
:-0-----------0---0-------0-3h5--|-3-----------3---3-------5------|
:--------------------------------|-----------------------------7--|

|--------------------------------|--------------------------------|
|--------------------------------|--------------------------------|
|--------------------------------|-------------------------2---/--|
|-3---------------5-----------3--|-0-----------0---0--------------|

|--------------------------------|--------------------------------|
|--------------------------------|--------------------------------|
|-0-----------------------0---2--|-3-----------------------3---5--|
|--------------------------------|--------------------------------|

|--------------------------------|--------------------------------|
|--------------------------------|--------------------------------|
|--------------------------------|--------------------------------|
|-3-------3-----------3---5---3--|-0---------------0-------5/7----|

|--------------------------------|--------------------------------|
|--------------------------------|--------------------------------|
|-0---------------0-------0---2--|-3-----------3---3-----2h3---2--|
|--------------------------------|--------------------------------|

|--------------------------------|--------------------------------|
|--------------------------------|--------------------------------|
|--------------------------------|---------7-------7--------------|
|-3-----------3---3-------5---3--|-0-----------0-----------5/7----|

|--------------------------------|--------------------------------|
|--------------------------------|------------------------5h7p5---|
|-0---------------0-------0---2--|-3-----------3---3---5h7-----7--|
|--------------------------------|--------------------------------|

|--------------------------------|--------------------------------:
|-5----------------------5h7p5---|--------------------------------:
|--------------------------------|-7---7---7---7---7---7---7---7--:
|--------------------------------|--------------------------------:

Chorus:

Repeat Fig.1 (x2) then

|--------------------------------|--------------------------------|
|--------------------------------|--------------------------------|
|--------------------------------|--------------------------------|
|(0)-----------------------------|(0)-----------------------------|

|--------------------------------|--------------------------------|
|--------------------------------|--------------------------------|
|--------------------------------|--------------------------------|
|(0)-----------------------------|-0------------------------------|

|--------------------------------|--------------------------------|
|--------------------------------|-----------------------------9-9|
|--------------------------------|--------------------------------|
|(0)-----------------------------|(0)-----------------------------|

|--------------------------------:
|-9---7-7-7---5-5-5---4-4-4---5--:
|--------------------------------:
|--------------------------------:

Bridge:
|Fig. 2
:--------------------------------|--------------------------------|
:--------------------------------|-----------------5---4/12-------|
:-5---7-----------7--------------|-5---7--------------------------|
:---------0---0-----------0---0--|---------0---0------------------|

|--------------------------------|-----------------------------4--|
|-----------------------------9-9|-9---7-7-7---5-5-5---4-4-4------|
|-----5-------5---5--------------|--------------------------------|
|--------------------------------|--------------------------------|

|--------------------------------|--------------------------------|
|--------------------------------|-----------------5---4/12-------|
|-5---7-----------7--------------|-5---7--------------------------|
|---------0---0-----------0---0--|---------0---0------------------|
   
                                                         end Fig.2| 
|--------------------------------|--------------------------------|
|-----------------------------9-9|-9---7-7-7---5-5-5---4-4-4---5--|
|-----5-------5---5--------------|--------------------------------|
|--------------------------------|--------------------------------|

Repeat Fig.2 x 2

|--------------------------------|--------------------------------|
|--------------------------------|--------------------------------|
|-----------------7--------------|--------------------------------|
|-0---0---0---0------------------|-0---0---0---0---3---2----------|

|--------------------------------|-----------------------------4--|
|-----------------------------9-9|-9---7-7-7---5-5-5---4-4-4------|
|-----------------5--------------|--------------------------------|
|-0---0---0---0------------------|--------------------------------|

|--------------------------------|--------------------------------|
|--------------------------------|--------------------------------|
|-----------------7--------------|--------------------------------|
|-0---0---0---0------------------|-0---0---0---0---3---2----------|

|--------------------------------|--------------------------------|
|-----------------------------9-9|-9---7-7-7---5-5-5---4-4-4---5--|
|-----------------5--------------|--------------------------------|
|-0---0---0---0------------------|--------------------------------|

|--------------------------------|--------------------------------|
|*-------------------------------|--------------------------------|
|*2-----------2-----------2------|(2)--2-----------4---2---0------|
|--------------------------------|-----------------------------2--|

|--------------------------------|--------------------------------|
|--------------------------------|--------------------------------|
|-0-----------0-----------0------|(0)--0-----------0---0---0---0--|
|--------------------------------|--------------------------------|

|--------------------------------|--------------------------------|
|--------------------------------|--------------------------------|
|--------------------------------|--------------------------------|
|-3-----------3-----------3---3--|(3)--3---3---3---3---3---3---3--|

|--------------------------------|--------------------------------|
|--------------------------------|-------------------------2---2-*|
|-0-----------0-----------0------|-0---0-----------0---0---------*|
|--------------------------------|--------------------------------|

|--------------------------------|--------------------------------|
|*-------------------------------|--------------------------------|
|*2-------2---2-------2---2------|-2---2-------2---4---2---0------|
|--------------------------------|-----------------------------2--|

|--------------------------------|--------------------------------|
|--------------------------------|--------------------------------|
|-0---0---0---0-----------0---0--|-0---0-------0---0---0---0---0--|
|--------------------------------|--------------------------------|

|--------------------------------|--------------------------------|
|--------------------------------|--------------------------------|
|--------------------------------|--------------------------------|
|-3---3---3---3-----------3---3--|-3---3-----------3---3---3---3--|

|--------------------------------|--------------------------------|
|--------------------------------|-------------------------2---2-*|
|-0-----------0-----------0---0--|-0---0-----------0---0---------*|
|--------------------------------|--------------------------------|

-----------------------------------------------------------------------

Master of Puppets

Intro
4/4
|----------|------------|-------------|------------|----------|--------|---------|
|----------|------------|-------------|------------|----------|--------|---------|
|----------|5---4---3---|(3)----------|------------|----------|--------|---------|
|0---------|------------|-------------|0-----------|----------|--------|-------1-|

||-------|------------|--------|---------||--------|------------|---------------|---------------|
||:------|------------|--------|--------:||--------|------------|---------------|---------------|
||-------|5---4---3---|--------|---------||--------|5---4---3---|---3-3-3-3-3-3-|3-3-3-3-3-3-3-3|
||-0-----|------------|--------|------1--||0-------|------------|---------------|---------------|

|----------------||----------|----------|----------|-----------------||
|----------------||:---------|----------|----------|----------------:||
|3-3-3-3-3-3-3-3-||----------|----------|----------|-----------------||
|----------------||-0--------|----------|----------|32-0-32-0-32-----||
                                                     S     S     S

||-----------------|----------------|----------------|----------------|
||:----------------|----------------|----------------|----------------|
||-----2-----3-----|4-----3-----2-2-|----2-----3-----|4-----3-----2---|
||-0-1---0-1---0-1-|--0-1---0-1-----|0-1---0-1---0-1-|--0-1---0-1-----|

|-----------------|----------------|----------------|-----------------||
|-----------------|----------------|----------------|----------------:||
|-----2-----3-----|4-----3-----2-2-|----2-----3-----|-----------------||
|-0-1---0-1---0-1-|--0-1---0-1-----|0-1---0-1---0-1-|32-0-32-0-32-----||
                                                      S     S     S

|-----------------|----------------|------------------||
|-----------------|----------------|------------------||
|-----------------|----------------|------------------||
|32-0-32-0-32-----|0---------------|---------------8--||

Bass riff1                                            5/8
||-----------------|----------------|----------------|-----------||
||:----------------|----------------|----------------|----------:||
||-----------------|----------------|----------------|-----------||
||-0-0-0-0-0-0-0-0-|0-3-5-0-65-3-5--|0-0-0-0-0-0-0-0-|0-3/5-3/5--|| end of riff1
                       H     S   H

1st, 2nd, 3rd Verses 
Bass riff1 X4

Bass riff2 X2                                       5/8        
|----------------|----------------|----------------|----------|
|----------------|----------------|----------------|----------|
|----------------|----------------|----------------|----------|
|2-2-2-2-2-2-2-2-|2-5/7---87-5/7--|2-2-2-2-2-2-2-2-|2-5/7-5/7-| end of riff2

Pre-chorus
|----------------||----------------|---------------|----------------|----------------|
|----------------||----------------|---------------|----------------|--------1-------|
|----------------||7-------5---7---|---------------|3-3-3-3-3---2---|3-3-3-3-----2---|
|7-7-7-7-7-7-7-7-||--0-0-0---------|0------2-3-----|----------------|----------------|

                                                    ------------------   --------------
                                                    |1.2.             | |3.           
||-----------------|---------------|----------------|-----------------||--------------|
||:----------------|---------------|----------------|--------1-------:||4-2-1---1-----|
||-7-------5---7---|---------------|3-3-3-3-3---2---|3-3-3-3-----2----||----------3-2-|
||---0-0-0---------|0------2-3-----|----------------|-----------------||--------------|

                                    Chorus           2/4      4/4
|----------------|----------------||----------------|--------|----------------|-----------------|
|----------------|----------------||----------------|--------|----------------|-----------------|
|----------------|----------------||----------------|--------|----------------|-----------------|
|0---0-----------|1---1-----------||0-----------0-0-|2-0-0-0-|3---3-3---3-3---|3-3-3-3-3-3-333--|
                                                      P
                  2/4      4/4                                                 2/4
|----------------|--------|----------------|----------------|-----------------|--------|
|----------------|--------|----------------|----------------|-----------------|--------|
|3---2-3-3-0-0-0-|2-0-0-0-|0---0-0---0-0---|(0)-------------|5----------------|5-------|
|----------------|--------|----------------|----------------|-----------3-3-3-|----0-0-|

4/4               2/4      4/4                                                 2/4
|----------------|--------|----------------|----------------|-----------------|--------|
|----------------|--------|----------------|----------------|-----------------|--------|
|3---3-3---3-3---|3-3-3---|----------------|----------------|-----------------|--------|
|----------------|--------|0---0-----------|1---1-----------|0----------0-0-0-|2-0-0-0-|
                                                                                P

 4/4                                                                  2nd time to Coda1
|----------------|----------------|----------------|----------------||3rd time to Coda2
|----------------|----------------|----------------|----------------||
|3---3-3---3-3---|3-3-2-2-0-0-----|----------------|----------------||
|----------------|------------3-3-|0---0-----------|1---1-----------||

                                                      -----------------   ------------------
                                                     |1.               | |2.
||-----------------|----------------|----------------|-----------------||-----------------|
||:----------------|----------------|----------------|----------------:||-----------------|
||-----2-----3-----|4-----3-----2-2-|----2-----3-----|4-----3-----2----||-----------------|
||-0-1---0-1---0-1-|--0-1---0-1-----|0-1---0-1---0-1-|--0-1---0-1------||32-0-32-0-32--|
                                                                          S     S     S
                   D.S al Coda1           Coda1
|-----------------|                       |----------------|----------------||
|-----------------|                       |----------------|----------------||
|-----------------|                       |----------------|----------------||
|32-0-32-0-32-----|                       |----------------|----------------||
  S     S     S

Interlude
 2/4      4/4         2/4                4/4                                              2/4
|--------|-----------|--------||--------|---------------|---------------|----------------|------|
|--------|--3 pause--|--------||--------|---------------|---------------|----------------|------|
|--------|-----------|--------||7-------|5--------------|3--------------|0-------2-------|6-----|
|--------|-----------|--------||--------|---------------|---------------|----------------|------|

Interlude riff1
             4/4                                                2/4
||---------|----------------|----------------|----------------|---------||
||:--9-9---|----------------|----------------|----------------|--------:||
||-7-----7-|5-----5-5-5---5-|3-3---333-3-0-3-|0-----0-2-220-2-|66660-6--||End of Interlude riff1
||---------|------------5---|----------------|----------------|---------||

Guitar solo1
            4/4                                                2/4
||---------|----------------|----------------|----------------|---------||
||:--9-----|----------------|----------------|----------------|--------:||
||-7---7-7-|5-----555-5-7-5-|3-3-----3-3-0-3-|0-----0-2-220-2-|66660-6--||
||---------|----------------|------33--------|----------------|---------||

Interlude riff1 X2
            
            4/4                                                2/4
||---------|----------------|----------------|----------------|---------||
||:--------|----------------|----------------|----------------|--------:||
||---------|----------------|----------------|----------------|6-6-6-6--||
||-0-0-0-0-|2-2-2-2-2-2-2-2-|3-3-3-3-3-3-3-3-|5-5-5-5-7-7-7-7-|---------||

  4/4                                                                     X6
||----------------|----------------||-----------------|-----------------||
||----------------|----------------||:----------------|----------------:||
||----------------|----------------||---------------44|--------------4--||
||0-0-0-0-0-0-0-0-|0-0-0-0-0-0-0-0-||-2-2-3-2-2-2-3---|2-2-3-2-2-2-3----||

||----------------|-----------------|----------------|----------------||
||----------------|-----------------|----------------|5-4-2-2-0-------||
||----------------|-----------------|----------------|----------4-2-0-||
||3---3---3-3-3-3-|(3)3-3---3-3-3---|2---2---2-2-2---|----------------||

Guitar solo2
Bass riff1 X4
Bass riff2 X2

|----------------||-----------------|----------------|----------------|-----------------||
|----------------||:----------------|----------------|----------------|----------------:||
|----------------||-----------------|------------2-2-|----------------|------------2----||
|7-7-7-7-7-7-7-7-||-0-0-1-0-0-1-0-0-|1-0-0-1-0-0-----|0-0-1-0-0-1-0-0-|1-0-0-1-0-0------||

                                                                      X4
|----------------|----------------|----------------|----------------||
|----------------|------------0-2-|4-5-------------|------0---------||
|----------------|------0-2-3-----|----3---------33|3-2-3---3-2-----||
|0-0-0-0-0-0-0-0-|0-2-3-----------|----------------|------------3-2-||

|----------------|----------------||-----------------|----------------|----------------|
|----------------|------0---------||:----------------|----------------|----------------|
|--------------33|3-2-3---3-2-----||-----------------|----------------|----------------|
|0---------------|------------3-2-||-0---------------|----------------|----------------|

                                    D.S. al Coda2      Coda2
|-----------------||----------------||                 ||-----------------|---------------|
|----------------:||----------------||                 ||:----------------|---------------|
|-----------------||----------------||                 ||-----------------|---------------|
|32-0-32-0-32--||32-0-32-0-32-||                 ||-0-0-0-0-0-0-0-0-|0-3-5-0-65-3-5|
  S     S     S      S     S     S                                            H     S   H  

                  5/8       x8 4/4
|----------------|-----------||----------------|----------------|----------------||
|----------------|----------:||----------------|----------------|----------------||
|----------------|-----------||----------------|----------------|----------------||
|0-0-0-0-0-0-0-0-|0-3/5-3/5--||----------------|32-0-32-0-32-|0---------------||

Seek & Destroy

140 bpm
        cresc.
|  6  |-----------------|-----------------||---------------------|
|-----|-----------------|---------7-7-7---||-o-----5h7-----5h7---|
|-----|-0-0-0-0-0-0-0-0-|-0-0-0-0-------0-||-o-0-0-----0-0-----0-|
|     |-----------------|-----------------||---------------------|
        e e e e e e e e   e e e e e e e e      e e   q e e   e e

                 4 times
|---------------5-----||---------|-------|  3  |-----------|-------------|
|-----------5-----7-o-||---------|-------|-----|-----------|-------------|
|-(0)-0-8-7---7-----o-||---R-----|----R--|-----|-R-----R---|-R-----R-----|
|---------------------||-0---12\-|-\0----|     |---0-0---0-|---0-0---0-0-|
  (e) e e e e e e e      q h q      q h.         q e e q q   q e e q e e

|-----------------|-----------------||-------------------|
|-----------------|-----------------||-o-----------------|
|---------7-7-7-7-|---------7-5-----||-o-----------------|
|-0-0-0-0---------|-0-0-0-0-----7-6-||---0-0-0-0-3-5-3-5-|
  e e e e e e e e   e e e e e e e e      e e e e e e e e

              4 times fig.1
|-------------------||-----------------|-----------------|-----------------|
|-----------------o-||-----------------|-------------5---|-----------------|
|---------7-5-----o-||-----------------|---------------7-|-----------------|
|-0-0-0-0-----7-6---||-0-0-0-0-0-0-0-0-|-0-0-0-0-7-6-----|-0-0-0-0-0-0-0-0-|
  e e e e e e e e      e e e e e e e e   e e e e e e e e   e e e e e e e e

|-----------------|-----------------|-----------------|-----------------|
|-----------------|-----------------|-------------5---|-----------------|
|-----------------|-----7-----------|---------------7-|-----7-------7---|
|-0-0-0-0-7-6-3-0-|-0-0---0-0-0-0-0-|-0-0-0-0-7-6-----|-0-0---0-0-0---0-|
  e e e e e e e e   e e e e e e e e   e e e e e e e e   e e e e e e e e

                   S
          end fig.1  Verse 1,2,3  Pre-chorus
|-----------------||            ||-----------------|----------------|
|-----------------|| play fig.1 ||-o---------------|----------5---7-|
|-----7-----------||            ||-o-3-0-0-0-3-5-3-|-3-0-0-/7---7---|
|-0-0---0-7-6-3-0-||            ||-----------------|----------------|
  e e e e e e e e                    e e e e e e q   e e e  e e e q

                |1.                  |2.
|---------------|-7-5---------------||-9-7---7---------|-----------------|
|---------------|-----7-6-5-------o-||-----9---9-8-7-5-|-----------------|
|-0-0-0-0-3-5-3-|-----------7-6-5-o-||-----------------|-7-5---5---------|
|---------------|-------------------||-----------------|-----7---7-6-5-3-|
  e e e e e e q   e e e e e e e e      e e e e e e e e   e e e e e e e e

Chorus                                           |1.
||-------------------|---------|-----------------|---------------------||
||-o---------------5-|---------|-----------------|-------------------o-||
||-o-----------------|---------|-----------------|-------5---7---7---o-||
||---3-3-3-3-3-3-3---|-2-2-1-1-|-0-0-0-0-0-0-0-0-|-0-5-7---0---0---0---||
     e e e e e s s q   q q q q   e e e e e e e e   e s s e e e e e e

|2. 3rd time fill 1  |3.        to coda I,II|4.
|-------------------||---------------------||-----------------|
|-----------------o-||-------------------o-||-----------------|
|-7-5-------------o-||-------5---7---7---o-||-----------------|
|-----7-6-5-7-6-5---||-0-5-7---0---0---0---||-0-0-0-0-3-5-3-5-|
  e e e e e e e e      e s s e e e e e e      e e e e e e e e
      fill 1
   |-----------------|
   |-----------------|
   |-7-5-------------|
   |-----7-5-6-5-7-5-|
     e e e e e e e e

|-----------------|-----------------|-----------------|-----------------|
|-----------------|-----------------|-----------------|-----------------|
|---------7-5-----|-----------------|-----------5-6-7-|-----------------|
|-0-0-0-0-----7-6-|-0-0-0-0-3-5-3-5-|-0-3-5-6-7-------|-0-0-0-0-3-5-3-5-|
  e e e e e e e e   e e e e e e e e   e e e e e e e e   e e e e e e e e

                                                D.S al coda I
|-----------------|-----------------|-----------------||
|-----------------|-----------------|-----------------||
|---------7-5-----|-----------------|---------7-5-----||
|-0-0-0-0-----7-6-|-0-0-0-0-3-5-3-5-|-0-0-0-0-----7-6-||
  e e e e e e e e   e e e e e e e e   e e e e e e e e

Coda I                          208 bpm        (guitar)
|-----------------|---------|---||------|  3  ||  7  |-----------------||
|---------------5-|---------|---||------|-----||-----|-------3-2-0-----||
|-----------------|---------|---||---R--|-----||-----|-3-2-0-------3-0-||
|-3-3-3-3-3-3-3---|-2-2-1-1-|-0-||-0----|     ||     |-----------------||
  e e e e e s s q   q q q q   w    q h.                e e e e e e e e

                                                             2 times
||-------------------|-----------------|-----|-------------------||
||-o-------7-----7---|-------7-----7---|  %  |-------3-2-0-----o-||
||-o-----0---0-0---0-|-0-0-0---0-0---0-|-----|-3-2-0-------3-0-o-||
||---3h5-------------|-----------------|-----|-------------------||
     e e e e e e e e   e e e e e e e e         e e e e e e e e

Guitar solo                                                 3 times
||-------------|---------|-----------------|-------------------||
||-o-----------|---------|-----------------|-----------------o-||
||-o-----------|---------|-----7-7-----7-7-|-----7-7-----7-7-o-||
||---3-3-3-3-3-|-2-2-1-1-|-0-0-----0-0-----|-0-0-----0-0-------||
     q q e e q   q q q q   e e e e e e e e   e e e e e e e e

|-----------|---------||-------------------|-----------------|
|-----------|---------||-o-----------------|-----------------|
|-----------|---------||-o-5h7---7-----7---|-5h7---7-----7---|
|-3-3-3-3-3-|-2-2-1-1-||-------0---0-0---0-|-----0---0-0---0-|
  q q e e q   q q q q      e e e e e e e e   e e e e e e e e

                  |1,2,3.              |4.
|-----------------|-------------------||-----------------|-----------------|
|-----------------|-----------------o-||-----------------|-----------------|
|-4h7---7-----7---|-------3-2-0-----o-||-------3-2-0-----|-------3-2-0-----|
|-----0---0-0---0-|-3-2-0-------3-0---||-3-2-0-------3-2-|-3-2-0-------3-2-|
  e e e e e e e e   e e e e e e e e      e e e e e e e e   e e e e e e e e

      Tempo I
|----||------|--------|------|--------|------|---|-----------------|
|----||---R--|-R------|---R--|-R------|---R--|-R-|-----------------|
|-0--||-0----|----0-0-|-0----|----0-0-|-0----|---|-0-0-0-0-0-0-0-0-|
|----||------|--------|------|--------|------|---|-----------------|
  l     q h.   h. e e   q h.   h. e e   q h.   w   e e e e e e e e

                                                           4 times
|-----------------||---------------------|---------------5-----||
|-----7---7-7-----||-o-----5h7-----5h7---|-----------5-----7-o-||
|-0-0---0-----0-0-||-o-0-0-----0-0-----0-|-(0)-0-8-7---7-----o-||
|-----------------||---------------------|---------------------||
  e e e e e e e e      e e   q e e   e e   (e) e e e e e e e

|---------|-----------------|-----------------|-----------------|
|---------|-----------------|-----------------|-----------------|
|---R-----|-----------------|---------7-5-----|-----------------|
|-0---12\-|-0-0-0-0-3-5-3-5-|-0-0-0-0-----7-6-|-0-0-0-0-3-5-3-5-|
  q h q     e e e e e e e e   e e e e e e e e   e e e e e e e e

|-----------------|-----------------|-----------------|-----------------|
|-----------------|-----------------|-----------------|-----------------|
|-----------5-6-7-|-----------------|---------7-5-----|-----------------|
|-0-3-5-6-7-------|-0-0-0-0-3-5-3-5-|-0-0-0-0-----7-6-|-0-0-0-0-3-5-3-5-|
  e e e e e e e e   e e e e e e e e   e e e e e e e e   e e e e e e e e

                D.S al coda II
|-------------------||
|-------------------||
|-------5---7-5-----||
|-0-5h7---7-----7-6-||
  e s s e e e e e e

Coda II
|-----------------|---------|-----------------|------------------|
|---------------5-|---------|-----------------|------------------|
|-----------------|---------|-----------------|---------------10-|
|-3-3-3-3-3-3-3---|-2-2-1-1-|-0-0-0-0-0-0-0-0-|-0-0-0-0-0-0-0----|
  e e e e e s s q   q q q q   e e e e e e e e   e e e e e e e e

|-----------------|------------------|-----------------|------------------|
|-----------------|------------------|-----------------|------------------|
|-9-----9-8-----8-|-7-------------10-|-9-----9-5-----5-|-7---5---7-7-7-10-|
|---0-0-----0-0---|---0-0-0-0-0-0----|---0-0-----0-0---|---0---0----------|
  e e e e e e e e   e e e e e e e e    e e e e e e e e   e e e e e e e e

|-----------------|------------------|-----------------|----------------|
|-----------------|------------------|-----------------|----------------|
|-9-----9-8-----8-|-7-------------10-|-9-----9-5-----5-|-7---5---7-7-7\-|
|---0-0-----0-0---|---0-0-0-0-0-0----|---0-0-----0-0---|---0---0--------|
  e e e e e e e e   e e e e e e e e    e e e e e e e e   e e e e e e q

                     |1-7.                |8. 5/4               4/4
||-------------------|-------------------||---------------------|------|
||-o-----------------|-----------------o-||---------------------|------|
||-o-----------------|-----------------o-||---------------------|---R--|
||---0-0-0-0-0-3-0-0-|-2-0-0-3-0-0-5-3---||-2-0-0-3-0-0-5-3-0-0-|-0----|
     e e e e e e e e   e e e e e e e e      e e e e e e e e e e   q h.

|------|------|-------------||
|------|------|-----------R-||
|---R--|---R--|---------7---||
|-0----|-0----|-0-0-0-0-----||
  q h.   q h.   e e e e q q

Whiplash

Intro

168 bpm         3 times 3/4   4/4 160 bpm                        23 times
-------||---------------||-----||-------------------------------------||
-------||-o---R-------o-||---R-||-o---------------------------------o-||
-7-7-7-||-o-7---7-7-7-o-||-7---||-o-7-7-7-7-7-7-7-7-7-7-7-7-7-7-7-7-o-||
-------||---------------||-----||-------------------------------------||
 e e e      q h e e e      q h      s s s s s s s s s s s s s s s s
 [ 3 ]          [ 3 ]

                           fig.1
|-------------------------||-----------------------------------|
|-------------------------||-o---------------------------------|
|-7-7-7-7-7-7-7-7---------||-o---------------------------------|
|-----------------5--4--3-||---0-0-0-0-0-0-0-0-0-0-0-0-0-0-0-0-|
  s s s s s s s s e. e. e      s s s s s s s s s s s s s s s s

              end fig.1  4 times  fig.2
|---------------------------|||-----------------------------------|
|-------------------------o-|||-o---------------------------------|
|-------------------------o-|||-o---------------------------------|
|-0-0-0-0-0-0-0-0-5--4--3---|||---0-0-0-0-0-0-0-0-0-0-0-0-0-0-0-0-|
  s s s s s s s s e. e. e         s s s s s s s s s s s s s s s s

                      end fig.2  4 times
|---------------------------------||
|-------------------------------o-||
|-------------------------------o-||
|-0-0-0-0-0-0-0-0-0-0-0-0-0-0-3---||
  s s s s s s s s s s s s s s e

Verse 1,2,3

||--                           ||
||-o  play fig.2   4 times     ||
||-o                           ||
||--                           ||

Chorus
  fig.3                            end fig.3  3 times
||-------------------|-------------------------||
||-o-----------------|-----------------------o-||
||-o-3-3-3-3-3-3-2-0-|-----------------------o-||
||-------------------|-0h2-2-2-2-2-2-2-2-2-0---||
     e e s s e q q q   s s s s e s s e s s q
               [ 3 ]

|1,2.                          |
|---||                       --||
|---||  play fig.1  4 times  o-||
|-R-||                       o-||
|---||                       --||
  w

|3.                   Interlude & Guitar solo                     12 times
|---|---|-------------||-----------------------|-----------------------||
|---|---|-------------||-o---------------------|---------------------o-||
|-R-|-R-|-5-4-3-------||-o-7p5---5---5---------|-7p5---5---5---------o-||
|---|---|-------5-4-3-||-------7---7---0-0-0-0-|-----7---7---0-0-0-0---||
  w   w   q q q q q q      s s s e s e e e e e   s s s e s e e e e e
          [ 3 ] [ 3 ]

    7/8     4/4
|---|-------|                      ||
|---|-------| play fig.1  4 times  ||
|---|----R--|                      ||
|-0-|-0-----|                      ||
  w   q  h+e

Verse 4 : play fig.2  4 times, play fig.3  3 times

|-----------------|-------------------|-------------------|
|-----------------|-------------------|-------------------|
|-3-3-3-3-3-3-2-0-|-----------------R-|-----------------R-|
|-----------------|-0-2-2-2-2-0-2-0---|-0-2-2-2-2-0-2-0---|
  e e s s e q q q   e s s s s e e e q   e s s s s e e e q
            [ 3 ]

|-------------------|-------------------|--------|-----------------||
|-------------------|-------------------|--------|-----------------||
|-----------------R-|-------------------|--------|---------------R-||
|-0-2-2-2-2-0-2-0---|-0-2-2-2-2-0-2-0---|-(0)----|-0-2-2-2-0-2-2---||
  e s s s s e e e q   e s s s s e e q.    (l)      e s s e e e e q

that's it for disc 2, to see the names of the tabbers, see disc 3.
comments
We did not receive enough feedback on this tab! Please rate:
print report bad tab
1 2 3 4 5
I want to post or [tab]
guest
You may want to rate the tab now too:
select rating
Please do not post tabs as comments. Select "correction" instead!