Oops, an error
Loading. Please wait.

Live Shit Binge And Purge Mexico City Disc 3 Bass Tab

1,586 views 1 this week
no commentswrite comment
1 2 3 4 5
accurate
x 1
add to favorites launch autoscroll
font size
0
reset
Autoscroll
+/-
esc
set tempo
stop
WARNING: You are trying to view
                                    content from Ultimate-Guitar.com
                                    in an unauthorized application,
                                    which is prohibited.

                                    Please use an official Ultimate
                                    Guitar Tabs application for iPhone,
                                    iPad or Android to access legitimate
                                    chords, guitar, bass, and drum tabs
                                    from Ultimate-Guitar.com database.

                                    Type "ultimate guitar tabs" in Apple
                                    App Store's or Android Market's
                                    search to find the application.
Metallica
Live shit binge and purge, mexico city
Disc 3

Nothing Else Matters

Bass enters at 1.04
Verse
G-----------------------------------------------------------------------|
D-----------------------------------------------------------------------|
A--5/7--5-3----------5/7--5-3---------5/7--5-3------2-----5/77----------|
E------------3-2-0------------3-2-0------------2-3-----0------3-2-0-----|

Verse Variation (Played At 2:29)
G-----------------------------------------------------------------------|
D-----------------------------------------------------------------------|
A--5/7--5-3----------5/7--5-/--10---------5/7--5-3------2---5/77--------|
E------------3-2-0----------------3-2-0-------------2-3---0-------3-2-0-|

Chorus
G------------------------------------|
D------------------------------------|
A--3-0--5~---3-0--5~---3-0--5--5/7---|
E------------------------------------|

Interlude (3:07)
G------------------5------9------------------------------------------9---------------|
D--------9-------------------------------------------------------------9-------------|
A--7-77----7-77-----7-77----7--------------3--33-0-3-5--5-5-5h7-----------7----------|
E0----------------------------75--5-5---5------------------------0--------0---3-2-0--|

Interlude Second Time Round
G------------------5---------9---------------------------5------------7--------------|
D----------9---------------------------------7---------------------------------------|
A----7-77----7-77-----7-77----7-------7-------------3-3----0-3-5---5-----5----7~-----|
E--0-----------------------------75------5----5---5----------------------------3-2-0-|

Play During Solo.Note: You Could Play Open E on the build up at (4:57)
G--------------------------------------------------------------------------|
D--------------------------------------------------------------------------|
A--5/7--5-3----------5/7--5-3---------5/7--5-3------2----------------------|
E------------3-2-0------------3-2-0-------------2-3-----0~-----------------|End

Wherever I May Roam

    intro (sitar)
G--------------|----------|
D--4:----------|----------|
A--4:----------|----------|
E--------------|----------|


G---------------------------|-------------|
D---------------------------|-------------|
A---------------------------|---7---------|
E-----------------/12-------|---0---------|


G------------|----------------------------|
D------------|----------------------------|
A------------|----------------------------|
E------------|-----(0)--------------------|


G----------------------------|-------------------|
D----------------------------|-------------------|
A----------7-----------------|-------------------|
E----------0-----------------|--------0----------|


G----------------|----------------|-----------------------|
D----------------|----------------|--2:-------------------|
A----------------|----------------|--4:-------------------|
E---0------------|----0-----------|------------(0)--------|


G---------------------|
D---------------------|
A---------------------|
E------5--6--7--8-----|


  bass figure 1
G-------------------------------|----------------------------|
D-------------------------------|----------------------------|
A-------7-----------------------|----------------------------|
E-------0-0--0--0--0--0--0--0---|--0--0--0--0--0--0--1--1----|


G-------------------------|--------------------------|
D-------------------------|--------------------------|
A-------------------------|--------------------------|
E-0--0--0--0--0--0--0--0--|--5--5--6--6--7--7--8--8--|


G--------------------------|--------------------------|
D--------------------------|--------------------------|
A--7-----------------------|--------------------------|
E--0--0--0--0--0--0--0--0--|--0--0--0--0--3--5--1--1--|

                                         end bass fig 1
G--------------------------|--------------------------|
D--------------------------|--------------------------|
A--------------------------|--------------------------|
E--0--0--0--0--0--1--0--0--|--5--5--6--6--7--7--8--8--|


 riff 1
G-----------------------------|--------------------------|
D-----------------------------|--------------------------|
A--5--6--7--8- ---7-----------|--------------------------|
E--------------0--0--0--0--0--|--0--0--0--0--0--0--1--1--|


G------------------------|--------------------------|
D------------------------|--------------------------|
A------------------------|--------------------------|
E--0--0---0--0--0--0--0--|--5--5--6--6--7--7--8--8--|

 bass fill 1 ---|
G------------------|
D------------------|
A--------5---------|
E------------------|


riff 2    let ring                      let ring
G---------------------------------|--------------------------|
D---------------------------------|--------------------------|
A-----------------7-----(7)-------|--------------7-----(7)---|
E--------0---------------------0--|--0--0--------------------|


G-------------|------------------------|
D-------------|------------------------|
A-------------|------------------------|
E--1--1----0--|--1--0--1---1--1h3---1--|


  bass figure 2            let ring
G--------------------|---------------------------|
D--------------------|---------------------------|
A--------------------|----------------7----(7)---|
E--0--0--0--0--0--0--|--0---0--0-----------------|

                       end bass fig 2
G---------------------|------------------|
D---------------------|------------------|
A---------------------|------------------|
E--1---1--1--1--1--1--|--1--0--1--1--8---|


 1st, 2nd verses
G-----------------|-----------------|--------------------|
D-----------------|-----------------|--------------------|
A-----------------|--------------0--|--1--1--1--1--1--1--|
E--0--0--0--0--0--|--0--0--0--3-----|--------------------|


G-----------|-------------------------|-------------------|
D-----------|-------------------------|-------------------|
A--1--1--1--|--0---0---0---0----0--0--|--0--0---0---0--0--|
E-----------|-------------------------|-------------------|


G-----------------------|---------------------|
D-----------------------|---------------------|
A--1----1--1--1---1--1--|--1--1----1----------|
E-----------------------|--------------x---x--|


G----------------------|--------------------|
D----------------------|--------------------|
A----------------------|-----------------0--|
E--0----0----0--0---0--|--0---0---0---3-----|


G-----------------------|-------------------|---------------------|
D-----------------------|-------------------|---------------------|
A--1---1--1--1----1--1--|--1--1---1---1--1--|---------------------|
E-----------------------|-------------------|--3---3--3--3--3--3--|


G--------------------|-----------------------|
D--------------------|-----------------------|
A--------------------|--1--1--1--1--1--1--1--|
E--3---3---3---3--3--|-----------------------|


G--------------|-----------------|
D--------------|-----------------|
A--1--1--1--1--|--1---1---2---3--|
E--------------|-----------------|

  pm------------------------------------------------|
G------------------------|--------------------------|
D------------------------|--------------------------|
A--5--6--7--7--7--8--7--|---------------------------|
E------------------------|--0---0--0--3--5--1--1----|


G------------------------|--------------------------|
D------------------------|--------------------------|
A------------------------|--------------------------|
E--0---0--0--0--1--0--0--|--5--5--6--6--7--7--8--9--|


 bass fig 3
G--------------------------|--------------------------|
D--------------------------|--------------------------|
A--------------------------|--------------------------|
E--1--1--1--1--1--1--1--1--|--1--1--1--1--1--3--1--1--|


G--------------------------|--------------------------|
D--------------------------|--------------------------|
A--------------------------|--------------------------|
E--0--0--0--0--0--0--0--0--|--0--0--0--0--0--0--3--5--|

                                        end bass fig 3
G--------------------------|--------------------------|
D--------------------------|--------------------------|
A--------------------------|--------------------------|
E--6--6--6--6--6--6--6--6--|--6--6--6--6--6--6--6--6--|


  bass fig 4                     end bass fig 4
G--------------------|-------------------------|
D--------------------|-------------------------|
A--------------------|---------------3---------|
E--5--5--3--5--5--3--|--5--5--3---5-----5---0--|

  riff 3
G---------------------|-----------------------|
D---------------------|-----------------------|
A---------------------|-----------------------|
E--3--3--3--3---3--3--|--0--3--0--3--3--3--3--|


 interlude
G--------------------------|-----------------------------|
D--------------------------|-----------------------------|
A--------------------------|-----------------------3-----|
E--0--0--0--0--0--0--0--0--|--0--0--0--0--1--1--0-----1--|


G--------------------------|
D--------------------------|
A--------------------------|
E--0--0--0--0--0--0--0--0--|

                 end inter.
G--------------------------|
D-----------------------1--|
A--------------------------|
E--0--0--0--0---2---3------|

 riff 4
G--------------------------|--------------------------|
D--------------------------|--------------------------|
A--------------------------|--------------------------|
E--0--0--0--0--0--0--0--0--|--0--0--0--0--0--1--3--1--|


G--------------------------|------------------------|
D--------------------------|---------------------1--|
A--------------------------|--7--7------------------|
E--0--0--0--0--0--0--0--0--|--0--0--0--0--2--3------|


  riff 5
G-----|---------------------|---------------------|
D-----|---------------------|---------------------|
A--5--|------------7--------|------------7-----0--|
E-----|--0---0--0-----0--0--|--0---0--0-----3-----|


G-----------------|--------------------|-------------------|
D-----------------|--------------------|-------------------|
A--1--1--1--1--0--|--1--0--1--1--1--1--|-------------------|
E-----------------|--------------------|--3---3---3--3--0--|


G------------------|----------------------|-------------------|
D------------------|----------------------|-------------------|
A---------------0--|--1--1--1--1---1---0--|--1--0--1--1--1p0--|
E--3---3-----3-----|----------------------|-------------------|

             pm---------------------|
G-----------------------------------|
D-----------------------------------|
A--1--1--2--5--6--7--7--7--8--7-----|
E-----------------------------------|


G--------------------------|--------------------------|
D--------------------------|--------------------------|
A--------------------------|--------------------------|
E--0-----0--0--3--5--1--1--|--0-----0--0--3--5--1--1--|


G--------------------------|--------------------------|
D--------------------------|--------------------------|
A--------------------------|--------------------------|
E--0--0--0--0--0--1--0--0--|--5--5--6--6--7--7--8--8--|


       bass fill 2
G-----|---------------|
D-----|---------------|
A--5--|---------------|
E-----|--3---3--0--3--|


G---|----------------|
D---|----------------|
A---|----------------|
E3--|--3----3--2--1--|

  pre-chorus
G--------------------------|----------------------------|
D--------------------------|----------------------------|
A--------------------------|----------------------------|
E--1--1--1--1--1--1--1--1--|--1----1--1--1--1--1--3--1--|


G--------------------------|-----------------------|
D--------------------------|-----------------------|
A--------------------------|---------------------0-|
E--0--0--0--0--0--0--0--0--|--0--0--0---0--1--3----|


G-------------------------|------|
D-------------------------|------|
A-1--1--1--1--1--1--3--1--|------|
E-------------------------|------|


chorus
G----------------------|------------------------|
D----------------------|------------------------|
A----------------------|---------------3--------|
E--5---5--3--5---5--3--|--5---5--3--5-----5--0--|


G----------------|--------------------------|----------------|
D----------------|--------------------------|----------------|
A----------------|--------------------------|--3---0--3---0--|
E--3---0--3---0--|--0--3--3--0--0--3--0--0--|----------------|


G---------------|--------------------------|--------------------|
D---------------|--------------------------|--------------------|
A--3--3---5--3--|--2--2--2--2--2--2--2--2--|-1--1---1-----------|
E---------------|--------------------------|-----------0--3--1--|


  outro
G--------------------------|--------------------------|
D--------------------------|--------------------------|
A--------------------------|--------------------------|
E--0--0--0--0--0--1--0--0--|--0--0--0--0--3--0--1--1--|


G--------------------------|--------------------------|
D--------------------------|--------------------------|
A--------------------------|--------------------------|
E--0--0--0--0--0--1--0--0--|--5--5--6--6--7--7--8--8--|


bass fig 5
G-----------------------|--------------------------|
D-----------------------|--------------------------|
A--5--6--7--7-----------|--------------------------|
E--------------0--1--0--|--0--0--0--0--3--5--1--1--|


G--------------------------|--------------------------|
D--------------------------|--------------------------|
A--------------------------|--------------------------|
E--0--0--0--0--0--1--0--0--|--5--5--6--6--7--7--8--8--|


Am I Evil?

100 bpm
|--------|------|------|  3  |---|-------|---|-------|---|-----|---|-------|
|--------|------|------|-----|---|-------|---|-------|---|-----|---|-------|
|-7--5-7-|-8----|---R--|-----|---|-----2-|-1-|-(1)---|---|---2-|-1-|-(1)---|
|--------|----3-|-0----|     |-0-|-(0)---|---|-----1-|-0-|-0---|---|-----1-|
  h. e e   h. q   q h.         w   (h) h   w   (h) h   w   h h   w   (h) h

|---|-------|---|-------|---|-----|---|-------|---|-----------------|
|---|-------|---|-------|---|-----|---|-------|---|-----------------|
|---|-----2-|-1-|-(1)-8-|-7-|---2-|-1-|-(1)---|---|-----5-5-5-5-5-5-|
|-0-|-(0)---|---|-------|---|-0---|---|-----1-|-0-|-(0)-------------|
  w   (h) h   w   (h) h   w   h h   w   (h) h   w   (h) e e e e e e
                                                        [ 3 ] [ 3 ]

|--------------------|-----------------------|-----------------------|
|--------------------|-----------------------|---R---------R---------|
|-7---------R-------|---R-------5-5-5-5-5-5-|-7-------------7-7-7----|
|----0-0-0-0---0-0-0-|-0---0-0-0-------------|-----0-0-0-0-----------|
  q  e e e e e e e e   e e e e e e e e e e e   e e e e e e e e e e
     [ 3 ]     [ 3 ]       [ 3 ] [ 3 ] [ 3 ]       [ 3 ]     [ 3 ]

|---------------------|---------------------|-----------------------|
|---------------------|---R-----------------|-----------------------|
|-7-7-7-7-5-5-5-5-5-5-|-7-----------R-------|---R-------5-5-5-5-5-5-|
|---------------------|-----0-0-0-0---0-0-0-|-0---0-0-0-------------|
  q e e e e e e e e e   e e e e e e e e e e   e e e e e e e e e e e
    [ 3 ] [ 3 ] [ 3 ]       [ 3 ]     [ 3 ]       [ 3 ] [ 3 ] [ 3 ]

                                                         160 bpm
                                                 240 bpm 2/4 4/4
|---------|-----------|-------------|------------||  13  |----|---|-----|
|---------|---9-8-/15-|-14-15-15h17-|-(17)-(17)-||------|----|---|------|
|-------8-|-7---------|-------------|------------||------|--R-|-R-|-R---|
|-0-7-6---|-----------|-------------|------------||      |----|---|-----|
  q q q q   q q q  q    q  q     h    (h.) (q)              h   w   w

|---|-------|----|---------------|-----------|--------------------|
|---|-R-----|----|---------------|-----------|----5---------------|
|-7-|----5/-|-/7-|-(7)-5h7-5---5-|-7-(7)-5/-|-/7---7-5------------|
|-0-|-------|--0-|-(0)-------7---|-----------|----------7-6-5-3---|
  w   h. q     w   (q.)  q e e e   h.+e e       e e e e e e e e

  fig.1                   end fig.1  3 times  fill 1              end fill 1
||-------------------|--------------||-----------------|-----------------|
||-o-----------------|------------o-||-----------------|-----------------|
||-o-----------------|------------o-||-----------------|-------------5-7-|
||---0-0-0-0-3-0-0-5-|-0-0-0-6--5---||-0-0-0-0-3-0-0-5-|-0-0-0-5-6-7-----|
     e e e e e e e e   e e e q. q      e e e e e e e e   e e e e e e e e

  Verse 1,2              fill 2                     end fill 2
||--                     |-----------------|-----------------|
||-o play fig.1  3 times |-----------------|-----------------|
||-o                     |-----------------|-------5-7-5-----|
||--                     |-0-0-0-0-3-0-0-5-|-0-0-0-------7-5-|
                           e e e e e e e e   e e e e e e e e

                       Pre-chorus                     4 times
                      ||-------------------|--------------||
  play fig.1  4 times ||-o-----------------|------------o-||
                      ||-o---------5-----7-|-------8--7-o-||
                      ||---7-7-7-7---7-7---|-7-7-7--------||
                           e e e e e e e e   e e e q. q

  Chorus
  play fig.1, 1st time play fill 1 , play fig.1  2 times
              2nd time play fill 3

             fill 3
             |-----------------|-----------------|
             |-----------------|-----------------|
             |-----------------|---7-7-7-7-7-7-7-|
             |-0-0-0-0-3-0-0-5-|-0---------------|

|1.                           |2.
                           --||---------|-5-5-5-5-5-5-------|
  play fig.1, play fill 1  o-||---------|-------------------|
                           o-||-7--5--3-|---------------5-6-|
                           --||---------|-------------7-----|
                                q. q. q   e s s e e e e e e

                                                              3 times
|-----------------|------------||-----------|-5-5-5-5-5-5---------||
|-----------------|------------||-o---------|-------------------o-||
|-7---------------|------------||-o-7--5--3-|---------------5-6-o-||
|---0-0-0-3-0-0-5-|-0-0-0-6--5-||-----------|-------------7-------||
  e e e e e e e e   e e e q. q      q. q. q   e s s e e e e e e

                                       192 bpm triplet feel
                                         fig.3
|----------|---------------|-----|-----||---------------------|
|----------|---------------|-----|-----||---7-7-7-7---7-7-7-7-|
|-7--9--10-|-(10)-(10)-3---|-(3)-|-(3)-||-0---------0---------|
|----------|---------------|-----|-----||---------------------|
  q. q. q     e   (e)   h.   (w)   (w)    e e e e e e e e e e
                                              [ 3 ]     [ 3 ]

                                              end fig.3
|---------------|---------------------|---------------|---------------------|
|---7-7-7-7-----|---7-7-7-7---7-7-7-7-|---7-7-7-7-----|---7-7-7-7---7-7-7-7-|
|-0-----------5-|-0---------0---------|-0---------3---|-0---------0---------|
|-----------3---|---------------------|-------------3-|---------------------|
  e e e e e q q   e e e e e e e e e e   e e e e e q q   e e e e e e e e e e
      [ 3 ]           [ 3 ]     [ 3 ]      [ 3 ]           [ 3 ]     [ 3 ]

|---------------|---------------------|-----------------------|
|---7-7-7-7-----|---7-7-7-7---7-7-7-7-|---7-7-7-7-7-7-7-------|
|-0-----------5-|-0---------0---------|-0---------------7-----|
|-----------3---|---------------------|-----------------------|
  e e e e e q q   e e e e e e e e e e   e e e e e e e e q
      [ 3 ]           [ 3 ]     [ 3 ]       [ 3 ] [ 3 ]

Bridge 1
   fig.4
||-----------------------|-----------------|---------------------|
||-o---------------------|-----------------|---------------------|
||-o-7---------7---------|-7-----------5---|-7---------7---------|
||-----0-0-0-0---0-0-0-0-|---0-0-0-0-0-----|---0-0-0-0---0-0-0-0-|
     e e e e e e e e e e   e e e e e e e+q   e e e e e e e e e e
         [ 3 ]     [ 3 ]       [ 3 ]             [ 3 ]     [ 3 ]

                        Chorus II
          end fig.4  4 times
|-------------------||                                |--------------------|
|-----------------o-|| play fig.3, fig.3 first 3 bars |---7-7-7-7-7-7-7----|
|-7-----------5-5-o-||                                |-0---------------7--|
|---0-0-0-0-0-------||                                |--------------------|
  e e e e e q q q                                       e e e e e e e e q
      [ 3 ] [ 3 ]                                           [ 3 ] [ 3 ]


Bridge 2  :  play fig.4  4 times, play fig.3  2 times

                 Guitar solo                                  6 times
|---|-----|-----||-----------------------|-----------------------||
|---|-----|-----||-o---------------------|---------------------o-||
|---|-----|---0-||-o-2-2-2-2-2-2-2-2-2-2-|-2-2-2-2-2-2-2-2-2-2-o-||
|-0-|-(0)-|-3---||-----------------------|-----------------------||
  w   (w)   h h      e e e e e e e e e e   e e e e e e e e e e
                         [ 3 ]     [ 3 ]       [ 3 ]     [ 3 ]

                                              2 times
||-----------------------|-----------------------||
||-o---------------------|---------------------o-||
||-o-7---------7---------|-7---------7---------o-||
||-----0-0-0-0---0-0-0-0-|---0-0-0-0---0-0-0-0---||
     e e e e e e e e e e   e e e e e e e e e e
         [ 3 ]     [ 3 ]       [ 3 ]     [ 3 ]

                                              5 times
||-----------------------|-----------------------||---------------------|
||-o---------------------|---------------------o-||---------------------|
||-o-2-2-2-2-2-2-2-2-2-2-|-2-2-2-2-2-2-2-2-2-2-o-||-0-0-0-0-0-0-0-0-0-0-|
||-----------------------|-----------------------||---------------------|
     e e e e e e e e e e   e e e e e e e e e e      e e e e e e e e e e
         [ 3 ]     [ 3 ]       [ 3 ]     [ 3 ]          [ 3 ]     [ 3 ]

|---------------------|---------------------|---------------------|
|---------------------|---------------------|---------------------|
|-0-0-0-0-0-0-0-0-0-0-|---------------------|---------------------|
|---------------------|-1-1-1-1-1-1-1-1-1-1-|-1-1-1-1-1-1-1-1-1-1-|
  e e e e e e e e e e   e e e e e e e e e e   e e e e e e e e e e
      [ 3 ]     [ 3 ]       [ 3 ]     [ 3 ]       [ 3 ]     [ 3 ]

|---------------------|---------------------|---------------------|
|---------------------|---------------------|---------------------|
|-1-1-1-1-1-1-1-1-1-1-|-1-1-1-1-1-1-1-1-1-1-|---------------------|
|---------------------|---------------------|-2-2-2-2-2-2-2-2-2-2-|
  e e e e e e e e e e   e e e e e e e e e e   e e e e e e e e e e
      [ 3 ]     [ 3 ]       [ 3 ]     [ 3 ]       [ 3 ]     [ 3 ]

                                                                  5 times
|---------------------||-----------------------|-----------------------||
|---------------------||-o---------------------|---------------------o-||
|---------------------||-o-2-2-2-2-2-2-2-2-2-2-|-2-2-2-2-2-2-2-2-2-2-o-||
|-2-2-2-2-2-2-2-2-2-2-||-----------------------|-----------------------||
  e e e e e e e e e e      e e e e e e e e e e   e e e e e e e e e e
      [ 3 ]     [ 3 ]          [ 3 ]     [ 3 ]       [ 3 ]     [ 3 ]

|---------------------|---------------------|---------------------|
|---------------------|---------------------|---------------------|
|-7---------7---------|-7---------7---------|-7---------7---------|
|---0-0-0-0---0-0-0-0-|---0-0-0-0---0-0-0-0-|---0-0-0-0---0-0-0-0-|
  e e e e e e e e e e   e e e e e e e e e e   e e e e e e e e e e
      [ 3 ]     [ 3 ]       [ 3 ]     [ 3 ]       [ 3 ]     [ 3 ]

                                                             2 times
|---------------||-----------------------|-----------------------||
|---------------||-o---------------------|---------------------o-||
|-7-------------||-o-2-2-2-2-2-2-2-2-2-2-|-2-2-2-2-2-2-2-2-2-2-o-||
|---0-0-0-0-0-3-||-----------------------|-----------------------||
  e e e e e q h      e e e e e e e e e e   e e e e e e e e e e
      [ 3 ] [3]          [ 3 ]     [ 3 ]       [ 3 ]     [ 3 ]


play fig.3, play fig.3 first 2 bars

|-----------------14-|-14-14-14-14-14-14-14-14-14-12----||
|---7-7-7-7---7-7----|-------------------------------14-||
|-0---------0--------|----------------------------------||
|--------------------|----------------------------------||
  e e e e e e e e e    e  e  e  e  e  e  e  e  e  e  e
      [ 3 ]                  [  3  ]  [  3  ]  [  3  ]

Bridge 3 : play fig.4  4 times, play fig.3  4 times

                                         3 times                      rit.
||-------------------|-----------------------||---------------|-----------||
||-o-----------------|---------------------o-||-------------R-|-----R-----||
||-o-----7p0-5-5-5---|-5-5-5-------5-7p5---o-||-----7p0-5-5---|-5-5---5---||
||---0-0-----------0-|-------0-5h7-------7---||-0-0-----------|---------5-||
     e e e e e e e e   e e e e e e e e e e      e e e e e q e   e q e q q
                               [ 3 ] [ 3 ]

160 bpm, straight eight feel
|------|---|--------|----------------||---------------------|
|------|---|--------|----------------||-o-------------------|
|---R--|-R-|----5h7-|-7-7-7-7-7-7-7-||-o--------------------|
|-0----|---|-0------|----------------||---0-0-0-0-3-0-0-5---|
  q h.   w   h..  e   e e e e e e q       e e e e e e e e

             4 times
|--------------||-------||
|------------o-||-------||
|------------o-||-R-----||
|-0-0-0-6--5---||---3-0-||
  e e e q. q      h q q

Last Caress

Intro:
|---------|
|--Drums--|
|----x2---|
|---------|

Verse 1:
|--------------------------------|--------------------------------|
|--------------------------------|--------------------------------|
|--------------------------------|--------------------------------|
|--------------------------------|-----------------1-------3------|

|--------------------------------|--------------------------------|
|--------------------------------|--------------------------------|
|--------------------------------|--------------------------------|
|--------------------------------|-----------------1-------3------|

|--------------------------------|--------------------------------|
|--------------------------------|--------------------------------|
|--------------------------------|-5------------------------------|
|-1------------------------------|--------------------------------|

|--------------------------------|--------------------------------|
|--------------------------------|--------------------------------|
|-3-------3---3---3---3---3---3--|-3---3---3---3------------------|
|--------------------------------|-----------------1-------3------|

|--------------------------------|--------------------------------|
|--------------------------------|--------------------------------|
|-3-------3---3---3---3---3---3--|-3---3---3---3------------------|
|--------------------------------|-----------------1-------3------|

Verse 2, 3, 4:
|--------------------------------|--------------------------------|
|*-------------------------------|--------------------------------|
|*3-------3---3---3---3---3---3--|-3---3---3---3------------------|
|--------------------------------|-----------------1-------3------|

|--------------------------------|--------------------------------|
|--------------------------------|--------------------------------|
|-3-------3---3---3---3---3---3--|-3---3---3---3------------------|
|--------------------------------|-----------------1-------3------|

|--------------------------------|--------------------------------|
|--------------------------------|--------------------------------|
|--------------------------------|-5-------5---5-------5---7---5--|
|-1-------1---1-------1---1---5--|--------------------------------|

|--------------------------------|--------------------------------|
|--------------------------------|--------------------------------|
|-3-------3---3-------3---3---3--|-3---3---3---3---5---3----------|
|--------------------------------|-------------------------5---0--|

Chorus:
|--------------------------------|--------------------------------|
|--------------------------------|--------------------------------|
|--------------------------------|--------------------------------|
|-1-------1---1-------1---1---1--|-3-------3---3-------3---5---7--|

|--------------------------------|--------------------------------|
|--------------------------------|--------------------------------|
|--------------------------------|--------------------------------|
|-8---8---8---0---7---7---0---0--|-5---5---5---5---5---5---5---0--|

|--------------------------------|--------------------------------|
|--------------------------------|--------------------------------|
|--------------------------------|-------------------------0---2--|
|-1-------1---1-------1---1---2--|-3-------3---3-------3----------|

                                  1. 2.
                                 |--------------------------------|
                                 |--------------------------------|
                                 |-3-------3---3---3---3---3---3--|
                                 |--------------------------------|

                                 |Fig.1
|--------------------------------|--------------------------------|
|--------------------------------|--------------------------------|
|--------------------------------|-3-------3---3---3---3---3---3--|
|-1---1---1---3-------3---3------|--------------------------------|

                        end Fig.1|
|--------------------------------|
|--------------------------------|
|--------------------------------|
|-1---1---1---3-------3---3------|

                                  3.
                                  Repeat Fig.1 x 4 then
                                 |--------------------------------|
                                 |--------------------------------|
                                 |-3------------------------------|
                                 |--------------------------------|

|--------------------------------|
|--------------------------------|
|--------------------------------|
|----------------1-------3-------|

One

|----------|------------|------|------------|-----------------||----4-------|
|----------|------------|------|------------|-----------------||------------|
|----------|------------|------|------------|---2---2---2---2-||-2----2-3-2-|
|----------|------------|------|------------|-----------------||------------|


|------------|----4---------|------------|
|------------|--------------|------------|
|------------|-2----2-2h3-2-|------------|
|-3----3-0-2-|--------------|-3----3-0-2-|

|----4---------|---------------|---------------|
|--------------|--------7-5----|---------------|
|-2----2-2h3-2-|-0----0-----7--|---------------|
|--------------|---------------|-3----3-0-2-3--|


|------------|------------||-------7-------|
|------------|------------||---7-----------|
|----------4-|----5-----7-||-5---5---/7----|
|-0----0-2---|-3----3-5---||------------8--|


|------------|------------|--------------|
|----5-------|----3---3---|-----2---2----|
|------------|------------|---2---2---2/-|
|-3----3-5-3-|-1----1---1-|-0------------|

|--------7-------|------------|------------|
|----7-----------|----4-------|----3---3---|
|-/5---5---/7----|------------|------------|
|-------------8--|-3----3-5-3-|-1----1---1-|


                 1st, 2nd Verses

|-------------||-------4-----|-------------|
|-------------||o------------|-------------|
|--------2h3--||o-2------3-2-|-------------|
|-0----0------||-------------|-2----3-0-2--|

|---4--------|-------------|--------------|---------------|--------------|
|------------|-------------|--------------|--------7-5----|--------------|
|-2----2-3-2-|--------2h5--|-2----2-2h3-2-|-0----0-----7--|--------------|
|------------|-3--3-0------|--------------|---------------|-3----3-0-2-3-|

|-------------|------4-----|------------|--------------|--------------|
|-------------|------------|------------|--------------|--------------|
|---2-----2---|-2------3-2-|------------|-2----2-2h3-2-|--------0-2h5-|
|-0-----2-----|------------|-2----3-0-2-|--------------|-3----3-------|


|--------------|---------------|--------------|--------||---------------------|
|--------------|--------7-5----|--------------|--------||---------------------|
|-2----2-2h3-2-|-0----0-----7--|--------------|--------||--------2-------2----|
|--------------|---------------|-3----3-0-2-3-|-0--2-0-||-3----5---5-3-2------|

|-----------------------||--------------|
|-----------------5---6-||-----7--------|
|------2-4-2----3---4---||--5----5s7----|
|-5----------5----------||-----------8--|

|------------|------------|-------------|
|----5-------|----3---3---|-----2---2---|
|------------|------------|---2---2---2-|
|-3----3-5-3-|-1----1---1-|-0-----------|

|-------7-------|-------------|------------|--------------||-------7--------|
|---7-----------|-----5-------|----3---3---|-------------o||---7------------|
|-5---5---/7----|-------------|------------|--------2h3--o||-5---5---/7-----|
|------------8--|-3----3-5-3--|-1----1---1-|-0----0-------||------------8---|

|------------|------------|-------------|-------7-------|
|----5-------|----3---3---|-----2---2---|---7-----------|
|------------|------------|---2---2---2-|-5---5---/7----|
|-3----3-5-3-|-1----1---1-|-0-----------|------------8--|

|------------|------------|---------------|
|----5-------|----3---3---|-----2---2-----|
|------------|------------|---2---2---2---|
|-3----3-5-3-|-1----1---1-|-0-------------|

|---------------------|---------------------|---------------------|
|---------------------|---------------------|---------------------|
|--------2---------3--|------2-4-2----2--4--|--------2---------2--|
|-3----3---5-3--3-----|-3----------5--------|-3----3---5-3--2-----|

|---------------------|-----------------------||
|---------------------|-----------------------||
|------2-4-2----2--4--|--------2---------2----||
|-5----------5--------|-3----5---5-3--2-------||

|------------|-------------|------------|------------|-------------|
|------------|-------------|------------|------------|-------------|
|----5-----5-|-------5-----|-2--2---2---|-3--3---3---|-----5---5---|
|-5----5-5---|-3-3-3---3-0-|------0---0-|------1---0-|-5-5---5---5-|

|-------------|------------|---------------|-------------|-------------|
|-------------|------------|---------------|-----7-------|-------------|
|-------------|-2--2---2-0-|-3-3-3-3---3---|---5---5-----|-------5-----|
|-3-3-3-5-3-0-|------0-----|---------1---0-|-5-------5-0-|-3-3-3---3-0-|

|------------|-------------|-------------|-------------|-------------|
|------------|-------------|-----7-------|-------------|-------------|
|-2--2---2---|-3-3-3---3---|---5---5-----|-------------|-2--2---2-0--|
|------0---0-|-------1---0-|-5-------5-0-|-3-3-3-5-3-0-|------0------|

|--------------|-------------|-------------|------------|--------------|
|--------------|-------7-----|-------7-----|------------|--------------|
|-3-3-3-3---3/-|-7-7-7---7-0-|-5-5-5---5--|-2------2-0-|-3-3-3---3/----|
|---------1----|-------------|-------------|------0-----|-------1------|

|--------------|-------------|------------|---------------|----------|--------||
|--------7-----|-------7-----|------------|---------------|----------|--------||
|-/7-7-7---7-0-|-5-5-5---5---|-2--2-0-2-0-|-3-3-3-3---3---|-7--------|-(7)----||
|--------------|-------------|------------|---------1---0-|-0--------|-(0)----||

|---------------------------------|
|---------------------------------|
|-------------7---------------7---|
|-0-0-0-0-0-0-0---0-0-0-0-0-0-0---|

|---------------------------------|--------------------------------||
|---------------------------------|--------------------------------||
|-------------7---------------7---|-------------7--------------7---||
|-0-0-0-0-0-0-0---0-0-0-0-0-0-0---|-0-0-0-0-0-0-0--0-0-0-0-0-0-0---||

||----------------------------------||-|
||o--------------------------------o||-|
||o-------------7------------------o||-|
||--0-0-0-0-0-0-0--0-0-0-0-0-0-0-1--||-|

||----------------------------------|-----------------------------------|
||o---------------------------------|-----------------------------------|
||o-------------7---------------7---|-------------7---------------7-----|
||--0-0-0-0-0-0-0---0-0-0-0-0-0-0---|-0-0-0-0-0-0-0---0-0-0-0-0-0-0-----|

|---------------------------------|
|---------------------------------|
|-------------7---------------7---|
|-0-0-0-0-0-0-0---0-0-0-0-0-0-0---|

|---------------------------------|--------------------------------|
|---------------------------------|--------------------------------|
|-------------7-------------------|-------------7--------------7s8-|
|-0-0-0-0-0-0-0---0-0-0-0-0-0-0-1-|-0-0-0-0-0-0----0-0-0-0-0-0-----|

|--------------------------------|--------------------------------|
|--------------------------------|--------------------------------|
|-------------5--------------5s8-|-------------7--------------7s8-|
|-0-0-0-0-0-0----0-0-0-0-0-0-----|-0-0-0-0-0-0----0-0-0-0-0-0-----|

|---------------------------------||
|--------------------------------o||
|-------------5--------------2---o||
|-0-0-0-0-0-0----0-0-0-0-0-0---1--||

||-----------------------|-------------------|
||o----------------------|-------------------|
||o-------------2--------|-------2--------3--|
||--0-0-0-0-0-0----0-0-0-|-0-0-0----0-0-0----|

|----------------------|--------------------|
|----------------------|--------------------|
|-------------2--------|-------2--------3---|
|-0-0-0-0-0-0----0-0-0-|-0-0-0----0-0-0-----|

|----------------------|-------------------|
|----------------------|-------------------|
|-------------2--------|-------2--------3--|
|-0-0-0-0-0-0----0-0-0-|-0-0-0----0-0-0----|

|----------------------|---------------------|
|----------------------|---------------------|
|-------------2--------|-------2--------3----|
|-0-0-0-0-0-0----0-0-0-|-0-0-0----0-0-0------|

|-----------------------|-----------------------|------------------------||
|-----------------------|-----------------------|-----------------------o||
|-7-7-7-7-7-7-7---7-7-7-|-7-7-7-7-7-7-7---7-7-7-|-7-7-7-7-7-7-7---7-7-7-o||
|-0-0-0-0-0-0-0---0-0-0-|-0-0-0-0-0-0-0---0-0-0-|-0-0-0-0-0-0-0---0-0-0--||


   Guitar Solo lardey dar dey dar
    4x
||-----------------------|--------------------||-|
||o----------------------|-------------------o||-|
||o-------------2--------|-------2--------3--o||-|
||--0-0-0-0-0-0----0-0-0-|-0-0-0----0-0-0-----||-|

||------------------------|-----------------------||
||o-----------------------|----------------------o||
||o-7-7-7-7-7-7-7---7-7-7-|-7-7-7-7-7-7-7---7-7-7o||
||--0-0-0-0-0-0-0---0-0-0-|-0-0-0-0-0-0-0---0-0-0-||

||--------------------|-------------------|
||o-------------------|-------------------|
||o-------------7--7--|-------------7--7--|
||--0-0-0-0-0-0-0--0--|-0-0-0-0-0-0-0--0--|

|-------------------|--------------------||
|-------------------|-------------------o||
|-------------------|-------------------o||
|-0-0-0-0-0-0-0--1--|-3-3-3-3-3-3-3--3---||

||--------------------|-------------------|
||o-------------------|-------------------|
||o-------------5--5--|-------------5--5--|
||--3-3-3-3-3-3-------|-3-3-3-3-3-3-------|

|-------------------|--------------------||
|-------------------|-------------------o||
|-------------5--5--|-------------------o||
|-3-3-3-3-3-3-------|-1-1-1-1-1-1-1--1---||

||----------------|---------------|-------------------|-------------------||
||o---------------|---------------|-------------------|------------------o||
||o---------------|---------------|-------------------|------------------o||
||--0-0-3--0-0-3--|-0-0-3--0-0-3--|-1-1-1-1-1-1-1--1--|-1-1-1-1-1-1-1--1--||

|-----------------------|-------------------------|
|-----------------------|-------------------------|
|-----------------5-5-5-|-5-5-5-4-4-4-3-3-3-2-2-2-|
|-3-3-3-3-3-3-3---------|-------------------------|


    4x
||-----------------------|--------------------||
||o----------------------|-------------------o||
||o-------------2--------|-------2--------3--o||
||--0-0-0-0-0-0----0-0-0-|-0-0-0----0-0-0-----||

|-----------------------|-------------------------|
|-----------------------|-------------------------|
|-7-7-7-7-7-7-7---5-5-5-|-5-5-5-4-4-4-3-3-3-2-2-2-|
|-----------------------|-------------------------|


   4x
||-----------------------|--------------------||
||o----------------------|-------------------o||
||o-------------2--------|-------2--------3--o||
||--0-0-0-0-0-0----0-0-0-|-0-0-0----0-0-0-----||

|---------------|---------------|---------------|
|---------------|---------------|---------------|
|---------------|---------------|---------------|
|-0-0-3--0-0-3--|-0-0-3--0-0-3--|-0-0-3--0-0-3--|

||--------------------|-----------------||
||o-------------------|----------------o||
||o-------------7--7--|----------------o||
||--0-0-0-0-0-0-0--0--|-1-1-1--1-1-1----||

|---------------|---------------|----------------------|
|---------------|---------------|----------------------|
|---------------|---------------|-------------2--------|
|-3-3-3--3-3-3--|-3-3-3--3-3-3--|-0-0-0-0-0-0----0-0-0-|


|-------------------|--------------------------|--------------------*|
|-------------------|--------------------------|--------------------*|
|-------2--------3--|-7-7-7-7-7-7-7---19-19-19-|-19-19-19-19--------*|
|-0-0-0----0-0-0----|-0-0-0-0-0-0-0----0--0--0-|--0--0--0--0--------*|

Battery

tempo=75

Intro
|--------------------||----------------|---------------|----------------|
|--4/4-------12------||:---------------|---------------|----------------|
|------|---pause---|-||----------------|---------------|----------------|
|--------------------||0---0-0-1-------|2---2-2-3------|0---0-0-1-------|

|----------------------||----------------||
|---------------------:||----------------||
|----------------------||----2-----------||
|2---2-2-3---3--3--1-0-||0-------3---2---||

tempo=190

||------------|-----------------|-------------|-------|------|--------------||
||------------|-------3---------|-------------|-------|------|--------------||
||------------|--|---pause---|--|-------------|-------|------|--------------||
||0-----------|-----------------|0-------6-6-5|0------|------|6-5--5---5---5||

                                                   -----------------|
                                                  |1
||----------------|---------------|---------------|----------------||
||:---------------|----------5-5-4|5--------------|---------------:||
||----------------|---------------|---------------|----------------||
||-0-000-000-6-6-5|0-000-000------|--000-000-6-6-5|0-2---3-0-3--4--||

-----------------
|2
|-------------|-----------------|---------------|--------------||
|-------------|-----------------|----5-5-----5-5|----7-7-------||
|-------------|-----7-7------7-7|---------------|------------6-||
|6--5--5--5--5|0--------0--00---|3-------3-33---|5-5-----1-0---||

1st,2nd,3rd Verses
                                                                  X2
||-----------------|--------------|---------------|------------|
||:----------------|-----------554|5--------------|------------|
||-7----7----7-----|7----7----7---|-----7----7----|------------|
||----00---0---66-5|---00---00----|---00---00--665|0--2---303-4|

|---------------|-------------|------------|------------------|
|---------------|----5------55|-----7-7----|------------------|
|------7------77|-------------|---------776|7----7----7-------|
|0----------00--|3-3---22333--|5-5---------|--0-0--0-0---6-6-5|

|--------------|---------------|--------------|--------------|
|-----------554|5--------------|--------------|--------------|
|-7----7---7---|----7---7------|--------------|----7-------7-|
|----00--00----|--00--00--6-6-5|0--2--3-0-3--4|0--------000--|

|---------------|--------------|-------------|------------|
|-----5-5-----55|--------------|5------------|---------554|
|---------------|--------7-7-6-|---7--7------|7----7--7---|
|3--------3-33--|5-5-5-5-------|-00-00--6-6-5|---00-00----|

|----------|-----------|--------------|----------------|
|---------5|-----------|--------------|-----------5-5-4|
|---7------|---2------6|7----7--7-----|-----7---7------|
|0-----7---|3------0---|---00-00-6-6-5|0--00--00-------|

|------------------|-------------|-----------|-----------| 3rd time to Coda
|5--------------8--|-------------|--------554|5----------|
|---7--7----------8|7---7--7-----|7---7--7---|---7--7----|
|-00-00--6-6-5-----|--00-00-6-6-5|--00-00----|-00-00--665|

              -------------------------------------------|-------------|
              |1                                         |2
|-------------|------------|------------|---------------||-------------||
|-------------|------------|-----5-----5|--------------:||-------------||
|1------------|----7-----7-|------------|-------------6-||-------------||
|----1---0----|0-0---0-0---|3-3----3-3--|5-55-5-5-3-0---||0------------||

Interlude
|--------------|--------------|---------------|--------------|
|--------------|--------------|--------5------|5-----5-------|
|-------7------|-------7---7--|---------------|------------2-|
|0--0-0---0---0|0--0-0---0---0|3---3-3---3-3-3|--3-----0-0---|

|---------------|---------------|---------------|----------4||
|---------------|---------------|--------5------|---------5-||
|-------7----7--|--------7---7--|---------------|-----------||
|0--0-0---0---0-|0-----0---0---0|3---3-3---3-3-3|3------3---||
                                                                       X3
||------------------|---------------|--------------|----------------||
||:-----------------|---------------|--------------|--4-5-7-8-8-9--:||
||---------7-----7--|----7-7--------|-------------7|7---------------||
||-0---0-0---0-0---0|0-0-----8-8-7-7|3---3-3-3-0---|----------------||
                                              P

|--------------|------------|--------|--------|-------------||
|--------------|------------|--------|--------|-------------||
|-------7-----7|----------3-|--------|--------|-------------||
|0--0-0---0-0--|0-----3-----|3-------|(3)-----|6--5--5--5--5||

Guitar Solo
||-------------------|------------------|----------------|----------------|
||:------------------|------------------|----------------|----------------|
||-7-----7----7------|------------------|7----7---7------|----------------|
||---0-0--0-0---6-6-5|0--6-6-5--0--6-5-5|--0-0-0-0--6-6-5|0--6-6-5-0-3-3-1|

|-------------------|------------------|--------------------|--------------||
|-------------------|------------------|--------------------|-------------:||
|7-----7-----7------|------------------|7------7-----7------|--------------||
|--0-0---0-0---6-6-5|0--6-6-5--0--6-6-5|---0-0---0-0---6-6-5|6--5--5--5--5-||

|--------------|-----------------|--------------|----------------|
|--------------|----5-5-------5-5|--------------|----4---------4-|
|---7-------7--|-----------------|--------------|----------------|
|0-----0-00---0|3-3--------33----|5---5-5-5-005-|2-2-------2-2---|

|--------------|----------------|----------------|----------------||
|--------------|----5-5------5-5|----------------|----------------||
|---7-------7-7|----------------|----------------|----------------||
|0----0-0-00---|3-3-------33----|5---------------|--------------2-||

                                  X4                              D.S. al Coda
||-----------------|---------------||-------------|----------------||
||:----------------|--------------:||-------------|----------------||
||-----------------|---------------||-------------|--------------6-||
||-1(0)6(0)7(0)6(0)|7(0)6(0)7(0)2--||1------------|----------1-1---||

    Coda
    |------|   |-------------|----------------|   |----------------|   |-------------|
 2/4|------|4/4|-------------|-----------5-5-4|5/4|----------------|4/4|-------------|
    |1-----|   |7---7---7----|7----7---7------|   |7---7---7----1--|   |7---7---7----|
    |----1-|   |-00--00---665|--00--00--------|   |--00--00-665---1|   |--00--00--655|
    Bat-ter-   -y!
                                                                           X7
|---------------|----------------|--------||---------------|----------------||
|----------5-5-4|5---------------|--------||:--------------|---------------:||
|7---7---7------|----7---7-------|1-------||---------------|----------------||
|--00--00-------|--00--00---6-6-5|--1-0---||-1-6(0)7(0)6(0)|7(0)6(0)7(0)-2--||

|--------------|-----------|-------------|------------|---------||
|--------------|-----------|-------------|------------|---------||
|--------------|-----------|-------------|------------|---------||
|1-6(0)7(0)6(0)|7----------|(7)----------|2-2--1--1--1|0--------||

The Four Horsemen

Intro                                              2 times
|---------||-------|---|---|---------|---|---|-----------||
|---------||-o---R-|-R-|-R-|---------|---|---|---------o-||
|-3---5-3-||-o-7---|---|---|-R---R---|-R-|-R-|-3---5-3-o-||
|---3-----||-------|---|---|---0---0-|---|---|---3-------||
  q q q q      q h.  w   w   q q q q   w   w   q q q q

fig.1
|-----------------|-------------|-----------------|-------------|
|-----------------|-------------|-----------------|-------------|
|-------7-------7-|-------7-5-5-|-------7-------7-|-------7-3-5-|
|-0-0-0---0-0-0---|-0-0-0-------|-0-0-0---0-0-0---|-0-0-0-------|
  e e e q e e e q   e e e q q q   e e e q e e e q   e e e q q q
  [ 3 ]   [ 3 ]     [ 3 ]         [ 3 ]   [ 3 ]     [ 3 ]

                                   end fig.1
|-----------------|-------------|---------||
|-----------------|---------5---|---------||
|-------7-------7-|-------7---7-|-3---5-3-||
|-0-0-0---0-0-0---|-0-0-0-------|---3-----||
  e e e q e e e q   e e e q q q   q q q q
  [ 3 ]   [ 3 ]     [ 3 ]

  Verses 1,2                 Chorus
||--                         |---------------|-----------------|
||-o  play fig.1  2 times    |---------------|-----------------|
||-o                         |-7-7-7-7-0-7-0-|-7-0-7-0-7-0-7-0-|
||--                         |---------------|-----------------|
                               q e e e e e e   e e e e e e e e

|-----------------|-----------------|-----------------|-----------------|
|-----------------|-----------------|-----------------|-----------------|
|-5-5-5-5-5-0-5-0-|-5-0-5-0-5-0-5-0-|-3-3-3-0-3-0-3-0-|-3-0-3-0-3-0-3-0-|
|-----------------|-----------------|-----------------|-----------------|
  e e e e e e e e   e e e e e e e e   e e e e e e e e   e e e e e e e e

|---------|--------------|---------------|-----------------|
|---------|------7-7-8-9-|---------------|-----------------|
|-2-3-5-7-|-9-10---------|-7-7-0-7-0-7-0-|-7-0-7-0-7-0-7-0-|
|---------|--------------|---------------|-----------------|
  q q q q   q q  q e e e   q e e e e e e   e e e e e e e e
                   [ 3 ]

                   2nd & 3rd time fill 1
|-----------------|-----------------|-----------------|---------|
|-----------------|-----------------|-----------------|---------|
|-5-5-5-0-5-0-5-0-|-5-0-5-0-5-0-5-0-|-3-3-3-0-3-0-3-0-|-2-3-2---|
|-----------------|-----------------|-----------------|-------3-|
  e e e e e e e e   e e e e e e e e   e e e e e e e e   q q q q

                   fill 1
                  |-----------------|
                  |-7-------7---7---|
                  |---5-5-5---5---5-|
                  |-----------------|
                    e e e e e e e e

fig.2
|-----------------|-----------------|-----------------|-------------------|
|-----------------|-----------------|-----------------|-----------7-5-----|
|-7-5-7-5-7-5-7-5-|-7-5-7-5-7-5---5-|-7-5-7-5-7-5-7-5-|-----5-7-5-----7-5-|
|-----------------|-------------7---|-----------------|-6-7---------------|
  e e e e e e e e   e e e e e e e e   e e e e e e e e   e e e e e e e e e
                                                        [ 3 ]

                                      end fig.2            3rd time to coda
|-----------------|-----------------|---------|              --||
|-----------------|-----------------|---------|  play fig.2  o-||
|-7-5-7-5-7-5-7-5-|-7-5-7-5-7-5-----|-3---5-3-|              o-||
|-----------------|-------------7-5-|---3-----|              --||
  e e e e e e e e   e e e e e e e e   q q q q

                              fig.3
|---||-----|  6  |-----------||-----------------------|
|---||-----|-----|-R-R-------||-o---------------------|
|-7-||---R-|-----|-----8p7-7-||-o-7---------7---------|
|-0-||-0---|     |-----------||-----0-0-0-0---0-0-0-0-|
  w    e h..       q e e q q      e e e e e e e e e e
                                    [ 3 ]       [ 3 ]

                                             end fig.3 4 times
|------------------|---------------------|--------------------|
|------------------|---------------------|---------------o----|
|-7---------87--7-|-7---------7---------|-7---------8-8-o-----|
|---0-0-0-0--------|---0-0-0-0---0-0-0-0-|---0-0-0-0----------|
  e e e e e s e. q   e e e e e e e e e e   e e e e e q q
      [ 3 ]              [ 3 ]     [ 3 ]       [ 3 ]

half time (102 bpm)                      164 bpm straight eights
fill A-------------------| 2/4          4/4-----------------|
|-9-7---7-----------------|-/9-7---7-----|---R--------------|
|-----9---9-8-7-5-7---5-7-|------9---9-8-|-7-----R---R------|
|-------------------7-----|--------------|-----3---4---5----|
|-------------------------|--------------|------------------|
  e e e e e e e e e e e e    e e e e e e   q e e e e e e
  [ 3 ] [ 3 ] [ 3 ] [ 3 ]    [ 3 ] [ 3 ]

                                   8 times
||-------------------|-------------------||
||-o-----------------|-----------------o-||
||-o---------8-7-5-7-|-------3---4---5-o-||
||---0-0-5-7---------|-0-0-0---0---0-----||
     e e e e e e e e   e e e e e e e e

Bridge                              8 times
||-------------------|-------------------||
||-o-----------------|-----------------o-||
||-o-----------------|-------3---4---5-o-||
||---0-0-0-0-0-0-0-0-|-0-0-0---0---0-----||
     e e e e e e e e   e e e e e e e e

102 bpm
fill A 2 times

90 bpm
|-------------------------|----------------------|-------------------------|
|-------------------------|----------------------|-------------------------|
|-----7-7-7-7-5-5-5-5-7-5-|-3-3-3-3-3-0-2-2-2-9--|-------------------------|
|-0-0---------------------|----------------------|-0-0-0-0-0-0-2-2-3-2-0-2-|
  e e s s s s e e s s s s   e e s s s s e e e e    e e s s s s e e s s s s

|---------------------------|--------------------------|
|---------------------------|--------------------------|
|-----------R-------------5-|-7-7-7-7-7/9-9-9-9-9-9/10-|
|-3-3-3-3-3---7-7-7-7-7-7---|--------------------------|
  e e s s s s s s s s s s e   e e s s s s e e s s s s

|----------------------------------|-------------------------------------|
|----------------------------12----|-14-14-14-14-14-14-16-16-16-16-16-16-|
|-10-10-10-10-10/14-14-14-14----14-|-------------------------------------|
|----------------------------------|-------------------------------------|
  e  e  s  s  s  s  s  s  e  e  e    e  e  s  s  s  s  e  e  s  s  s  s

|--------------------------------------------|
|-17-17-17-17-17/21-21-21-21-21-21-21-21-----|
|--------------------------------------------|
|--------------------------------------------|
  e  e  s  s  s  s  s  s  s  s  s  s  e

Guitar solo I
|-----------------------|---------------------|--------------------|
|-------4-5---------4-5-|---------4-5---------|--------------------|
|-----7-----5-5-5-7-----|-3-3-5-7-----2-2-2-2-|-7----7-5-5-7-5-0-5-|
|-0-0-------------------|---------------------|-0--0---------------|
  e e e s s e e s s s s   e e s s s s e e e e   e. s q e e s s s s

|-----------------------|-------------------------|
|-----------------5-4-2-|-2-2-2-2-0-2-4-4-4-4-0-4-|
|-3-3-5-3-0-3-2-2-------|-------------------------|
|-----------------------|-------------------------|
  e e s s s s e e s s e   e e s s s s e e s s s s

|--------------------------|----------------------------|
|-5-5-5-4-2-0--------------|----------------------------|
|-------------2-2-0-2-0-2/-|-/7-----7-7-7-7-5-5-7-5-0-5-|
|--------------------------|--0-0-0---------------------|
  e e s s s s e s s s s e     e s s s s s s e e s s s s

|-----------------------------|---------------------------|
|-----5-4-2-------------------|-2---2-0-2-4-2-4-2-4-2-4-0-|
|-3-3-------5-3-5-3-2-3-2-----|---------------------------|
|-------------------------3-2-|---0-----------------------|
  e e s s s s s s s s s s s s   e e e s s s s s s s s s s

|-------------------------|-----------------------------|
|-------------------------|-----------------------------|
|-3-3-3-5-3-0-3-2-2-2-----|-------7-7-7-7-9-9-9-9-9-9-7-|
|---------------------3-2-|-0-0-0-----------------------|
  e s s s s s s e s s e e   e s s s s s s e s s s s s s

|-----------------------|-------------------------|-------------------------|
|-----5-------------5---|-----------------5-7-----|-----------5-7-----------|
|-3-3---3-0-3-2-2-2---7-|-7---7-7-7-7-5-5-----7-5-|-3-3-3-5-7-----2-2-2-2-2-|
|-----------------------|-0-0---------------------|-------------------------|
  e e s s s s s s e e e   e e s s s s e e s s s s   s s e s s s s s s e e e

                          2/4         4/4
|-------------------------|-----------|-----------------|-----||
|---------------------7---|-----------|-----------------|---R-||
|-7---7-7-7-7-5-5-7-5---5-|-3-3-5-3-5-|-2-3-2-3-2-3-2-3-|-2---||
|---0---------------------|-----------|-----------------|-----||
  e e s s s s e e s s s s   e e s s e   e e e e e e e e   q h.

triplet feel
204 bpm                102 bpm

play fig.3  4 times   |  play fill A 2 times ||

204 bpm
|------|---|---|---------|---|---|---------|---------|---------|---------|
|------|---|---|---------|---|---|---------|---------|---------|---------|
|---R--|-R-|-R-|-R---R---|-R-|-R-|-3---5-3-|---R---R-|---R---R-|---R---R-|
|-0----|---|---|---0---0-|---|---|---3-----|-0---0---|-0---0---|-0---0---|
  e h..  w   w   q q q q   w   w   q q q q   q q q q   q q q q   q q q q

|---------|---------|---------|---------||
|---------|---------|---------|---------||
|---R---R-|---R---R-|---R---R-|-3---5-3-||
|-0---0---|-0---0---|-0---0---|---3-----||
  q q q q   q q q q   q q q q   q q q q

D.S. Verse 3 al Coda

Coda                         Guitar solo II
|---||                      ||                     ||-----------------|
|-R-|| play fig.3  4 times  || play fig.3  8 times ||-----------------|
|---||                      ||                     ||-7-5-7-5-7-5-7-5-|
|---||                      ||                     ||-----------------|
  w                                                   e e e e e e e e

|-----------------|-----------------|-------------------|
|-----------------|-----------------|-----------7-5-----|
|-7-5-7-5-7-5---5-|-7-5-7-5-7-5-7-5-|-----5-7-5-----7-5-|
|-------------7---|-----------------|-6-7---------------|
  e e e e e e e e   e e e e e e e e   e e e e e e e e e
                                      [ 3 ]

|-----------------|-----------------|---------|-----||
|-----------------|-----------------|---------|-----||
|-7-5-7-5-7-5---5-|-7-5-7-5-7-5-----|-3---5-3-|---R-||
|-------------7---|-------------7-5-|---3-----|-0---||
  e e e e e e e e   e e e e e e e e   q q q q   q h.

Motorbreath

180 bpm                 fig.1
| 3 |-------|-----| 7 ||-----------------------|---------------------|
|---|-R-----|---R-|---||-o---------------------|---------------------|
|---|---0-1-|-2---|---||-o-2-2-2-0-0-2-2-2-0-0-|---------------------|
|   |-------|-----|   ||-----------------------|-3-3-3-2-2-3-3-3-2-2-|
      h q q   q h.         e s e s e e s e s e   e s e s e e s e s e

                                end fig.1   2 times
|---------------------|-----------------------||
|---------------------|---------------------o-||
|-0-0-0-----0-0-0-----|---------------------o-||
|-------3-3-------3-3-|-2-2-2-0-0-2-2-2-0-0---||
  e s e s e e s e s e   e s e s e e s e s e

  Verses 1,2              fill 1                       end fill 1
||--                      |-----------------|-----------------||
||-o  play fig.1  2 times |-----------------|-----------------||
||-o                      |-2--2--0-2--2--0-|-2--2--0-2--2--0-||
||--                      |-----------------|-----------------||
                            e. e. e e. e. e   e. e. e e. e. e

Chorus
 fig.2
|-------------|-------------|-------------|-----------|-------------|
|-------------|-------------|-------------|-----------|-----R-------|
|-2-2-0-----R-|-5-5-2-----R-|-----R-----R-|---------R-|-2-2-------R-|
|-------3-3---|-------2-2---|-3-3---0-0---|-2-2-0-2---|-------3-3---|
  e q e e q e   e q e e q e   e q e e q e   e q e q q   e q e e q e

                                        end fig.2
|-------------|-------------|-------------------|| 8  --||
|-------------|-------------|-------------------||----o-||
|-5-5-2-----R-|-----R-----R-|-----------------R-||----o-||
|-------2-2---|-3-3---0-0---|-2-2-2-2-2-2-0-2---||    --||
  e q e e q e   e q e e q e   s s s s s s e q q

               Guitar solo I
5/4           4/4
|-------------||-------------------------|-----------------------|
|-------------||-o-----------------------|-----------------------|
|-2-2--2--3---||-o-4-4-4-4-4-4-4-4-2-2-4-|-4-4-4-4-4-4-4-4-------|
|-------------||-------------------------|-----------------4-4-4-|
  h e. e. s+q      e s s s s s s e e e e   e s s s s s s e e e e

                        |1.                      |2.
|-----------------------|-----------------------||---------------||
|-----------------------|---------------------o-||---------R-----||
|-4-4-4-4-4-4-4-4-2-2-4-|-4-4-4-4-4-4-4-------o-||-4-4-4-4---4-3-||
|-----------------------|---------------4-4-4---||---------------||
  e s s s s s s e e e e   e s s s s s s q q q      e e s s e q q
                                        [ 3 ]

play fig.1

Verse 3 : play fig.1  2 times, fill 1, fig.2

       Guitar solo II
|-----||-------------------------|-----------------------|
|-----||-o-----------------------|-----------------------|
|-2-3-||-o-4-4-4-4-4-4-4-4-2-2-4-|-4-4-4-4-4-4-4-4-------|
|-----||-------------------------|-----------------4-4-4-|
  h h      e s s s s s s e e e e   e s s s s s s e e e e

                                          6 times
|-----------------------|-----------------------||
|-----------------------|---------------------o-||
|-4-4-4-4-4-4-4-4-2-2-4-|-4-4-4-4-4-4-4-------o-||
|-----------------------|---------------4-4-4---||
  e s s s s s s e e e e   e s s s s s s q q q
                                        [ 3 ]

|--------------|-----||
|--------------|---R-||
|-2-2-2--------|-4---||
|--------2-2-2-|-----||
  q q q  q q q   q h.
  [ 3 ]  [ 3 ]

Stone Cold Crazy

180 bpm                 fig.1
| 3 |-------|-----| 7 ||-----------------------|---------------------|
|---|-R-----|---R-|---||-o---------------------|---------------------|
|---|---0-1-|-2---|---||-o-2-2-2-0-0-2-2-2-0-0-|---------------------|
|   |-------|-----|   ||-----------------------|-3-3-3-2-2-3-3-3-2-2-|
      h q q   q h.         e s e s e e s e s e   e s e s e e s e s e

                                end fig.1   2 times
|---------------------|-----------------------||
|---------------------|---------------------o-||
|-0-0-0-----0-0-0-----|---------------------o-||
|-------3-3-------3-3-|-2-2-2-0-0-2-2-2-0-0---||
  e s e s e e s e s e   e s e s e e s e s e

  Verses 1,2              fill 1                       end fill 1
||--                      |-----------------|-----------------||
||-o  play fig.1  2 times |-----------------|-----------------||
||-o                      |-2--2--0-2--2--0-|-2--2--0-2--2--0-||
||--                      |-----------------|-----------------||
                            e. e. e e. e. e   e. e. e e. e. e

Chorus
 fig.2
|-------------|-------------|-------------|-----------|-------------|
|-------------|-------------|-------------|-----------|-----R-------|
|-2-2-0-----R-|-5-5-2-----R-|-----R-----R-|---------R-|-2-2-------R-|
|-------3-3---|-------2-2---|-3-3---0-0---|-2-2-0-2---|-------3-3---|
  e q e e q e   e q e e q e   e q e e q e   e q e q q   e q e e q e

                                        end fig.2
|-------------|-------------|-------------------|| 8  --||
|-------------|-------------|-------------------||----o-||
|-5-5-2-----R-|-----R-----R-|-----------------R-||----o-||
|-------2-2---|-3-3---0-0---|-2-2-2-2-2-2-0-2---||    --||
  e q e e q e   e q e e q e   s s s s s s e q q

               Guitar solo I
5/4           4/4
|-------------||-------------------------|-----------------------|
|-------------||-o-----------------------|-----------------------|
|-2-2--2--3---||-o-4-4-4-4-4-4-4-4-2-2-4-|-4-4-4-4-4-4-4-4-------|
|-------------||-------------------------|-----------------4-4-4-|
  h e. e. s+q      e s s s s s s e e e e   e s s s s s s e e e e

                        |1.                      |2.
|-----------------------|-----------------------||---------------||
|-----------------------|---------------------o-||---------R-----||
|-4-4-4-4-4-4-4-4-2-2-4-|-4-4-4-4-4-4-4-------o-||-4-4-4-4---4-3-||
|-----------------------|---------------4-4-4---||---------------||
  e s s s s s s e e e e   e s s s s s s q q q      e e s s e q q
                                        [ 3 ]

play fig.1

Verse 3 : play fig.1  2 times, fill 1, fig.2

       Guitar solo II
|-----||-------------------------|-----------------------|
|-----||-o-----------------------|-----------------------|
|-2-3-||-o-4-4-4-4-4-4-4-4-2-2-4-|-4-4-4-4-4-4-4-4-------|
|-----||-------------------------|-----------------4-4-4-|
  h h      e s s s s s s e e e e   e s s s s s s e e e e

                                          6 times
|-----------------------|-----------------------||
|-----------------------|---------------------o-||
|-4-4-4-4-4-4-4-4-2-2-4-|-4-4-4-4-4-4-4-------o-||
|-----------------------|---------------4-4-4---||
  e s s s s s s e e e e   e s s s s s s q q q
                                        [ 3 ]

|--------------|-----||
|--------------|---R-||
|-2-2-2--------|-4---||
|--------2-2-2-|-----||
  q q q  q q q   q h.
  [ 3 ]  [ 3 ]

the guys and girl who tabbed all the songs on all 3 disc's

Sandman- Legend
Creep- Eros Fratini
Harvester- Anonomys
Sanitarium- Maf
Sad- John Rose
Wolf- Dan Pfeifer
Unforgiven- Dorothy St. Claire
Beholder- Dan Pfeifer
Black- Keith Rogers
Frayed- hypadermic@aol.com
Justice- Anonomys

Never- Anonomys
Bellz- Eros Fratini
Fade- Eros Fratini
Puppetz- Maf
Seek- Steve Gorenberg
Whip- Steve Gorenberg

Nothin'- Kevin McDonald
Roam- Dorothy St. Claire
Evil- Anonomys
Caress- Eros Fratini
One- Taz
Battery- Maf
Horse- Steve Gorenberg
Motor- Steve Gorenberg
Stone- Mark Craig

The guy who always puts this shit together
BIG TOMMY P
comments
We did not receive enough feedback on this tab! Please rate:
1 2 3 4 5
I want to post or [tab]
guest
You may want to rate the tab now too:
select rating
Please do not post tabs as comments. Select "correction" instead!