Oops, an error
Loading. Please wait.

Live Shit Binge And Purge San Diego Part 2 Tab

2,597 views 1 this week
2 commentsread comments
1 2 3 4 5
worth learning
x 1
add to favorites launch autoscroll
font size
0
reset
Autoscroll
+/-
esc
set tempo
stop
Contributor
WARNING: You are trying to view
                                    content from Ultimate-Guitar.com
                                    in an unauthorized application,
                                    which is prohibited.

                                    Please use an official Ultimate
                                    Guitar Tabs application for iPhone,
                                    iPad or Android to access legitimate
                                    chords, guitar, bass, and drum tabs
                                    from Ultimate-Guitar.com database.

                                    Type "ultimate guitar tabs" in Apple
                                    App Store's or Android Market's
                                    search to find the application.
Band- Metallica
Album- Live Shit Binge And Purge San Diego Disc 2

1.THE FOUR HORSEMEN

intro 

2a) 
D-----------------------------------------5h7p5---- 
A--7-5-7-5-7-5-7-5---5-7-5-7-5-7-5----5h7-------7p5 
E--0-0-0-0-0-0-0-0-6---0-0-0-0-0-0--7-------------- 
pm........................................... 

2b) continued 
D--------------------------------------5---7-5 
A--7-5-7-5-7-5-7-5---5-7-5-7-5-7-5---5-3-5-5-3 
E--0-0-0-0-0-0-0-0-6---0-0-0-0-0-0-6-----3---- 
pm........................................... 
galloping 


3)                           1st   2nd   3rd 
D--------9-------9-------9-|-7-7-|-5-7-|-12-9-5---7-5 repeat. 
A--------7-------7-------7-|-5-5-|-3-5-|-10-7-3-5-5-3 
E--0-0-0---0-0-0---0-0-0---|-----|-----|--------3---- 
pm......   .....   ..... 
main 


4) 
D--9--9-7--7-5--5-4-*-9--9-7--7-5--4-5-4-- 
A--7--7-5--5-3--3-2-*-7--7-5--5-3--2-3-2-5 
E-------------------*--------------------3 
pm                                 ....... 
The horsemen are drawing nearer. 
*=slide pick 


5) 
D----------------------------------9-9-----------10-10 
A----------------------------------7-7-----------8--8- 
E--0-0-0-0-0--0-0-0-0-0--0-0-0-0-0-----0-0-0-0-0------ 
pm................................     ......... 


6) 
D------------------------------------------- 
A--7-5----5-------------------7-5----5------ 
E------7----7-6-5-3-5--0-3-5------7----7-6-5 


7) 
D--5-6-7----------3-2-0-2-------5-6-7 
A--3-4-5------0-3---------------3-4-5 
E---------0-0-------------0-0-0------ 
pm        ...             ..... 
Time... 


8) 
D--------------------------5-6-7 
A--------------------------3-4-5 
E--0-0-0-0-0-0-0-0-0-0-0-0------ 


9) 
G--------------------------4---------2---- 
D------9---------7---------------------2-- 
A--7-7---7---5-5---5---3-3---3---2-2-----2 
E----------7---------5---------3---------- 
Not often played live (although I have heard it) 


-------------------------------------------------------------------- 

solo 1 
|-----------------------------------------|--15b--12--15--14b~~~----| 
|--15b--15b--15b~~~--(15)p12--15--15b~~~--|-------------------------| 
|-----------------------------------------|---------------------\9--| 
|-----------------------------------------|-------------------------| 
|-----------------------------------------|-------------------------| 
|-----------------------------------------|-------------------------| 
                                                                                 

                                                                                 
7---------9--7------------10--9--7----------| 
---10--7--------10--8--7------------7h10p7--| 
--------------------------------------------| 
--------------------------------------------| 
--------------------------------------------| 
--------------------------------------------| 
                                                                                 

                                                                                 
---------------------------------|-------------------------------------| 
7--10p7--------------------------|-----12--12--12----12----12--12--12--| 
---------9--7--6h7--6------------|--9--11--11--11/11-11/11-11--11--11--| 
-----------------------7---------|-------------------------------------| 
--------------------------7--(7)\|-------------------------------------| 
---------------------------------|-------------------------------------| 
                                                                                 

                                                                                 
---------------------------------------------------------------------| 
---------------------------------------------------------------------| 
14b~~~--(14)--14p11--------------------------------------------------| 
--------------------14--12------12--14b--(14)p12------12~~~--12--12--| 
----------------------------14-------------------14------------------| 
---------------------------------------------------------------------| 
                                                                                 

                                                                                 
------------------------------------------------------------------------| 
-------------------------------------------------12--13p12------12--13--| 
11h12--11------11--12--11h12p11------11--12--14-------------14----------| 
-----------14--------------------14-------------------------------------| 
------------------------------------------------------------------------| 
------------------------------------------------------------------------| 
                                                                                 

                                                                                 
---------------------------------20--------| 
13/15--15/17--17/19--19/20--20~~~-----(20)\| 
-------------------------------------------| 
-------------------------------------------| 
-------------------------------------------| 
-------------------------------------------| 
                                                                                 

Gtr.2                                                                                 
17b--17b--15--17p15--14--15p14\12--14p12---------------------| 
----------------------------------------15--15--14--12--14\--| 
-------------------------------------------------------------| 
-------------------------------------------------------------| 
-------------------------------------------------------------| 
-------------------------------------------------------------| 
                                                                                 

                                                            
-------------------------------------------------------------------| 
12--10--12--10--8--10--8-----8-------------------------------------| 
--------------------------9-----9--7--9--7-------------------------| 
--------------------------------------------9--7-------------------| 
--------------------------------------------------10--7------------| 
---------------------------------------------------------10--7--7--| 
                                                         P.M.----|                      

Gtr.3                                                                                 
17b--17b--15--17p15--14--15p14--12--14p12--10--12p10--8--| 
---------------------------------------------------------| 
---------------------------------------------------------| 
---------------------------------------------------------| 
---------------------------------------------------------| 
---------------------------------------------------------| 
                                                                                 

                                                                                 
10p8--7--8p7--5--7--5-----5--------------------------------------| 
-----------------------8-----8--7--8p7--5--7--5--7---------------| 
----------------------------------------------------7--6---------| 
----------------------------------------------------------7--(7)/| 
-----------------------------------------------------------------| 
-----------------------------------------------------------------| 
                                                                                 

Gtrs.2&3                                                                                 
---------------------------------------------------------------12------12--| 
---------------------------8-----8--10--8--10--12--10--12--15------15------| 
---------7-----7--9--7--9-----9--------------------------------------------| 
9--7--9-----9--------------------------------------------------------------| 
---------------------------------------------------------------------------| 
---------------------------------------------------------------------------| 
P.M.------------------------------|                                                                                 

                                                                                 
15p12--12--12--15p12--12--12--12--15p12--12--12--12--12--12--12--12--15p12------ 
-------------------------------------------------------------------------------- 
-------------------------------------------------------------------------------- 
-------------------------------------------------------------------------------- 
-------------------------------------------------------------------------------- 
-------------------------------------------------------------------------------- 
                                                                                 

                                                                                 
12--12--12--12--12--15b--15b--| 
------------------------------| 
------------------------------| 
------------------------------| 
------------------------------| 
------------------------------| 
                                                                                 

                                                                                 
15b--15--12--15p12--15p12--15--12--12h15p12------12--15p12--12h15p12------12---- 
--------------------------------------------15-----------------------15--------- 
-------------------------------------------------------------------------------- 
-------------------------------------------------------------------------------- 
-------------------------------------------------------------------------------- 
-------------------------------------------------------------------------------- 
                                                                                 

                                                                                 
15p12--12h15p12------12--15p12--12--| 
-----------------15-----------------| 
------------------------------------| 
------------------------------------| 
------------------------------------| 
------------------------------------| 
                                                                                 

Gtr.2                                                                                 
15p12------12--15p12--12h15p12------12--15p12--15p12------12--15b--15b--15b--15\ 
-------15-----------------------15--------------------15------------------------ 
-------------------------------------------------------------------------------- 
-------------------------------------------------------------------------------- 
-------------------------------------------------------------------------------- 
-------------------------------------------------------------------------------- 
        
                                                                          
Gtr.3                                                                              
17p12--12h15p12------12--15p12--17p12--1h15p12------12--15p12--15--12----------- 
-----------------15-----------------------------15---------------------15------- 
-------------------------------------------------------------------------------- 
-------------------------------------------------------------------------------- 
-------------------------------------------------------------------------------- 
-------------------------------------------------------------------------------- 
                                                                                 

                                                                                 
-------------------|------------------------------------------------------| 
12-----------------|------------------------------------------------------| 
----14--12---------|--12h14--12p11h12p11------11--------------------------| 
------------14--12\|----------------------14------14--12p11h12p11\9--11p9\| 
-------------------|------------------------------------------------------| 
-------------------|------------------------------------------------------| 
                                                                                 

                                                                                 
---------------------------------------| 
---------------------------------------| 
---------------------------------------| 
7~~~-----------------------------------| 
---------------------------------------| 
---------------------------------------| 
                                                                                 

                                                                                 
-------------------------------------------------------|-----------------------| 
----------------------------------10--8--7h8p7---------|-----------------------| 
---7--9--7--9b--(9)p7-----7--9--7----------------7-----|-----------------------| 
9---------------------9----------------------------9---|--7~~~-----------------| 
-------------------------------------------------------|-----------------------| 
-------------------------------------------------------|-----------------------| 


solo 2 the faster one 
*There is a lot of riff repetition in this solo, for space sake I'll write the riff 
once and then repeat* 


1) 
e-----------------------------------14 
B--------------------------14----14--- 
G-----------------14----13----12------ 
D--------14----13----12--------------- 
A-----13----12------------------------ 
E--12--------------------------------- 


2)                                 ^   ^   ^  ^  ^ 
e-----12-15-12----12-17-12---    ----------------- 
B--15----------15----------15 8x -15--15--15-15-15 
G----------------------------    ----------------- 
D----------------------------    ----------------- 
A----------------------------    ----------------- 
E----------------------------    ----------------- 


3) 
e-------------    ------------------------------------------------ 
B--15p14p12--- 8x -15p14p12----12--------------------------------- 
G-----------14    ----------14----14-12-14-12----12--------------- 
D-------------    ----------------------------14----14-12-14-12--- 
A-------------    ----------------------------------------------14 
E-------------    ------------------------------------------------ 
                    (or something close) 

4)                            AH 
e------------------------------- 
B-----------------------12-12-12 
G-----------------------12------ 
D-----------------12-14--------- 
A-----------12-14--------------- 
E--12-14-15--------------------- 


5) **************************     ^   ^ 
e--19-19-19-19-19-19-19h22p19    -22--22 
B---------------------------- 6x ------- 
G----------------------------    ------- 
D----------------------------    ------- 
A----------------------------    ------- 
E----------------------------    ------- 
The 19's are picked as fast as possible, probably more than I have written, 
but I couldn't count them. 


6)                                            ^  ^  ^ 
e--19-21-22-21-19----19------------------    --------- 
B-----------------22----22-21-22-21-19--- 3x --------- 
G--------------------------------------21    -21-21-21 
D----------------------------------------    --------- 
A----------------------------------------    --------- 
E----------------------------------------    --------- 


7a)              7b)        7c)        7d)        ^   ^ 
e-----12-15-12  -19p15---  -17p14---  -21p17---  -22--22 
B--15---------  -------17  -------15  -------17  ------- 
G-------------  ---------  ---------  ---------  ------- 
D-------------  ---------  ---------  ---------  ------- 
A-------------  ---------  ---------  ---------  ------- 
E-------------  ---------  ---------  ---------  ------- 

2.FOR WHOM THE BELL TOLLS

Guitar 1 (Hetfield)
|-----------------------|
|-----------------------|
|-----------------------|
|---5-5----5-5----2-----|
|---5-5----5-5----2-----|     x8
|---3-3----3-3----0-----|

Guitar 2 (Hammet)
|---------------------------------|
|---------------------------------|
|---------------------------------|
|--12-11-10-9-------12------------|
|--------------10-9---------------|  x8
|-----------------------10-9------|

Both
|-------------------------|
|-------------------------|
|-------------------------|
|---5-5----5-5----2~------|
|---5-5----5-5----2~------|     x4
|---3-3----3-3----0~------|

|--------------------------------------|
|--------------------------------------|
|--------------------------------------|
|-------------------------------3------|
|---5-4-3-2-5-4-3-2-5-4-3-2-3-4-1------|     x4
|---3-2-1-0-3-2-1-0-3-2-1-0-1-2--------| 

Guitar 1 (Hetfield)
|-----------------------------------------------------------------|
|-----------------------------------------------------------------|
|----------------------5---------------------------5~-------------|
|---2~-------5~--------5---2~-----------5~---------5~--------7~---|
|---2~-------5~--------3---2~-----------5~---------3~--------7~---|  x2
|---0~-------3~------------0~-----------3~-------------------5~---|

Guitar 2 (Hammet)
|------------------------|
|------------------------|
|---12-9-11-----9-11-----|
|------------12----------|
|------------------------|     x30
|------------------------|



Both
|--------------------------------------------------------------|
|--------------------------------------------------------------|
|-----------------------------------------------------3--------|
|-2---5~--2---7~--2---5/8/4~--2---5~--2---7~--2---5---3--4--3--|
|-2---5~--2---7~--2---5/8/4~--2---5~--2---7~--2---5---1--4--3--| x2
|-000-3~--000-5~--000-3/6/2~--000-3~--000-5~--0-003-00---2--1--|

|-----------------------------------------------------------------|
|-----------------------------------------------------------------|
|----------------------5---------------------------5~-------------|
|---2~-------5~--------5---2~-----------5~---------5~--------7~---|
|---2~-------5~--------3---2~-----------5~---------3~--------7~---|  x2
|---0~-------3~------------0~-----------3~-------------------5~---|

|--------------------------------------------------------------|
|--------------------------------------------------------------|
|-----------------------------------------------------3--------|
|-2---5~--2---7~--2---5/8/4~--2---5~--2---7~--2---5---3--4--3--|
|-2---5~--2---7~--2---5/8/4~--2---5~--2---7~--2---5---1--4--3--| x2
|-000-3~--000-5~--000-3/6/2~--000-3~--000-5~--0-003-00---2--1--|


Guitar 1 (Hetfield)
|--------------------------------------|
|--------------------------------------|
|--12-9-11----9------------------------|
|----------12---11-12--9-11----9-10----|
|---------------------------12---------|     x3
|--------------------------------------|   

|------------------------------------------|
|------------------------------------------|
|--12-9-11----9-----------------------12~--|
|----------12---11-12--9-11----9-10--------|
|---------------------------12-------------|   x2
|------------------------------------------|  

|-----------------------------------------------|
|----------------------------------------12~----|
|--12-9-11----9---------------------------------|
|----------12---11-12--9-11----9-10-------------|
|---------------------------12------------------|
|-----------------------------------------------|  

Guitar 2 (Hammet)

|------------------------------------------------|
|------------------------------------------------|
|------------------------------------------------|
|--2~-------------------------------------2~-----|
|--2~-------------------------------------2~-----|
|--0~-------------------------------------0~-----|

|-------------------------------------------------------------------------|
|-------------------------------------------------------------------------|
|-------------------------------------------------------------------------|
|--2~------------------------------------5------5-5-5-5------5-5-5--------|
|--2~------------------------------------5------5-5-5-5------5-5-5--------|
|--0~------------------------------------3------3-3-3-3------3-3-3--------|

|------------------------------------------------|
|------------------------------------------------|
|----------------------------------------4~------|
|--2~------------------------------------4~------|
|--2~------------------------------------2~------|
|--0~--------------------------------------------|

|----------------------------------------------|
|----------------------------------------------|
|----------------------------------------------|
|--2~-------------------------------------2~---|
|--2~-------------------------------------2~---|
|--0~-------------------------------------0~---|

|--------------------------------------------------------------------|
|--------------------------------------------------------------------|
|--------------------------------------------------------------------|
|--2~------------------------------------5------5-5-5-5------5-5-5---|
|--2~------------------------------------5------5-5-5-5------5-5-5---|
|--0~------------------------------------3------3-3-3-3------3-3-3---|

|------------------------------------------------|
|------------------------------------------------|
|-----------------------------------------4~-----|
|--2~-------------------------------------4~-----|
|--2~-------------------------------------2~-----|
|--0~--------------------------------------------|

Both
|-----------------------------------------------------------------|
|-----------------------------------------------------------------|
|----------------------5---------------------------5~-------------|
|---2~-------5~--------5---2~-----------5~---------5~--------7~---|
|---2~-------5~--------3---2~-----------5~---------3~--------7~---|  x2
|---0~-------3~------------0~-----------3~-------------------5~---|

|--------------------------------------------------------------|
|--------------------------------------------------------------|
|-----------------------------------------------------3--------|
|-2---5~--2---7~--2---5/8/4~--2---5~--2---7~--2---5---3--4--3--|
|-2---5~--2---7~--2---5/8/4~--2---5~--2---7~--2---5---1--4--3--| x2
|-000-3~--000-5~--000-3/6/2~--000-3~--000-5~--0-003-00---2--1--|

|----------------------------------------------|
|----------------------------------------------|
|----------------------------------------------|
|---2~--------4-4----2~------4-4---5-5---------|
|---2~--------4-4----2~------4-4---5-5---------| x8 fading...
|---0~--------2-2----0~------2-2---3-3---------|

3.FADE TO BLACK

Acoustic gtr.
|------------------------|------------------------|
|------------------------|------------------------|
|-------0----------------|-------0----------------|
|----4-----4-----4-----4-|----4-----4-----4-----4-|
|-2-----------2-----5----|-0-----------0-----5----|
|------------------------|------------------------|

|------------------------|------------------------|
|------------------------|------------------------|
|-------0----------------|-------2----------------|
|----4-----4-----4-----4-|----2-----2-----2-----2-|
|-2-----------2-----5----|-4-----------4-----0----|
|------------------------|------------------------|

w/Flanger or chorus
|----------------------------------------------------------|
|-----------------------------------------------7----------|
|--------------------------------------------7-(7)---------|
|--------------------------------------/-9-----------9-----|
|----------------------------------------------------------|
|----------------------------------------------------------|

|--------------------------|-----------------------|
|-----7--8-/-10------8--10-|-12---10---8---10------|
|--------------------------|-----------------------|
|--------------------------|-----------------------|
|--------------------------|-----------------------|
|--------------------------|-----------------------|

           p  p sl  h p           h
|------------------------------|---------------------|
|-(10)---12^10^8-\-7^8^7-----7-|-7^8--7-----7--------|
|-------------------------9----|---------9-----9---7-|
|------------------------------|---------------------|
|------------------------------|---------------------|
|------------------------------|---------------------|

                    sl  sl               p
|----------------------------|-----------------|-----|
|----------------------------|---------------8-|-7---|
|----------------------7-\-6-|----------7^6----|-----|
|-7---9----------(9)-\-------|-----------------|-----|
|----------------------------|-----------------|-----|
|----------------------------|-----------------|-----|

   sl   ~~~~~~~~~~~~~~
|---------------------|
|-8-/-10--------------|
|---------------------|
|---------------------|                   
|---------------------|                     
|---------------------|                     
                                           full  
                   p                        )\ ~~~~~~~~~~~~~
|---14-19-14-----15^14---------------------/--\------------|
|-15--------15--------15---17-15-14-------/----\-----------|
|-------------16--------14---------16-14-/----(14)---------|
|----------------------------------------------------------|
|----------------------------------------------------------|
|----------------------------------------------------------|

    h     ~~~~~~~~~~   h                  h  p
|---------------------------------------------------------|
|---------------------------------14-15-14^15^14----14^15-|
|-14^16---------------------14-16----------------16-------|
|--------14----------14^16--------------------------------|
|---------------------------------------------------------|
|---------------------------------------------------------|

                                         ~~~~~~~~~~~~~~~~~
|----19--17--15----------15--17-|-14----------------------|
|-14----------------------------|----15-------------------|
|-------------------------------|-------16----------------|
|-------------------------------|-------------------------|
|-------------------------------|-------------------------|
|-------------------------------|-------------------------|

|-14--15--14--------------14--15--14------17----15--14-----|
|---------------15--------------------15-------------------|
|------------------14--------------------------------------|
|----------------------------------------------------------|
|----------------------------------------------------------|
|----------------------------------------------------------|

                                              h  h
|------------------------|---------12-13-15-12^13^15---17--|
|------------------------|-12-13-15------------------15----|
|------------------12-14-|---------------------------------|
|----------12-14-15------|---------------------------------|
|-12-14-15---------------|---------------------------------|
|------------------------|---------------------------------|

Acoustic gtr.
|------------------------|---------------------------|
|------------------------|-------------------0----3--|
|------------------------|-------1--------1----------|
|-------0-----------2----|----2--------2-------------|
|----3-----------2-----2-|-2--------2----------------|
|-1--------1--4----------|---------------------------|

   h             h
|----------0----------|------------0----------|
|-0^1---------------1-|-(1)---1-------------0-|
|-2---2---------0^2---|--0--------------0^2---|
|-2-----2-----2-------|--2------2-----2-------|
|-0-------------------|--3--------------------|
|---------------------|-----------------------|

                                        sl
|------------3-----3--3-|---------------------|
|-(0)---3---------------|---------0--(1)-/-3--|
|--0---------------2--0-|-0-------0--(2)-/-4--|
|---------0-----0-------|-----2---------------|
|-----------------------|-------2-------------|
|--3--------------------|-0-------------------|

   h              h                       h
|----------0-----------|------------0----------|
|-0^1----------------1-|-(1)---1-------------0-|
|-2---2----------0^2---|--0--------------0^2---|
|-2-----2-----2--------|--2------2-----2-------|
|-0--------------------|--3--------------------|
|----------------------|-----------------------|

                     h p                        sl
|-------------3-------------|-0------------------------|
|-(0)---3-------------------|-0----------0---(1)-/-3---|
|--0----------------0^2^0-0-|-0----------0---(2)-/-4---|
|----------0-----0----------|-2----2-------------------|
|---------------------------|---------2----------------|
|--3------------------------|----0---------------------|

P.M.--------------------|               P.M.-------|
|------------------------|--------------------------|
|-5--5--5--5--5--5--5--5-|-0-------2--2-------------|
|-5--5--5--5--5--5--5--5-|-2-------2--2-------------|
|-2--2--2--2--2--2--2--2-|-2-------2--2-------------|
|------------------------|-0-------0--0-----------5-|
|-0--0--0--0--0--0--0--0-|---------------0--0--3----|

               P.M.-------|
|--------------------------|
|-5-------5--5-------------|
|-5-------5--5-------------|
|-5-------5--5-------------|
|-3-------3--3-----------5-|
|---------------0--0--3----|
                                 P.M.--------|
|---------------------------------------------|
|-2-------2--2-----7---9-----9--9-------------|
|-2-------2--2-----7---9-----9--9-------------|
|-2-------2--2-----7---9-----9--9--------5--5-|
|-0-------0--0-----5---7-----7--7--------3--2-|
|----------------------------------0--0-------|

               P.M.------|                P.M.-------|
|--------------------------|--------------------------|
|-0-------2--2-------------|-5-------5--5-------------|
|-2-------2--2-------------|-5-------5--5-------------|
|-2-------2--2-------------|-5-------5--5-------------|
|-0-------0--0-----------5-|-3-------3--3-----------5-|
|---------------0--0--3----|---------------0--0--3----|

               P.M.--|
|---------------------|------------|
|-2-------2--2--------|------------|
|-2-------2--2--------|-1----------|
|-2-------2--2--------|-2----------|
|-0-------0--0--5--5--|-2----------|
|---------------3--2--|-0----------|

    ~~~~~~~~~~~           ~~~~~    sl
|---------------------|--------------------------|
|-10-----------10--12-|-13------13-/-15--13--12--|
|--9------------9--11-|-12------12-/-14--12--11--|
|---------------------|--------------------------|
|---------------------|--------------------------|
|---------------------|--------------------------|

  ~~~~~~~~~~~~~~~~   sl       ~~~~~~~~~~~  sl        sl
|--------------------------|------------------------------|
|--------------------------|------------------------------|
|-12---------------12-/-14-|-9-----------9-/-11---11-/-12-|
|-12---------------12-/-14-|-9-----------9-/-11---11-/-12-|
|--------------------------|------------------------------|
|--------------------------|------------------------------|
                                            
                                            full
                                             /\  
    sl   ~~~~~~~~~~~~~~           ~~~~~~     ) )\
|-----------------------------|-------------/-/--\---------|
|--------------------------12-|-13------15-/-/------13-----|
|-12-/-14--------------14--11-|-12------14--/-------12-----|
|-12-/-14--------------14-----|----------------------------|
|-----------------------------|----------------------------|
|-----------------------------|----------------------------|

     full    full    full    full
      /\      /\      /\      /\
      ) )     ) )     ) )     ) )\  ~~~~~~~~~~~~~~~~~~~~~~~
|----/-/-----/-/-----/-/-----/-/|-\------------------------|
|-15/-/---15/-/---15/-/---15/-/-|(15)----------------------|
|-14-/----14-/----14-/----14-/--|(14)----------------------|
|-------------------------------|--------------------------|
|-------------------------------|--------------------------|
|-------------------------------|--------------------------|

   sl                    sl          sl
|---------------------|--------------------------|
|---------------------|--------------------------|
|-7-/-9-------9---9---|-7-/-9-------9-/-12--11---|
|-7-/-9-------9---9---|-7-/-9-------9-/-12--11---|
|-5-/-7-------7---7---|-5-/-7-------7-/-10---9---|
|---------------------|--------------------------|

                        P.M.------------------------|
|-----------------------|-------------------------------|
|-----------------------|-------------------------------|
|---7-------7---7-------|-----------------------------4-|
|---7-------7---7-------|-9-9-9--7-7-7--5-5-5--4-4-4----|
|---5-------5---5-------|-------------------------------|
|-----------------------|-------------------------------|

   sl                    sl          sl           
|---------------------|--------------------------|
|---------------------|--------------------------|
|-7-/-9-------9---9---|-7-/-9-------9-/-12--11---|
|-7-/-9-------9---9---|-7-/-9-------9-/-12--11---|
|-5-/-7-------7---7---|-5-/-7-------7-/-10---9---|
|---------------------|--------------------------|

                        P.M.------------------------|
|-----------------------|-------------------------------|
|-----------------------|-------------------------------|
|---7-------7---7-------|-------------------------------|
|---7-------7---7-------|-9-9-9--7-7-7--5-5-5--4-4-4--5-|
|---5-------5---5-------|-------------------------------|
|-----------------------|-------------------------------|

   sl              ~~~~~~~~    sl                  ~~~~~~~
|--------------------------|------------------------------|
|-7-/-8-------8---8--------|-7-/-8-------8---12---10------|
|--------------------------|------------------------------|
|-7-/-9-------9---9--------|-7-/-9-------9---12---11------|
|--------------------------|------------------------------|
|--------------------------|------------------------------|

               ~~~~~~~ P.M.-----------------------------|
|---------------------|------------------------------------|
|-7-------7-----------|-12-12-12--10-10-10--8-8-8--7-7-7---|
|-------------7-------|------------------------------------|
|-7-------7---7-------|-12-12-12--11-11-11--9-9-9--7-7-7-9-|
|---------------------|------------------------------------|
|---------------------|------------------------------------|

    sl             ~~~~~~~                        ~~~~~~~~
|-------------------------|-------------------------------|
|-7-/-8-------8---8-------|-7---8-------8---12---10-------|
|-------------------------|-------------------------------|
|-7-/-9-------9---9-------|-7-/-9-------9---12---11-------|
|-------------------------|-------------------------------|
|-------------------------|-------------------------------|

                ~~~~~~~~~~~ P.M.-----------------------|
|--------------------------|-------------------------------|
|--------------------------|-7-7-7--5-5-5--3-3-3--2-2-2--3-|
|--11------11--11----------|-7-7-7--6-6-6--4-4-4--2-2-2--4-|
|---7-------7---7----------|-------------------------------|
|---9-------9---9----------|-------------------------------|
|--------------------------|-------------------------------|

P.M.--------|          P.M.--------|
|----------------------|------------------------|
|----------------------|------------------------|
|--------------9-----9-|--------------12-11-----|
|--------------9-----9-|--------------12-11-----|
|--------------7-----7-|--------------10--9-----|
|-0--0--0--0-----------|-0--0--0--0-------------|

P.M.--------|        P.M.------------------------|
|--------------------|---------------------------------|
|--------------7-----|---------------------------------|
|--------------7-----|------------------------------4--|
|--------------7-----|-9-9-9--7-7-7--5-5-5--4-4-4--(5)-|
|--------------5-----|---------------------------------|
|-0--0--0--0---------|---------------------------------|

       sl                                      P.M.-|
|-----------------------|--------------------------------|
|-----------------------|--------------------------------|
|-----------------------|--------------------------------|
|-------/-4-------2/5---|-(2/5)--4-------2---------------|
|-*2/5------------------|--------5-------4--2/5--4-------|
|-----------------------|------------------------5---2/5-|
*Gtr. II indicated to left slash in TAB

       sl                                   P.M.-|
|---------------------|------------------------------|
|---------------------|------------------------------|
|---------------------|------------------------------|
|-------/-4-------2/5-|-(2/5)-4-------2--------------|
|-4-------------------|-------5-------4--2/5--4------|
|-5-------------------|-----------------------5--2/5-|

        sl                                     P.M.-|
|------------------------|------------------------------|
|------------------------|------------------------------|
|------------------------|------------------------------|
|--------/-4-------2/5---|-(2/5)-4-------2--------------|
|-2----------------------|-------5-------4--2/5--4------|
|-3----------------------|-----------------------5--2/5-|

         sl                                     P.M.--|
|-------------------------|----------------------------|
|-------------------------|----------------------------|
|-------------------------|----------------------------|
|---------/-4-------2/5---|-(2/5)-7--------5--4--2--4--|
|-4-----------------------|-------5--------4--2--------|
|-5-----------------------|----------------------5--2--|

Guitar Solo:             Full    Full   Full
       sl                  )       )      )
|------------------|------/-------/------/----|
|------------------|-----/-------/------/-----|
|----------------7-|---9/------9/-----9/------|
|-------/-9---9----|--------------------------|
|------------------|--------------------------|
|------------------|--------------------------|

         Full
           )\   p                   
|---------/--\-------------------|
|--------/----\---------------7--|
|-(9)--9/----(9)^7--9---9---9----|
|--------------------------------|
|--------------------------------|
|--------------------------------|


   h     h p        h
|----------------------------------|
|-7^8---7^8^7------7^8-------7-----|
|---------------7----------------7-|
|----------------------------------|
|----------------------------------|
|----------------------------------|

   h                           sl              h
|-----------------------------------|----------------------|
|-7^8---7-----10---10---8---10-/-12-|-10---8--8^10---8---7-|
|----------7------------------------|----------------------|
|-----------------------------------|----------------------|
|-----------------------------------|----------------------|
|-----------------------------------|----------------------|


|-----------------------|----------------------------------|
|---8---10-----8--------|----------------------------------|
|-----------9-----9---7-|----------------------------7---9-|
|-----------------------|-----7-------9---9-------9--------|
|-----------------------|----------------------------------|
|-----------------------|----------------------------------|

    Full
      )\   p                        
|----/--\--------------------------|
|---/----\-------------------------|
|-9/----(9)^7--9---7---7-----7---9-|
|-------------------------9--------|
|----------------------------------|
|----------------------------------|

    Full         Full        Full        Full
      )     p      )    p      )    p      )
|----/--7---------/-7---------/-7---------/---|
|---/-----10^7---/----10^7---/----10^7---/--7-|
|-9/-----------9/----------9/----------9/-----|
|---------------------------------------------|
|---------------------------------------------|
|---------------------------------------------|

         Full       Full        Full        Full
    p      )   p      )    p      )    p      )
|---------/----------/-7---------/-7---------/-7-|
|-10^7---/-7-10^7---/----10^7---/----10^7---/----|
|------9/---------9/----------9/----------9/-----|
|------------------------------------------------|
|------------------------------------------------|
|------------------------------------------------|

    p         p    p         p    p
|-10^7----7-10^7-10^7----7-10^7-10^7----7-|
|------10-------------10-------------10---|
|-----------------------------------------|
|-----------------------------------------|
|-----------------------------------------|
|-----------------------------------------|

    p         p    p         p    p
|-10^7----7-10^7-10^7----7-10^7-10^7----7-|
|------10-------------10-------------10---|
|-----------------------------------------|
|-----------------------------------------|
|-----------------------------------------|
|-----------------------------------------|

    Full    Full
      )       )
     /       /
|-10/-----10/---10-8-7-8-7----|-7-------------------------|
|--------------------------10-|---10-8-10-8-7-8-7---7-----|
|-----------------------------|-------------------9---9-7-|
|-----------------------------|---------------------------|
|-----------------------------|---------------------------|
|-----------------------------|---------------------------|

                p
|----------------------|------7------------|
|--------------8^7---7-|-8-10---10-8-7-----|
|------------------9---|---------------9-7-|
|-7-----9---9----------|-------------------|
|----------------------|-------------------|
|----------------------|-------------------|

             p                    ~~~~~~
|-------------------|------7--8--7------7--8-|
|-----------8^7---7-|-8-10-------------------|
|---------------9---|------------------------|
|-7---9--9----------|------------------------|
|-------------------|------------------------|
|-------------------|------------------------|

|-10-8-7-8-7----7-------------|-------------------------|
|------------10---10-8-10-8-7-|-8-7---7-----------------|
|-----------------------------|-----9---9-7-9-7-6-7-6---|
|-----------------------------|-----------------------9-|
|-----------------------------|-------------------------|
|-----------------------------|-------------------------|

|------------------7--------|--------------7--------------|
|-----------7-8-10---10-8-7-|-8-7---7-8-10---10-8-7-8^7---|
|-----6-7-9-----------------|-----9---------------------9-|
|-7-9-----------------------|-----------------------------|
|---------------------------|-----------------------------|
|---------------------------|-----------------------------|
                              
                            Full
                              _____Grad. Release
                              \    \3/4   
   Full  Full  Full  Full      \            \1/2
      )     )     )     )       )                    \ 1/4
|----/-----/-----/-----/---|---/---------------------------|
|---/-----/-----/-----/----|--/----------------------------|
|-9/----9/----9/----9/-----|-9-9-9-9-9-9-9-9-9-9-9-9-9-9-9-|
|--------------------------|-------------------------------|
|--------------------------|-------------------------------|
|--------------------------|-------------------------------|

   p
|--------------10-10-10-------10-10-10-----10-10-10-|
|---------------7--7--7-------10-10-10-----10-10-10-|
|-9^7---7-------7--7--7--------7--7--7------7--7--7-|
|-----9----x-x----------x-x-x----------x-x----------|
|----------x-x----------x-x-x----------x-x----------|
|---------------------------------------------------|

    Full    Full    Full
      )       )       )~~~~~~   p
|----/-------/-------/-------------------|
|-10/-----10/-----10/---------10^7---7-8-|
|----------------------------------9-----|
|----------------------------------------|
|----------------------------------------|
|----------------------------------------|

   h p         ~~~~~~
|------------------------|-------------------------|
|-7^8^7------------------|-------------------------|
|-------9-7---7--------7-|-9-7---7-----------------|
|-----------9--------9---|-----9---9-7-9-7---7-----|
|------------------------|-----------------9---9-7-|
|------------------------|-------------------------|

                       sl.
|-------------------------12-|
|----------------------------|
|----------------------------|
|----------------------------|
|-9-7-5-7-5---5-5-5-5-7-/----|
|-----------7----------------|

    p         p     p         p     p
|-15^12--12-15^12-14^12--12-15^12-14^12--12-|
|------12--------------12--------------12---|
|-------------------------------------------|
|-------------------------------------------|
|-------------------------------------------|
|-------------------------------------------|

    p         p     p         p     p
|-15^12--12-15^12-14^12--12-15^12-14^12--12-|
|------12--------------12--------------12---|
|-------------------------------------------|
|-------------------------------------------|
|-------------------------------------------|
|-------------------------------------------|

              p         p         p        
|-17-14--14-17^14--14-17^14--14-17^14--14-|\
|------15--------15--------15--------15---| \
|-----------------------------------------|  \
|-----------------------------------------|  /-repeat
|-----------------------------------------| /
|-----------------------------------------|/

    p         p     p         p     p  
|-19^15--15-19^15-17^15--15-19^15-17^15--15-| \
|------17--------------17--------------17---|  
|-------------------------------------------|   
|-------------------------------------------|    
|-------------------------------------------|     
|-------------------------------------------|      
                                                   
    p         p     p         p     p              
|-19^15--15-19^15-17^15--15-19^15-17^15--15-|      
|------17--------------17--------------17---|      
|-------------------------------------------|      
|-------------------------------------------|     
|-------------------------------------------|              
|-------------------------------------------|    
                                                     
    p         p         p         p                 
|-21^17--17-21^17--17-21^17--17-21^17--17-|       
|------19--------19--------19--------19---|     
|-----------------------------------------|                
|-----------------------------------------| repeat  
|-----------------------------------------| 
|-----------------------------------------|

   Full  Full  Full  Full    Full  Full  Full  Full
     )     )     )     )       )     )     )     )~~~~~
|-22/---22/---22/---22/---|-22/---22/---22/---22/------|
|-------------------------|----------------------------|
|-------------------------|----------------------------|
|-------------------------|----------------------------|
|-------------------------|----------------------------|
|-------------------------|----------------------------|

   Full 
     )\
|-22/(22)-19-22-20-19-20-19-17-19-17-15-17-15-14-|
|------------------------------------------------|
|------------------------------------------------|
|------------------------------------------------|
|------------------------------------------------|
|------------------------------------------------|

|-15-14-12-14-12-10-12-10-9-10-9-7-|
|----------------------------------|
|----------------------------------|
|----------------------------------|
|----------------------------------|
|----------------------------------|

BEGIN FADE

|-9-7--7---7----------------|------------------------|
|----10--10--8-10-8-7-8-7---|-7----------------------|
|-------------------------9-|---9-7-9-7---7--7--7--7-|
|---------------------------|-----------9------------|
|---------------------------|------------------------|
|---------------------------|------------------------|

         trem. pick
    Full  Full                               Full
      )     )- - - - - - - - - - - - -(        )
|----/-----/----------------|----------\------/-----------|
|---/-----/-----------------|-----------\----/------7---7-|
|-9/-----9------------------|-(9)------(9)-9/-------------|
|-------//------------------|-//--------------------------|
|---------------------------|-----------------------------|
|---------------------------|-----------------------------|

    Full      Full
      )        )\   p
|----/---7----/--\-----|
|-10/------10/--(10)^7-|
|----------------------|
|----------------------| repeat 2x
|----------------------|
|----------------------|

    Full          Full         Full       Full
      )\   p        )\  p        )          )
|----/--\----------/--\---------/----------/-------|
|-10/--(10)^7---10/-(10)^7---10/---10---10/---10---|
|--------------------------------------------------|
|--------------------------------------------------|
|--------------------------------------------------|
|--------------------------------------------------|

    p              p                   
|-10^7--------------------------------|
|------10^7----7-10^7-----------------|
|-----------10--------9-7---7-9-7-----|
|-------------------------9-------9-7-|
|-------------------------------------|
|-------------------------------------|

       p                    sl.
|------------------------------------|
|------------------------------------|
|------------------------------------|
|-7-7-9^7------------------------7-9-|
|---------9-8-7-5-7-5---5--7-/-9-----|
|---------------------7--------------|

        sl.           p                    
|------------------------------------12-15-|
|-------------11-12-13^12----12-x-15-------|
|-7-9-11-/-14-------------14---------------|
|------------------------------------------|
|------------------------------------------|
|------------------------------------------|


|-(15)^12----12-15^12-15^12----12-15^12-15^12----12-|
|---------15----------------15----------------15----|
|---------------------------------------------------|
|---------------------------------------------------|
|---------------------------------------------------|
|---------------------------------------------------|

     Full         Full         Full         Full
       )            )            )            )
|-----/------------/------------/------------/--------|
|-15-/---------15-/---------15-/---------15-/---------|
|-14/----------14/----------14/----------14/----------|
|-----------------------------------------------------|
|-----------------------------------------------------|
|-----------------------------------------------------|

4.WHIPLASH

|-----------||----------------------||-----------|---------|---------|---------|
|-----------||*--------------------*||-----------|---------|---------|---------|
|-----------||----------------------||-----------|---------|---------|---------|
|--9--9--9--||---9--------9--9--9---||--9--------|--9------|---------|---------|
|--7--7--7--||*--7--------7--7--7--*||--7--------|--7------|---------|---------|
|-----------||----------------------||-----------|---------|---------|---------|




|----------|----------|----------|----------|----------|-----------|----------|
|----------|----------|----------|----------|----------|-----------|----------|
|----------|----------|----------|----------|----------|--9--------|----------|
|----------|----------|----------|----------|----------|--9--------|----------|
|----------|----------|----------|----------|----------|--7--------|----------|
|----------|----------|----------|----------|----------|--0--------|----------|




|-----------|----------|------------|-----------|-----------|--------|
|-----------|----------|------------|-----------|-----------|--------|
|--9--------|----------|--9--9------|--9--------|--9--------|--------|
|--9--------|----------|--9--9------|--9--------|--9--------|--------|
|--7--------|----------|--7--7------|--7--------|--7--------|--------|
|--0--------|----------|--0--0------|--0--------|--0--------|--------|



                                                          play 3 times
||---------------------------------|----------------------------------||
||*--------------------------------|---------------------------------*||
||---------------------------------|----------------------------------||
||---------------------------------|------------------7----6----------||
||*--------------------------------|------------------7----6----5p0--*||
||--0--0-0-0-0-0-0-0-0-0-0-0-0-0-0-|-0-0-0-0-0-0-0-0------------------||
      PM.............................................



|---------------------------------|--------------------------------|
|---------------------------------|--------------------------------|
|---------------------------------|--------------------------------|
|---------------------------------|-------------------7----6----5--|
|---------------------------------|-------------------7----6----5--|
|--0--0-0-0-0-0-0-0-0-0-0-0-0-0-0-|-0-0-0-0-0-0-0-0----------------|
      PM.............................................



  Rhy Fig 1                                            end Rhy Fig 1
||---------------------------------|--------------------------------||
||*--------------------------------|-------------------------------*||
||---------------------------------|--------------------------------||
||---------------------------------|------------------7----6----5---||
||*--------------------------------|------------------7----6----5--*||
||--0--0-0-0-0-0-0-0-0-0-0-0-0-0-0-|-0-0-0-0-0-0-0-0----------------||
      PM.............................................



                                                             play 4 times
  Rhy Fig 2                                                 end Rhy Fig 2
||----------------------------------|------------------------------------||
||*---------------------------------|-----------------------------------*||
||----------------------------------|------------------------------------||
||----------------------------------|------------------------------5-----||
||*---------------------------------|------------------------------5----*||
||--0-0-0-0-0-0-0-0-0-0-0-0-0-0-0-0-|-0-0-0-0-0-0-0-0-0-0-0-0-0-0--------||
   PM............................................................. 


 S/S

 w/ Rhy Fig 2 (4 times)
|--------------------------------------|
|--------------------------------------|
|--------------------------------------|
|--------------------------------------|
|--------------------------------------|
|--------------------------------------|
 1. Late at night... 
 2.3.4.


  Chorus						  
		
                                                 
  Rhy Fig 3                                     end Rhy Fig 3
||--------------------|--------------------------------------||
||--------------------|--------------------------------------||
||--------------------|--------------------------------------||
||--5--------5--4--2--|--------------------------------------||
||--3--------3--2--0--|-------4--4--4----4--4--4----4--4-----||
||--------------------|--0h2--2--2--2----2--2--2----2--2--0--||
                             PM............................. 

 Note: Chorus consists of 3x Rhy Fig 3 plus one bar w/ no guitars.
       


                                     __________________________________
                                    |1,2,3.                            |
 w/ Rhy Fig 1 (4 times)
||----------------------------------|----------------------------------||
||*---------------------------------|---------------------------------*||
||----------------------------------|----------------------------------||
||----------------------------------|----------------------------------||
||*---------------------------------|---------------------------------*||
||----------------------------------|----------------------------------||


  _________________________________
 |4. 

||---------------------------------|---------------------------------||
||---------------------------------|---------------------------------||
||---------------------------------|---------------------------------||
||---------------------------------|---------------------------------||
||---------------------------------|---------------------------------||
||---------------------------------|---------------------------------||


                                                           play 4 times
  Rhy Fig 4                                               end Rhy Fig 4
||----------------------------------|----------------------------------||
||*---------------------------------|---------------------------------*||
||----------------------------------|----------------------------------||
||-----------5-----5----------------|----------5-----5-----------------||
||*--7p5-----5-----5----------------|--7p5-----5-----5----------------*||
||--------7-----7-------0--0--0--0--|-------7-----7-------0--0--0--0---||
                       PM..........                      PM..........


 Guitar solo

 w/ Rhy Fig 4

|--15p14p12------12--15p14p12------12--17p15p12------12--17p15p12------12--|
|------------15----------------15----------------15----------------15------|
|--------------------------------------------------------------------------|
|--------------------------------------------------------------------------|
|--------------------------------------------------------------------------|
|--------------------------------------------------------------------------|



|--17p15p12------12--17p15p12------12--17p15p12------12--17p15p12------12--|
|------------15----------------15----------------15----------------15------|
|--------------------------------------------------------------------------|
|--------------------------------------------------------------------------|
|--------------------------------------------------------------------------|
|--------------------------------------------------------------------------|



|--17p15p12------12--17p15p12------12--17p15p12------12--17p15p12------12--|
|--------------------------------------------------------------------------|
|------------15----------------15----------------15----------------15------|
|--------------------------------------------------------------------------|
|--------------------------------------------------------------------------|
|--------------------------------------------------------------------------|



|-17b19---------------------------|------------------------------------------------|
|--------15--15\-------------x--x-|-----12-------12-------12-------14--12----------|
|-----------------14b16------x--x-|-----12-------12-------12-------14--12-------12-|
|------------------------12-------|-14-------14-------14-------14-----------14-----|
|---------------------------------|------------------------------------------------|
|---------------------------------|------------------------------------------------|



|--------------------12h15p12-----------------------------------------|
|---------12--15p12------------15-----12--------12--15p12-------------|
|--14b16---------------------------14b16--14b16--------------14--12\--|
|---------------------------------------------------------------------|
|---------------------------------------------------------------------|
|---------------------------------------------------------------------|



          AH      AH               AH
|-------------------------------|-----------------------------|
|-------------------------------|-----------------------------|
|--2b4----{2}b4--r{2}-b4----r2--|--{2}b4----rp0------------0--|
|-------------------------------|----------------2------2-----|
|-------------------------------|-----------------------------|
|-------------------------------|-----------------------------|



|--------------------------------------|--------------------------------------|
|--------------------------------------|--------------------------------------|
|--2p0h2p0--4p0h4p0--5p0h5p0--4p0h4p0--|--5p0h5p0--7p0h7p0--9p0h9p0--7p0h7p0--|
|--------------------------------------|--------------------------------------|
|--------------------------------------|--------------------------------------|
|--------------------------------------|--------------------------------------|



|------------------------------------------|--------------------------------------|
|------------------------------------------|------------------------------------7-|
|-9p0h9p0--10p0h10p0--12p0h12p0--10p0h10p0-|-9p0h9p0--7p0h7p0--9b11---9b10---9----|
|------------------------------------------|--------------------------------------|
|------------------------------------------|--------------------------------------|
|------------------------------------------|--------------------------------------|



|-----------------10p7------7-----7--------------|
|--10p7-----10p7--------10--7-----7--10p7--------|
|--------9---------------------9-----------9--7--|
|------------------------------------------------|
|------------------------------------------------|
|------------------------------------------------|



|--------------------------------------------------|
|--------------------------------------------------|
|--7--7--9p7---------------------------------------|
|-------------9p7-----7--9p7-----------------------|
|------------------9----------9--7--5--------------|
|--------------------------------------7--7--~--~--|



|--------------------------------------------------------------------|
|----------------------------------------------------------------12--|
|--------------------------12-----------------12------12--14b16------|
|----------------------12--12--12--14p12------12--14-----------------|
|------12--12--12--14---------------------14-------------------------|
|--14----------------------------------------------------------------|



|-------------12--15p12------------------------------------------------|
|---------12-------------15--12------12--15p12------12--15p12------12--|
|--14b16-------------------------14-------------14-------------14------|
|----------------------------------------------------------------------|
|----------------------------------------------------------------------|
|----------------------------------------------------------------------|



|--------------------------|------------------|
|--15b17----------------0--|------------------|
|-----------------------0--|--15b17--r15-\----|
|--------------------------|------------------|
|--------------------------|------------------|
|--------------------------|------------------|


 w/ Rhy Fig 1 (4 times)

|-----12--12-----12----12--------12--12--12--------12----12--12--12--12--|
|--15b17------15b17-------15b17--------------15b17-----------------------|
|------------------------------------------------------------------------|
|------------------------------------------------------------------------|
|------------------------------------------------------------------------|
|------------------------------------------------------------------------|




|--12-------12----12--12---------12-----12--12---------12--|
|-----15b17----15b17-----------------15b17------15b17------|
|-------------------------14b15----------------------------|
|----------------------------------------------------------|
|----------------------------------------------------------|
|----------------------------------------------------------|




|--15--12------12--15p12------12--15p12-------------------------|
|----------15-------------15-------------15--12--12--12--15p12--|
|---------------------------------------------------------------|
|---------------------------------------------------------------|
|---------------------------------------------------------------|
|---------------------------------------------------------------|




|---------------------------------------------------------|
|---------------------------------------------------------|
|--14--12------12--14p12------12--14p12------12--14--12\--|
|----------14-------------14-------------14---------------|
|---------------------------------------------------------|
|---------------------------------------------------------|
  PM...........................................



|--3p1p0--3p1p0--3p1p0--5p3p0--6p4p0--6p4p0--7p5p0--8p6p0--|
|----------------------------------------------------------|
|----------------------------------------------------------|
|----------------------------------------------------------|
|----------------------------------------------------------|
|----------------------------------------------------------|



|--8p6p0--9p7p0--10p7p0--11p8p0--12p9p0--12p9p0--14p11p0--15p12p0--|
|------------------------------------------------------------------|
|------------------------------------------------------------------|
|------------------------------------------------------------------|
|------------------------------------------------------------------|
|------------------------------------------------------------------|



|-15p12p0--16p13p0--17p13p0--17p14p0--18p15p0--19p16p0--20p17p0--21p18p0-|
|------------------------------------------------------------------------|
|------------------------------------------------------------------------|
|------------------------------------------------------------------------|
|------------------------------------------------------------------------|
|------------------------------------------------------------------------|


                                                  go back to the sign S/S         
|--21p18p0--22p19--22p19--22p19--22b24----22b24--|--22b24----------------|
|------------------------------------------------|-----------------------|
|------------------------------------------------|-----------------------|
|------------------------------------------------|-----------------------|
|------------------------------------------------|-----------------------|
|------------------------------------------------|-----------------------|

5.ONE

Gtr I
    E  E E E +H         E  E E E +H         E  E E E +H
|-------------------|-------------------|-------------------|
|-------------------|-------------------|-------------------|
|-------------------|-------------------|-------------------|
|------4---0-(0)----|------4---0-(0)----|------4---0-(0)----|
|---2----2----------|-------------------|---2----2----------|
|-------------------|---3----3----------|-------------------|


  Gtr I
  E E E E +E  Q.     +W
|------------------|------------------|
|------------------|------------------|
|-------------0----|-(0)--------------|
|---4---0-(0)------|-----4---0-(0)----|
|------------------|--2----2----------|
|-3---3------------|------------------|
                      E  E E E +H


                                   2/4
  E E E E +H       E E E E +H       E S S E S S
|----------------|----------------|--------------|
|----------------|----------------|--------------|
|----------------|----------------|--------------|
|---4---0-(0)----|---4---0-(0)----|--------------|
|-0---0----------|----------------|---2-----2----|
|----------------|-3---3----------|-0-----2------|


 4/4
  Gtr II
  E S S S S E   +H       E S S E E  S  S E E E
|----------------------|-----------------------|
|----------------------|---3p2------3p=2-----3-|
|-------2---4b6r(4)----|-------4---------2-----|
|---2h4----------------|-----------------------|
|----------------------|-----------------------|
|----------------------|-----------------------|
|
| Gtr I
| E E   E   E   +H       E E   E E +H
|----------------------|-----------------------|
|----------------------|-----------------------|
|----------------------|-----------------------|
|---4-------0---(0)----|---4-----0-(0)---------|
|-2-----2--------------|-----------------------|
|----------------------|-3-----3---------------|


                                      |-3--|
  S S Q.     +H       E  S S S S S S  S  S S S  S S S E
|-------------------|-------------------------------------|
|-3p2---------------|-------------------------------------|
|-----4------(4)----|---11p9-0-9p7-0--7p=6p0-2--6p4p0-2---|
|-------------------|-------------------------------------|
|-------------------|-------------------------------------|
|-------------------|-------------------------------------|
|
| E   E  E E +H       E  E   E   E   +E      Q.
|-------------------|-------------------------------------|
|-------------------|-------------------------------------|
|-------------------|------------------------0------------|
|-----4----0-(0)----|----4-------0---(0)------------------|
|-2------2----------|-------------------------------------|
|-------------------|-3------3----------------------------|


                                                                 2/4
                                                 ~~
   H.             E S S   H        E  E S S E    W                E S S E S S
|-----------------------|---------------------|-----------------|--------------|
|-------------------2h3-|-2-----------2-3p2---|-----------------|--------------|
|-/4-------------/4-----|---------/4--------2-|-/4--------------|--------------|
|-----------------------|---------------------|-----------------|--------------|
|-----------------------|---------------------|-----------------|---2-----2----|
|-----------------------|---------------------|-----------------|-0-----2------|
|
|  E  E E E +H            E E E E +H             E E E E +H       E S S E S S
|-----------------------|---------------------|-----------------|--------------|
|-----------------------|---------------------|-----------------|--------------|
|-----------------------|---------------------|-----------------|--------------|
|-----4---0-(0)---------|---4---0-(0)---------|----4---0-(0)----|--------------|
|--2----2---------------|-0---0---------------|-----------------|---2-----2----|
|-----------------------|---------------------|--3---3----------|-0-----2------|


 4/4
                  |--3--|
  Q   E.   E      T  T  T  E  E E    S  S  S  S  H.
|-------------------------14-19---|-17p15-14-15--------------|
|----------------------15---------|-------------15-----------|
|-------------------16------------|--------------------------|
|----------------16---------------|--------------------------|
|---------------------------------|--------------------------|
|---------------------------------|--------------------------|
|
| E E E  E   +H                      E     E     E  E +H
|---------------------------------|--------------------------|
|---------------------------------|--------------------------|
|---------------------------------|--------------------------|
|---4----0---(0)------------------|--------4--------0-(0)----|
|-2---2---------------------------|--------------------------|
|---------------------------------|--3-----------3-----------|


  E S S E E  S  S E E  S S    E E   E  E  H
|--------------------------|-----------------------|
|--------------------------|-----------------------|
|---7p6-7----9p=7-9---11p9-|-11---/12-12-11--------|
|--------------------------|-----------------------|
|--------------------------|-----------------------|
|--------------------------|-----------------------|
|
| E E   E E +H                E E   E  E +E  Q.
|--------------------------|-----------------------|
|--------------------------|-----------------------|
|--------------------------|-----------------0-----|
|---4-----0-(0)------------|----4------0-(0)-------|
|-2-----2------------------|-----------------------|
|--------------------------|--3-----3--------------|


   +S  S S S S S  S S  S  S S S S S S S   S S E T  S.  S  S  E  E E E
|-------------------------------7-------|---7-9-9s10--10s12-10--9-7-9-|
|------------7-8-10---------7-8---------|-7---------------------------|
|-(11)-----7--------------7-----------7-|-----------------------------|
|--------9-------------9------------9---|-----------------------------|
|---------------------------------------|-----------------------------|
|---------------------------------------|-----------------------------|
|
|   E    E   E    E   +H                  E   E E      E    +H
|---------------------------------------|-----------------------------|
|---------------------------------------|-----------------------------|
|---------------------------------------|-----------------------------|
|--------4--------0---(0)---------------|-----4--------0----(0)-------|
|---2--------2--------------------------|-0-----0---------------------|
|---------------------------------------|-----------------------------|


  E.    S H.            E S S E S S E S S a E S S
|-9----10-7-----------|-----------------------------|
|---------------------|-----------------------------|
|---------------------|-----------------------------|
|---------------------|-----------------------------|
|---------------------|---2-----2-----2---2h4-2-----|
|---------------------|-0-----2-----0---------------|
|
| E  E    E  E +H       E S S E S S E S S a E S S
|---------------------|-----------------------------|
|---------------------|-----------------------------|
|---------------------|-----------------------------|
|----5-------0-(0)----|-----------------------------|
|---------------------|---2-----2-----2---2h4-2-----|
|-3-------3-----------|-0-----2-----0---------------|


 3/4
  Gtr I
  E E E S S  E  E   E E E E  S  S E   E E E S S  E  E   E E E E  S  S E
|-----------------|-----------------|-----------------|-----------------|
|-----------------|-----------------|-----------------|-----------------|
|-----------------|-----------------|-----------------|-----------------|
|---4---0-0--4--0-|---4---0--4--4-0-|---4---0-0--4--0-|---4---0--4--4-0-|
|-2---2-----------|-----------------|-2---2-----------|-----------------|
|-----------------|-3---3-----------|-----------------|-3---3-----------|
|
| E E E E   +Q      E E E E +Q        E E E E   +Q      E E E E +Q
|-----------------|-----------------|-----------------|-----------------|
|-----------------|-----------------|-----------------|-----------------|
|-----------------|-----------------|-----------------|-----------------|
|---4---0---(0)---|---4---0-(0)-----|---4---0---(0)---|---4---0-(0)-----|
|-2---2-----------|-----------------|-2---2-----------|-----------------|
|-----------------|-3---3-----------|-----------------|-3---3-----------|


  E E E S  S E E   E E E E  S S E
|----------------|----------------|
|----------------|----------------|
|----------------|--------------0-|
|---4---0--0-4-0-|---4---0--4-4---|
|-2---2----------|-0---0----------|
|----------------|----------------|
|
| E E E Q.         E E E Q.
|----------------|----------------|
|----------------|----------------|
|----------------|----------------|
|---4---0--------|---4---0--------|
|-2---2----------|-0---0----------|
|----------------|----------------|


                         ~~
  +H.                E S E. E E E   E E E E E E
|------------------|--------------|-------------|
|------------------|--------------|-------------|
|-(0)--------------|--------------|-------------|
|-----4---0--0-4-0-|---2h4--2-----|-----0-------|
|------------------|------------4-|---5-------7-|
|--3----3----------|-0--------2---|-3-----3-5---|
|  E  E E S  S E E
|
|                        ~~
|  E  E E Q.         E S E. E E E   E E E E E E
|------------------|--------------|-------------|
|------------------|--------------|-------------|
|------------------|--------------|-------------|
|-----4---0--------|---2h4--2-----|-----0-------|
|------------------|------------4-|---5-------7-|
|--3----3----------|-0--------2---|-3-----3-5---|


                                                            1.
                          |-3-|     |-3-|
    E E E E E E   Q       S S S S S S S S E   E E E Q    E   E E E E E E
||--------------|---------------------------|-----1--------|---------0----||
||o-------------|---------0h3p0---0-0h3p0---|-------1------|-------0---0-o||
||------0-7---0-|---------------4---------0-|---0--------0-|---4-0--------||
||----7-----7---|-5-------------------------|-3------------|-2------------||
||o-5-----------|---------------------------|--------------|-------------o||
||--------------|---------------------------|--------------|--------------||
|
|                   |-3-| |-3-|
|   E E E Q   E   E S S S S S S Q         E   Q   E E  Q     Q   Q   E E

||--------------|---------------------------|--------------|--------------||
||o---3---3---3-|-5-3h5p3S1h3p1-0---------0-|--------------|-------------o||
||------2-------|-5-4h5p4S2h4p2-0---------0-|-2---2-4-/7---|-4-------4----||
||--0-----------|---------------------------|-3---3-5-/5---|-5---5---5-5--||
||o-------------|---------------------------|--------------|-----7-----7-o||
||--------------|---------------------------|--------------|--------------||


  2.
  E E E E  Q       E E E S S  E  E
|--------------||------------------|
|---0----------||o-----------------|
|-----0-4------||------------------|
|-2------------||----4---0-0--4--0-|
|---------/3---||o-2---2-----------|
|--------------||------------------|
|
| Q   E E  E E     E E E E   +Q
|--------------||------------------|
|--------------||o-----------------|
|-2---2-4--5-4-||------------------|
|-3---3-5--7-5-||----4---0---(0)---|
|--------------||o-2---2-----------|
|--------------||------------------|


  E E E E  S S E   E E E S S  E  E   E E E E Q
|----------------|-----------------|------------|
|----------------|-----------------|------------|
|----------------|-----------------|------------|
|---4---0--4-4-0-|---4---0-0--4--0-|---4---0-0--|
|----------------|-2---2-----------|---------0--|
|-3---3----------|-----------------|-3---3------|
|
| E E E Q.         E E E E   +Q      E E E E Q
|----------------|-----------------|------------|
|----------------|-----------------|------------|
|----------------|-----------------|------------|
|---4---0--------|---4---0---(0)---|---4---0----|
|----------------|-2---2-----------|---------5--|
|-3---3----------|-----------------|-3---3---5--|


                                                    2/4
  E E E S  S E E   E E E E  S S E   E E E S  S E E   E S S E S S
|----------------|----------------|----------------|--------------|
|----------------|----------------|----------------|--------------|
|----------------|--------------0-|----------------|--------------|
|---4---0--0-4-0-|---4---0--4-4---|---4---0--0-4-0-|--------------|
|-2---2----------|-0---0----------|----------------|---2-----2----|
|----------------|----------------|-3---3----------|-0-----2------|
|
| E E E Q.         E E E Q.         E E E Q.         E S S E S S
|----------------|----------------|----------------|--------------|
|----------------|----------------|----------------|--------------|
|----------------|----------------|----------------|--------------|
|---4---0--------|---4---0--------|---4---0--------|--------------|
|-2---2----------|-0---0----------|----------------|---2-----2----|
|----------------|----------------|-3---3----------|-0-----2------|


 3/4
  E E E S S  E  E   E E E E  S S E   E E E S S  E  E   E E E E Q
|-----------------|----------------|-----------------|-------------|
|-----------------|----------------|-----------------|-------------|
|-----------------|----------------|-----------------|-------------|
|---4---0-0--4--0-|---4---0--4-4-0-|---4---0-0--4--0-|---4---0-0---|
|-2---2-----------|----------------|-2---2-----------|---------0---|
|-----------------|-3---3----------|-----------------|-3---3-------|
|
| E E E E   +Q      E E E Q.         E E E E   +Q      E E E E Q
|-----------------|----------------|-----------------|-------------|
|-----------------|----------------|-----------------|-------------|
|-----------------|----------------|-----------------|-------------|
|---4---0---(0)---|---4---0--------|---4---0---(0)---|---4---0-----|
|-2---2-----------|----------------|-2---2-----------|---------5---|
|-----------------|-3---3----------|-----------------|-3---3---5---|


                                                    2/4
  E E E S  S E E   E E E E  S S E   E E E S  S E E   E S S E S S
|----------------|----------------|----------------|--------------|
|----------------|----------------|----------------|--------------|
|----------------|--------------0-|----------------|--------------|
|---4---0--0-4-0-|---4---0--4-4---|---4---0--0-4-0-|--------------|
|-2---2----------|-0---0----------|----------------|---2-----2----|
|----------------|----------------|-3---3----------|-0-----2------|
|
| E E E Q.         E E E Q.         E E E Q.         E S S E S S
|----------------|----------------|----------------|--------------|
|----------------|----------------|----------------|--------------|
|----------------|----------------|----------------|--------------|
|---4---0--------|---4---0--------|---4---0--------|--------------|
|-2---2----------|-0---0----------|----------------|---2-----2----|
|----------------|----------------|-3---3----------|-0-----2------|


 6/4                                         3/4
                                              Gtr III
  W                     W                     H.
                                              |
                                              o

  Gtr II
                                      ~
  Q.   E E E Q  Q  Q    Q.   E E E Q  Q  Q    E  E E E E E
|---------------------|---------------------|---------------|
|---------------------|---------------------|---------------|
|-0----2-4-2-0-----4--|-2----4-6-4-2--------|------0-7---0--|
|-0----2-4-2-0--4--4--|-2----4-6-4-2--------|----7-----7----|
|------0-2-0----4--2--|-0----2-4-2-0--3--4--|-5-------------|
|-3----------3--2-----|---------------------|---------------|
|
| Gtr III                                     Gtr I
|                                     ~
| Q.   E E E Q  Q  Q    Q.   E E E Q  Q  Q    E  E E Q   E
|---------------------|---------------------|---------------|
|---------------------|---------------------|----3---3---3--|
|-0----2-4-2-0-----4--|-2----4-6-4-2--------|------2--------|
|-0----2-4-2-0--4--4--|-2----4-6-4-2--------|-0-------------|
|------0-2-0----4--2--|-0----2-4-2-0--3--4--|---------------|
|-3----------3--2-----|---------------------|---------------|


                                                1.
  +H.                           +H.              +H.             W
   |                             |                |
   o                             o                o

      |-3-| |-3-|
   E  S S S S S S Q         E    Q    E E  Q      Q    Q   E E   E E E Q   E
|-----------------------------|----------------|---------------|--------------|
|--5--3s5s3s1s3s1-0---------0-|----------------|---------------|---3---3---3--|
|--5--4s5s4s2s4s2-0---------0-|--2----2-4-/5---|--4--------4---|-----2--------|
|-----------------------------|--3----3-5-/7---|--5----5---5-5-|-0------------|
|-----------------------------|----------------|-------7-----7-|--------------|
|-----------------------------|----------------|---------------|--------------|
|
|           |-3-|     |-3-|
|  Q        S S S S S S S S E    E  E E Q    E    E  E E E E E   E E E E E E
|-----------------------------|-------1--------|-----------0---|--------------|
|-----------0h3p0---0-0h3p0---|---------1------|---------0---0-|--------------|
|-----------------4---------0-|-----0--------0-|-----4-0-------|-----0-7---0--|
|--5--------------------------|--3-------------|--2------------|---7-----7----|
|-----------------------------|----------------|---------------|-5------------|
|-----------------------------|----------------|---------------|--------------|


  W                           W
    |-3-| |-3-|
  E S S S S S S Q         E   Q   E E  Q
|---------------------------|--------------|
|-5-3h5p3S1h3p1-0---------0-|--------------|
|-5-4h5p4S2h4p2-0---------0-|-2---2-4-/7---|
|---------------------------|-3---3-5-/5---|
|---------------------------|--------------|
|---------------------------|--------------|
|
|         |-3-|     |-3-|
| Q       S S S S S S S S E   E E E Q    E
|---------------------------|-----1--------|
|---------0h3p0---0-0h3p0---|-------1------|
|---------------4---------0-|---0--------0-|
|-5-------------------------|-3------------|
|---------------------------|--------------|
|---------------------------|--------------|


                  2.
                   G   Em  G    Em
  W                Q   Q    E    E
                   |   |    |    |
                   /   /    /    /

                   Gtr II
  Q   E E  E E     H        S S  S S
|---------------||--------------------|
|--------------o||---------10-7----7--|
|-2---2-4--5-4--||--------------10----|
|-3---3-5--7-5--||--------------------|
|--------------o||--------------------|
|---------------||--------------------|
|
| E E E E  Q       E E E E  E    E
|---------------||----------0---------|
|---0----------o||-------0-------0----|
|-----0-4-------||---4-0--------------|
|-2-------------||-2------------------|
|---------/3---o||--------------------|
|---------------||--------------------|


   Q    E E E E   E S S H
|---------------|-------------------------|
|-10---10-8-7---|-7h8p7-------------------|
|-------------9-|-------7-----------------|
|---------------|-------------------------|
|---------------|-------------------------|
|---------------|-------------------------|
|
|                       |-3-|     |-3-|
|  E E  E E E E   Q     S S S S S S S S E
|---------------|-------------------------|
|---------------|-------0h3p0---0-0h3p0---|
|-------0-7---0-|-0-----------4---------0-|
|----7------7---|-------------------------|
|--5------------|-------------------------|
|---------------|-------------------------|


                  ~
   E E E  E E E   H        S  S  S  S
|-10-8-7----7-8-|---------17p14----14-|
|--------10-----|-8-------------15----|
|---------------|---------------------|
|---------------|---------------------|
|---------------|---------------------|
|---------------|---------------------|
|
|  E E E  Q   E   E E E E  E     E
|------1--------|----------0----------|
|---------1-----|-------0--------0----|
|----0--------0-|---4-0---------------|
|--3------------|-2-------------------|
|---------------|---------------------|
|---------------|---------------------|


   Q    E  E  E  S  S    Q   E      E    E      E
|-17---17-15-14-15p14-|-----------------15-----17-|
|---------------------|-15--15-----19-------------|
|---------------------|---------------------------|
|---------------------|---------------------------|
|---------------------|---------------------------|
|---------------------|---------------------------|
|
|                            |-3-|       |-3-|
|  E E  E  E  E  E       Q   S S S  S S  S S S  E
|---------------------|---------------------------|
|---------------------|------0h3p0----0--0h3p0----|
|-------0--7-----0----|--0----------4-----------0-|
|----7--------7-------|---------------------------|
|--5------------------|---------------------------|
|---------------------|---------------------------|


   |--3--|  |--3--|  |--3--|
   S  S  S  S  S  S  S  S  S  S  S  S  S  E
|-19-17-15-19-17-15-19-17-15----15-----------|
|----------------------------19----17-19-15--|
|--------------------------------------------|
|--------------------------------------------|
|--------------------------------------------|
|--------------------------------------------|
|
|  E        E        E        Q           E
|--------------------1-----------------------|
|-----------------------------1--------------|
|-----------0-----------------------------0--|
|--3-----------------------------------------|
|--------------------------------------------|
|--------------------------------------------|


   +H         +Q      Q   E E  E  +E      E  E  E      E    E      +E
|-------------------|-----------------|--------------------------------|
|-(15)-------(15)---|-8---8-8S=7--(7)-|-/13-13-13-----13---12-----(12)-|
|-------------------|-7---7-7-(7)-(7)-|-/12-12-12-----12---12-----(12)-|
|-------------------|-----------------|--------------------------------|
|-------------------|-----------------|--------------------------------|
|-------------------|-----------------|--------------------------------|
|
|                                               |-3-|       |-3-|
|   E  E E E   E  E   E E E E  E   E      Q     S S S  S S  S S S   E
|--------------0----|-----------------|--------------------------------|
|----------0------0-|-----------------|---------0h3p0----0--0h3p0------|
|------4-0----------|-----0-7------0--|---0------------4------------0--|
|---2---------------|---7------7------|--------------------------------|
|-------------------|-5---------------|--------------------------------|
|-------------------|-----------------|--------------------------------|


   T        T        T        T        T        T
   |--3--|  |--3--|  |--3--|  |--3--|  |--3--|  |--3--|
   S  S  S  S  S  S  S  S  S  S  S  S  S  S  S  S  S  S
|-20p17p13-20p17p13-20p17p13-20p17p13-20p17p13-20p17p13-|
|-------------------------------------------------------|
|-------------------------------------------------------|
|-------------------------------------------------------|
|-------------------------------------------------------|
|-------------------------------------------------------|
|
|  E        E        E        Q                 E
|--------------------1----------------------------------|
|-----------------------------1-------------------------|
|-----------0-----------------------------------0-------|
|--3----------------------------------------------------|
|-------------------------------------------------------|
|-------------------------------------------------------|


                            6/4
  Gtr I
   E     E  E     E   E  E   W                     H      W
   |     |  |     |   |  |
   o     o  o     o   o  o

  Gtr II                     Gtrs II, III
   S  S  E  S  S  E  +Q      Q.   E E E Q  Q  Q    Q.   E E E Q  Q  Q
|-12h13p12-12h13p12-(12)---|---------------------|---------------------|
|--------------------------|---------------------|---------------------|
|--------------------------|-0----2-4-2-0-----4--|-2----4-6-4-2--4--6--|
|--------------------------|-0----2-4-2-0--4--4--|-2----4-6-4-2--4--6--|
|--------------------------|------0-2-0----4--2--|-0----2-4-2-0--2--4--|
|--------------------------|-3----------3--2-----|---------------------|


  Q.   E E E Q  Q  Q    Q.   E E E Q  Q  Q    Q.   E E E Q  Q  Q
|---------------------|---------------------|----------------------||
|---------------------|---------------------|----------------------||
|-0----2-4-2-0-----4--|-2----4-6-4-2--4--6--|-0----2-4-2-0-----4---||
|-0----2-4-2-0--4--4--|-2----4-6-4-2--4--6--|-0----2-4-2-0--4--4---||
|------0-2-0----4--2--|-0----2-4-2-0--2--4--|------0-2-0----4--2---||
|-3----------3--2-----|---------------------|-3----------3--2------||


   3/4
    Gtr II
                                                 ~~~
    Q.   E E E    H.               H      Q      H.                  4x
||-------------|-----------------|------------|----------------------||
||o-5----3-5h8-|--8--------------|-7------7---|--8------------------o||
||--5----4-5-7-|--7--------------|-8------8---|--9-------------------||
||--7----5-7-9-|--9----9-10-12---|-9------9---|-10-------------------||
||o-7----5-7h9-|-10---10-12-14---|------------|-14p12p10-(10)-------o||
||-------------|-----------------|------------|----------------------||
|   Q.   E E E    Q    E  E  Q     H      Q      S  S  E  +H
|
|   Gtr III
|        PM--|         PM------|        PM  PM                PM  PM
|   Q.   E E E    Q    E  E  E E   Q.   E E E    Q.           E E E  4x
||-------------|-----------------|------------|----------------------||
||o------------|-----------------|------------|---------------------o||
||-------------|-------0--0--0-0-|-4------4---|--5--------------5----||
||--2----0-2-0-|-------0--0--0-0-|-4------4---|--5--------------5----||
||o-3----2-3-0-|--2----5--5--5-5-|-2------2---|--3--------------3---o||
||-------------|--3----3--3--3-3-|------2---2-|---------------3---3--||


    Gtrs II, III
                                        PM  PM
    E E E E E E   E E E E E +E     Q.   E E E
||--------------|----------------|------------|
||o-------------|----------------|------------|
||--------------|----------------|-4------4---|
||--5-5-5-7-5---|-4-4-4-5-4-(4)\-|-4------4---|
||o-7-7-7-7-7-5-|-5-5-5-5-5-(5)\-|-2------2---|
||--------------|----------------|------2---2-|


                Slightly Faster Q=108
                   4/4
    PM|   PM  PM
  E S S E E E E     W          +W
|----------------||----------|--------|
|---------------o||----------|--------|
|-5-----5---5----||-5--------|-(5)----|
|-5-5-5-5---5----||-5--------|-(5)----|
|-3-3-3-3---3---o||-7--------|-(7)----|
|---------3---3--||-0--------|-(0)----|


  |-3-| |-3-|     |-3-| |-3-|       |-3-| |-3-|     |-3-| |-3-|
  S S S S S S E E S S S S S S E E   S S S S S S E E S S S S S S E E
|---------------------------------|---------------------------------|
|---------------------------------|---------------------------------|
|---------------------------------|---------------------------------|
|-------------2---------------2---|-------------2---------------2---|
|-------------2---------------2---|-------------2---------------2---|
|-0-0-0-0-0-0-0---0-0-0-0-0-0-0---|-0-0-0-0-0-0-0---0-0-0-0-0-0-0---|


  |-3-| |-3-|    |-3-| |-3-|         |-3-| |-3-|    |-3-| |-3-|
  S S S S S S Q  S S S S S S E E     S S S S S S Q  S S S S S S E E  5x
|--------------------------------||----------------------------------||
|--------------------------------||o--------------------------------o||
|--------------------------------||----------------------------------||
|-------------2--------------2---||--------------2--------------2-3--||
|-------------2--------------2---||o-------------2--------------2-3-o||
|-0-0-0-0-0-0-0--0-0-0-0-0-0-0---||--0-0-0-0-0-0-0--0-0-0-0-0-0------||


    |-3-| |-3-|     |-3-| |-3-|       |-3-| |-3-|     |-3-| |-3-|
    S S S S S S E E S S S S S S E E   S S S S S S E E S S S S S S E E
||----------------------------------|----------------------------------|
||o---------------------------------|----------------------------------|
||----------------------------------|----------------------------------|
||--------------2---------------2---|-------------2---------------2-3--|
||o-------------2---------------2---|-------------2---------------2-3--|
||--0-0-0-0-0-0-----0-0-0-0-0-0-----|-0-0-0-0-0-0-----0-0-0-0-0-0------|


  |-3-| |-3-|     |-3-| |-3-|       |-3-| |-3-|     |-3-| |-3-|
  S S S S S S E E S S S S S S E E   S S S S S S E E S S S S S S E E
|---------------------------------|---------------------------------|
|---------------------------------|---------------------------------|
|---------------------------------|---------------------------------|
|-------------2---------------2---|-------------2---------------2-3-|
|-------------2---------------2---|-------------2---------------2-3-|
|-0-0-0-0-0-0-----0-0-0-0-0-0-----|-0-0-0-0-0-0-----0-0-0-0-0-0-----|


  1.
              ~                                ~
  |-3-| |-3-|    |-3-| |-3-|       |-3-| |-3-|    |-3-| |-3-|
  S S S S S S Q  S S S S S S E E   S S S S S S Q  S S S S S S E E
|--------------------------------|--------------------------------|
|--------------------------------|--------------------------------|
|--------------------------------|--------------------------------|
|--------------------------------|--------------------------------|
|-------------7--------------7S8-|-------------5--------------5S8-|
|-0-0-0-0-0-0----0-0-0-0-0-0-----|-0-0-0-0-0-0----0-0-0-0-0-0-----|


              ~                                ~
  |-3-| |-3-|    |-3-| |-3-|       |-3-| |-3-|    |-3-| |-3-|
  S S S S S S Q  S S S S S S E E   S S S S S S Q  S S S S S S E E
|--------------------------------|---------------------------------||
|--------------------------------|--------------------------------o||
|--------------------------------|---------------------------------||
|--------------------------------|---------------------------------||
|-------------7--------------7S8-|-------------5--------------5---o||
|-0-0-0-0-0-0----0-0-0-0-0-0-----|-0-0-0-0-0-0----0-0-0-0-0-0---7--||


    2.uble Time Q=216
                ~
    |-3-| |-3-|    |-3-|   |-3-|    |-3-|
    E E E E E E Q  E E E   E E E Q  E E E Q
||-----------------------|-------------------|
||o----------------------|-------------------|
||-----------------------|-------------------|
||--------------2--------|-------2--------3--|
||o-------------2--------|-------2--------3--|
||--0-0-0-0-0-0----0-0-0-|-0-0-0----0-0-0----|


              ~
  |-3-| |-3-|    |-3-|   |-3-|    |-3-|
  E E E E E E Q  E E E   E E E Q  E E E Q
|----------------------|--------------------|
|----------------------|--------------------|
|----------------------|--------------------|
|-------------2--------|-------2--------3---|
|-------------2--------|-------2--------3---|
|-0-0-0-0-0-0----0-0-0-|-0-0-0----0-0-0-----|


              ~
  |-3-| |-3-|    |-3-|   |-3-|    |-3-|
  E E E E E E Q  E E E   E E E Q  E E E Q
|----------------------|-------------------|
|----------------------|-------------------|
|----------------------|-------------------|
|-------------2--------|-------2--------3--|
|-------------2--------|-------2--------3--|
|-0-0-0-0-0-0----0-0-0-|-0-0-0----0-0-0----|


              ~
  |-3-| |-3-|    |-3-|   |-3-|    |-3-|
  E E E E E E Q  E E E   E E E Q  E E E Q
|----------------------|---------------------|
|----------------------|---------------------|
|----------------------|---------------------|
|-------------2--------|-------2--------3----|
|-------------2--------|-------2--------3----|
|-0-0-0-0-0-0----0-0-0-|-0-0-0----0-0-0------|


  |-3-| |-3-|     |-3-|   |-3-|     |-3-|
  E E E E E E E E E E E   E E E E E E E E E E
|-----------------------|---------------------|
|-----------------------|---------------------|
|-----------------------|---------------------|
|-----------------------|---------------------|
|-----------------------|---------------------|
|-0-0-0-0-0-0-0---0-0-0-|-0-0-0-0---0-0-0-0---|


  |-3-| |-3-|     |-3-|   |-3-|     |-3-| |-3-|
  E E E E E E E E E E E   E E E E E E E E E E E
|-----------------------|-------------------------||
|-----------------------|------------------------o||
|-----------------------|-------------------------||
|-----------------------|-------------------------||
|-----------------------|------------------------o||
|-0-0-0-0-0-0-0---0-0-0-|-0-0-0-0---0-0-0-0-0-0---||


  Gtr II
   T        T        T        T        T        T        T        T
   |--3--|  |--3--|  |--3--|  |--3--|  |--3--|  |--3--|  |--3--|  |--3--|
   S  S  S  S  S  S  S  S  S  S  S  S  S  S  S  S  S  S  S  S  S  S  S  S
|-19p15p12-19p15p12-19p15p12-19p15p12-19p15p12-19p15p12-19p15p12-19p15p12-|
|-------------------------------------------------------------------------|
|-------------------------------------------------------------------------|
|-------------------------------------------------------------------------|
|-------------------------------------------------------------------------|
|-------------------------------------------------------------------------|
|
| Gtr III
|                                      ~~~
|  |-----3-----|     |-----3-----|                       |-----3-----|
|  E     E     E     E     E     E     Q                 E     E     E
|-------------------------------------------------------------------------|
|-------------------------------------------------------------------------|
|-------------------------------------------------------------------------|
|--------------------------------------2----------------------------------|
|--------------------------------------2----------------------------------|
|--0-----0-----0-----0-----0-----0-----------------------0-----0-----0----|


   T        T        T        T                          T        T
   |--3--|  |--3--|  |--3--|  |--3--|  |--3--|  |--3--|  |--3--|  |--3--|
   S  S  S  S  S  S  S  S  S  S  S  S  S  S  S  S  S  S  S  S  S  S  S  S
|-20p15p12-20p15p12-20p15p12-20p15p12-20p15p12-20p15p12-20p15p12-20p15p12--|
|--------------------------------------------------------------------------|
|--------------------------------------------------------------------------|
|--------------------------------------------------------------------------|
|--------------------------------------------------------------------------|
|--------------------------------------------------------------------------|
|
|  |-----3-----|                       |-----3-----|
|  E     E     E     Q                 E     E     E     Q
|--------------------------------------------------------------------------|
|--------------------------------------------------------------------------|
|--------------------------------------------------------------------------|
|--------------------2-----------------------------------3-----------------|
|--------------------2-----------------------------------3-----------------|
|--0-----0-----0-----------------------0-----0-----0-----------------------|


  Gtr II
   T        T        T        T        T        T        T        T
   |--3--|  |--3--|  |--3--|  |--3--|  |--3--|  |--3--|  |--3--|  |--3--|
   S  S  S  S  S  S  S  S  S  S  S  S  S  S  S  S  S  S  S  S  S  S  S  S
|-------------------------------------------------------------------------|
|-19p15p12-19p15p12-19p15p12-19p15p12-19p15p12-19p15p12-19p15p12-19p15p12-|
|-------------------------------------------------------------------------|
|-------------------------------------------------------------------------|
|-------------------------------------------------------------------------|
|-------------------------------------------------------------------------|
|
| Gtr III
|                                      ~~~
|  |-----3-----|     |-----3-----|                       |-----3-----|
|  E     E     E     E     E     E     Q                 E     E     E
|-------------------------------------------------------------------------|
|-------------------------------------------------------------------------|
|-------------------------------------------------------------------------|
|--------------------------------------2----------------------------------|
|--------------------------------------2----------------------------------|
|--0-----0-----0-----0-----0-----0-----------------------0-----0-----0----|


   T        T        T        T                          T        T
   |--3--|  |--3--|  |--3--|  |--3--|  |--3--|  |--3--|  |--3--|  |--3--|
   S  S  S  S  S  S  S  S  S  S  S  S  S  S  S  S  S  S  S  S  S  S  S  S
|--------------------------------------------------------------------------|
|-20p15p12-20p15p12-20p15p12-20p15p12-20p15p12-20p15p12-20p15p12-20p15p12--|
|--------------------------------------------------------------------------|
|--------------------------------------------------------------------------|
|--------------------------------------------------------------------------|
|--------------------------------------------------------------------------|
|
|  |-----3-----|                       |-----3-----|
|  E     E     E     Q                 E     E     E     Q
|--------------------------------------------------------------------------|
|--------------------------------------------------------------------------|
|--------------------------------------------------------------------------|
|--------------------2-----------------------------------3-----------------|
|--------------------2-----------------------------------3-----------------|
|--0-----0-----0-----------------------0-----0-----0-----------------------|


  Gtr II
   T        T        T        T        T        T        T        T
   |--3--|  |--3--|  |--3--|  |--3--|  |--3--|  |--3--|  |--3--|  |--3--|
   S  S  S  S  S  S  S  S  S  S  S  S  S  S  S  S  S  S  S  S  S  S  S  S
|-------------------------------------------------------------------------|
|-17p13p10-17p13p10-17p13p10-17p13p10-17p13p10-17p13p10-17p13p10-17p13p10-|
|-------------------------------------------------------------------------|
|-------------------------------------------------------------------------|
|-------------------------------------------------------------------------|
|-------------------------------------------------------------------------|
|
| Gtr III
|                                      ~~~
|  |-----3-----|     |-----3-----|                       |-----3-----|
|  E     E     E     E     E     E     Q                 E     E     E
|-------------------------------------------------------------------------|
|-------------------------------------------------------------------------|
|-------------------------------------------------------------------------|
|--------------------------------------2----------------------------------|
|--------------------------------------2----------------------------------|
|--0-----0-----0-----0-----0-----0-----------------------0-----0-----0----|


   T        T        T        T                          T        T
   |--3--|  |--3--|  |--3--|  |--3--|  |--3--|  |--3--|  |--3--|  |--3--|
   S  S  S  S  S  S  S  S  S  S  S  S  S  S  S  S  S  S  S  S  S  S  S  S
|--------------------------------------------------------------------------|
|-18p13p10-18p13p10-18p13p10-18p13p10-18p13p10-18p13p10-18p13p10-18p13p10--|
|--------------------------------------------------------------------------|
|--------------------------------------------------------------------------|
|--------------------------------------------------------------------------|
|--------------------------------------------------------------------------|
|
|  |-----3-----|                       |-----3-----|
|  E     E     E     Q                 E     E     E     Q
|--------------------------------------------------------------------------|
|--------------------------------------------------------------------------|
|--------------------------------------------------------------------------|
|--------------------2-----------------------------------3-----------------|
|--------------------2-----------------------------------3-----------------|
|--0-----0-----0-----------------------0-----0-----0-----------------------|


  Gtr II
   T        T       T       T     T       T
      |--3--|                  |-----3------|
   a  E  E  E  E    a  E    a  Q  a  Q    a Q
|-----------------------------------------------|
|-17p12h14-17p12---17p10---17p12-17p10---17p8---|
|-----------------------------------------------|
|-----------------------------------------------|
|-----------------------------------------------|
|-----------------------------------------------|
|
| Gtr III
|                              ~~
|     |--3--|  |----3----|             |--3---|
|     E  E  E  E E       E     Q       E    E E
|-----------------------------------------------|
|-----------------------------------------------|
|-----------------------------------------------|
|------------------------------2----------------|
|------------------------------2----------------|
|-----0--0--0--0-0-------0-------------0----0-0-|


   T       T      T    T      T      T
      |------3------|    |------3------|
   a  Q    a Q    a Q  a Q    a Q    a Q
|-----------------------------------------|
|-17p10---17p8---17p7-17p8---17p7---17p5--|
|-----------------------------------------|
|-----------------------------------------|
|-----------------------------------------|
|-----------------------------------------|
|
|     |--3---|           |--3---|
|     E E    E Q         E E    E Q
|-----------------------------------------|
|-----------------------------------------|
|-----------------------------------------|
|--------------2------------------3-------|
|--------------2------------------3-------|
|-----0-0----0-----------0-0----0---------|


    ~~~~~~~~~~~~~~
    |--3--|  |--3--|        |--3--|
    E  E  E  E  E  E  E  E  E  E  E
|--------------------------14-14-14-|
|-/12-12-12-12-12-12-12-12----------|
|-----------------------------------|
|-----------------------------------|
|-----------------------------------|
|-----------------------------------|
|
|   |--3--|  |--3--|        |--3--|
|   E  E  E  E  E  E  E  E  E  E  E
|-----------------------------------|
|-----------------------------------|
|-----------------------------------|
|-----------------------------------|
|-----------------------------------|
|---0--0--0--0--0--0--0-----0--0--0-|


   |--3--|  |----3-----|  |--3--|  |---3----|
   E  E  E  E  E    S  S  E  E  E  E  E  S  S
|-15-15-15-17-17---17-17----------17-17-17-17--|
|------------------------15-15-15--------------|
|----------------------------------------------|
|----------------------------------------------|
|----------------------------------------------|
|----------------------------------------------|
|
|  |--3--|                |--3--|  |--3--|
|  E  E  E  E    E        E  E  E  E  E  E
|----------------------------------------------|
|----------------------------------------------|
|----------------------------------------------|
|----------------------------------------------|
|----------------------------------------------|
|--0--0--0--0-------------0--0--0--0--0--0-----|


   Q          +Q        E      +E    Q
|-22b24======(24)r-----22b24==(24)r-22b24===|
|-------------------------------------------|
|-------------------------------------------|
|-------------------------------------------|
|-------------------------------------------|
|-------------------------------------------|
|
|  |---3---|   |--3--|
|  E     E E   E   E E  Q            Q

|-------------------------------------------|
|-------------------------------------------|
|-------------------------------------------|
|-----------------------2------------2------|
|-----------------------2------------2------|
|--0-----0-0---0---0-0--0------------0------|


    ~~~~~~~~~~~~~~~~~~~~
                                   |--3--|  |--3--|  |--3--|     |--3--|
   +H             +Q       E  E    E  E  E  E  E  E  S  S  S  E  E  E  E
|-(24)-----------(24)r\------15-|-17p15-------------15h17p15-------------|
|------------------------/17----|-------17-15-17-19----------17-15-17-19-|
|-------------------------------|----------------------------------------|
|-------------------------------|----------------------------------------|
|-------------------------------|----------------------------------------|
|-------------------------------|----------------------------------------|
|
|   |-3--| |-3-|                   |--3--|  |--3--|
|   E  E E E E E   Q       Q       E  E  E  E  E  E  Q           Q
|-------------------------------|----------------------------------------|
|-------------------------------|----------------------------------------|
|-------------------------------|----------------------------------------|
|------------------2-------2----|--------------------2-----------2-------|
|------------------2-------2----|--------------------2-----------2-------|
|---0--0-0-0-0-0---0-------0----|--0--0--0--0--0--0--0-----------0-------|


   |--3--|       |--3--|  |--3--|     |--3--|
   S  S  S  E    E  E  E  S  S  S  E  E  E  E
|-15h17p15---------------15h17p15----------15-|
|----------17---15-17-19----------17-17-19----|
|---------------------------------------------|
|---------------------------------------------|
|---------------------------------------------|
|---------------------------------------------|
|
|  |----3-----|  |--3--|
|  E     E    E  E  E  E  Q           Q
|---------------------------------------------|
|---------------------------------------------|
|---------------------------------------------|
|-------------------------5-----------5-------|
|-------------------------5-----------5-------|
|--3-----3----3--3--3--3--3-----------3-------|


   |---3----|  |--3--|  |---3----|  |-3--|
   E  E  S  S  E  E  E  E  E  S  S  E  E E
|-17p15-------------15-17p15-------15h17---|
|-------17-15-17-19----------17-15---------|
|------------------------------------------|
|------------------------------------------|
|------------------------------------------|
|------------------------------------------|
|
|  |--3--|     |--3--|
|  E  E  E     E  E  E  Q           Q
|------------------------------------------|
|------------------------------------------|
|------------------------------------------|
|-----------------------2-----------2------|
|-----------------------2-----------2------|
|--0--0--0-----0--0--0--0-----------0------|



   S  S    S    S  S  S    S    S  S  S  S  S  S  S  S  S
|-19p17p==15------19p17p==15------19p17p15----19p17p15----|
|--------------15--------------15----------15----------15-|
|---------------------------------------------------------|
|---------------------------------------------------------|
|---------------------------------------------------------|
|---------------------------------------------------------|
|
|  |----3----|     |----3----|
|  E    E    E     E    E    E     Q           Q
|---------------------------------------------------------|
|---------------------------------------------------------|
|---------------------------------------------------------|
|----------------------------------2-----------2----------|
|----------------------------------2-----------2----------|
|--0----0----0-----0----0----0-----0-----------0----------|


   |--3--|  |--3--|  |--3--|  |--3--|
   E  E  E  E  E  E  E  E  E  E  E  E
|-19p17----19p17----19p17----19p17p15-|
|-------15-------15-------15----------|
|-------------------------------------|
|-------------------------------------|
|-------------------------------------|
|-------------------------------------|
|
|  |--3--|  |--3--|
|  E  E  E  E  E  E  Q        Q
|-------------------------------------|
|-------------------------------------|
|-------------------------------------|
|--------------------2--------2-------|
|--------------------2--------2-------|
|--0--0--0--0--0--0--0--------0-------|


   S      +S      E    S      +S      E    S      +S    E  S      +S    E
|----------------15------------------15----------------15--------------15-|
|-18b20==(20)r--------18b20==(20)r--------18b20==(20)r----18b20==(20)r----|
|-------------------------------------------------------------------------|
|-------------------------------------------------------------------------|
|-------------------------------------------------------------------------|
|-------------------------------------------------------------------------|
|
|  |-------3--------|  |-------3--------|
|  E           E    E  E           E    E  Q               Q
|-------------------------------------------------------------------------|
|-------------------------------------------------------------------------|
|-------------------------------------------------------------------------|
|------------------------------------------5---------------5--------------|
|------------------------------------------5---------------5--------------|
|--3-----------3----3--3-----------3----3--3---------------3--------------|


   S      +S      E    S      +S      E    S      +S    E  S      +S    E
|-18b19==(19)r---15------------------15---18b19==(19)r-15--------------15-|
|---------------------18b20==(20)r------------------------18b20==(20)r----|
|-------------------------------------------------------------------------|
|-------------------------------------------------------------------------|
|-------------------------------------------------------------------------|
|-------------------------------------------------------------------------|
|
|  |-------3--------|  |-------3--------|
|  E           E    E  E           E    E  Q               Q
|-------------------------------------------------------------------------|
|-------------------------------------------------------------------------|
|-------------------------------------------------------------------------|
|------------------------------------------5---------------5--------------|
|------------------------------------------5---------------5--------------|
|--3-----------3----3--3-----------3----3--3---------------3--------------|


   |--3--|         |--3--|        |--3--|         |--3--|
   E  E  E  Q      E  E  E  Q     E  E  E  Q      S  S  S  E  Q
|-19p17p15-17-----17p15----15--|---------------------------------|
|-----------------------19-----|-19p17p15-17-----15h17p15s13-15--|
|------------------------------|---------------------------------|
|------------------------------|---------------------------------|
|------------------------------|---------------------------------|
|------------------------------|---------------------------------|
|
|  |--3--|  |-3-|                 |--3--|  |-3-|
|  E  E  E  E E E  Q        Q     E  E  E  E E E  Q           Q
|------------------------------|---------------------------------|
|------------------------------|---------------------------------|
|------------------------------|---------------------------------|
|------------------5--------5--|------------------5-----------6--|
|------------------5--------5--|------------------5-----------6--|
|--3--3--3--3-3-3--3--------3--|--3--3--3--3-3-3-----------------|


   |--3--|              |--3--|     |--3--|
   S  S  S  E    Q      S  S  S  E  E  E  E
|-------------------------------------------|
|-13h15p13p12---13-----12h13p12----12-------|
|-------------------------------14----14p12-|
|-------------------------------------------|
|-------------------------------------------|
|-------------------------------------------|
|
|  |----3-----|  |-3-|
|  E     E    E  E E E  Q
|-------------------------------------------|
|-------------------------------------------|
|-------------------------------------------|
|-----------------------3-----------3-------|
|-----------------------3-----------3-------|
|--1-----1----1--1-1-1--1-----------1-------|



   |--3--|  |--3--|  |--------------------3--------------------|
   E  E  E  E  E  E  S      +S   E  S      +S   E  S      +S   E
|----------------------------------------------------------------|
|----------------------------------------------------------------|
|-14p12----12----12-14b16==(16)r---14b16==(16)r---14b16==(16)r---|
|-------14----14-------------------------------------------------|
|----------------------------------------------------------------|
|----------------------------------------------------------------|
|
|  |--3--|  |--3--|
|  E  E  E  E  E  E  Q                          Q
|----------------------------------------------------------------|
|----------------------------------------------------------------|
|----------------------------------------------------------------|
|--------------------5--------------------------5----------------|
|--------------------5--------------------------5----------------|
|--3--3--3--3--3--3--3--------------------------3----------------|



   |------3-------|                   |----3----|
   S      +S   E  H            +Q    +S   +S    S  E
|------------------------------------------------------|
|------------------------------------------------------|
|-14b16==(16)r---14b16========(16)--(16)-(16)r-12------|
|-------------------------------------------------14---|
|------------------------------------------------------|
|------------------------------------------------------|
|
|  |------3-------|     |-3-|
|  E           E  E     E E E   Q     Q
|------------------------------------------------------|
|------------------------------------------------------|
|------------------------------------------------------|
|-------------------------------5-----5----------------|
|-------------------------------5-----5----------------|
|--3-----------3--3-----3-3-3---3-----3----------------|


                                              ~~
   |----3----|    |---3---|    |----3----|
   Q    Q    Q    Q  Q    Q    Q    Q    Q    H
|---------------------------|-----------------------|
|---------------------------|-----------------------|
|-12--------12--------------|-----------------------|
|------14--------14-13---12-|-----------------------|
|---------------------------|-14---13---12---10-----|
|---------------------------|-----------------------|
|
|  |-3--| |-3--|               |-3--| |-3--|
|  E E  E E  E E  Q    Q       E E  E E  E E  Q  Q
|---------------------------|-----------------------|
|---------------------------|-----------------------|
|---------------------------|-----------------------|
|-----------------5----6----|-----------------3--3--|
|-----------------5----6----|-----------------3--3--|
|--3-3--3-3--3-3------------|--1-1--1-1--1-1--1--1--|


   PM|                   PM|                     PM|                   PM|
   E  E  E        +E     E  E  E         +E      E  E  E         +E    E  E  E        +E
|---------------------------------------------|---------------------------------------------|
|-------14b14.5=(14.5)r-------14b14.5=(14.5)r-|-------14b14.5=(14.5)r-------14b14.5=(14.5)r-|
|-------14b15=====(14)r-------14b15=====(14)r-|-------14b15=====(14)r-------14b15=====(14)r-|
|-17-17-----------------17-17-----------------|-17-17-----------------17-17-----------------|
|---------------------------------------------|---------------------------------------------|
|---------------------------------------------|---------------------------------------------|
|
|  PM|                  PM|                     PM|                   PM|
|  E  E  Q              E  E  Q                 E  E  Q               E  E  Q
|---------------------------------------------|---------------------------------------------|
|---------------------------------------------|---------------------------------------------|
|---------------------------------------------|---------------------------------------------|
|--------5---------------------5--------------|--------5---------------------5--------------|
|--------5---------------------5--------------|--------5----------------------5-------------|
|--3--3--3---------------3--3--3--------------|--3--3--3--------------3--3--3---------------|


   E.         +S   +S   +S         +S     +S   +Q    S      +S   +S    +S
|------------------------------------------------------------------------------|
|-17b18======(18)r(17)-(17)b18====(18)r==(17)-(17)--17b18==(18)-(18)r-(17)b18==|
|-17b18======(18)r(17)-(17)b18====(18)r==(17)-(17)--17b18==(18)-(18)r-(17)b18==|
|------------------------------------------------------------------------------|
|------------------------------------------------------------------------------|
|------------------------------------------------------------------------------|
|
|  |---3---|        |--------3---------|
|  E     E E        E           E      E        Q    Q
|------------------------------------------------------------------------------|
|------------------------------------------------------------------------------|
|------------------------------------------------------------------------------|
|------------------------------------------------------------------------------|
|-----------------------------------------------3----3-------------------------|
|--1-----1-1--------1-----------1------1--------1----1-------------------------|


    ~~~~~                                         PM|                   PM|
                                |---3----|
   +Q        +Q           +S   +E    S.  S  Q     E  E  E         +E    E  E  E         +E
|----------------------------------------------|----------------------------------------------|
|-(18)r-----(17)b18======(18)-(18)rp15-----15--|-------14b14.5=(14.5)r-------14b14.5=(14.5)r--|
|-(18)r-----(17)b18======(18)-(18)r-15-----15--|-------14b15=====(14)r-------14b15=====(14)r--|
|---------------------------------------17-----|-17-17-----------------17-17------------------|
|----------------------------------------------|----------------------------------------------|
|----------------------------------------------|----------------------------------------------|
|
|                                                 PM|                   PM|
|   |--3--|   |---3----|
|   E   E E   E      E E   Q                Q     E  E  Q               E  E  Q
|----------------------------------------------|----------------------------------------------|
|----------------------------------------------|----------------------------------------------|
|----------------------------------------------|----------------------------------------------|
|----------------------------------------------|--------5---------------------5---------------|
|--------------------------3----------------3--|--------5---------------------5---------------|
|---1---1-1---1------1-1---1----------------1--|--3--3--3---------------3--3--3---------------|


   E  Q    E  Q.      E
|-----------------------|
|----17---17-15------15-|
|----17---17-15---------|
|-17--------------------|
|-----------------------|
|-----------------------|
|
|  PM|        PM-|
|
|  E  E Q     E  E Q
|-----------------------|
|-----------------------|
|-----------------------|
|-------5----------5----|
|-------5----------5----|
|--3--3-3-----3--3-3----|


   S      +S      E    S      +S      E    S      +S    E  S      +S    E
|----------------15------------------15----------------15--------------15-|
|-18b20==(20)r--------18b20==(20)r--------18b20==(20)r----18b20==(20)r----|
|-------------------------------------------------------------------------|
|-------------------------------------------------------------------------|
|-------------------------------------------------------------------------|
|-------------------------------------------------------------------------|
|
|
|  |-------3--------|  |-------3--------|
|  E           E    E  E           E    E  Q               Q
|-------------------------------------------------------------------------|
|-------------------------------------------------------------------------|
|-------------------------------------------------------------------------|
|-------------------------------------------------------------------------|
|------------------------------------------3---------------3--------------|
|--1-----------1----1--1-----------1----1--1---------------1--------------|



                                           ~~~~~~
   S      +S      E    S      +S      E    Q       +Q
|----------------15------------------15-------------------||
|-18b20==(20)r--------18b20==(20)r--------18b20===(20)r---||
|---------------------------------------------------------||
|---------------------------------------------------------||
|---------------------------------------------------------||
|---------------------------------------------------------||
|
|  |-------3--------|  |-------3--------|
|  E           E    E  E           E    E  Q        Q
|---------------------------------------------------------||
|---------------------------------------------------------||
|---------------------------------------------------------||
|---------------------------------------------------------||
|------------------------------------------3--------3-----||
|--1-----------1----1--1-----------1----1--1--------1-----||


  Gtrs II, III
  |-3-| |-3-|     |-3-|   |-3-| |-3-| |-3-| |-3-|     |-3-| |-3-|    |-3-|
  E E E E E E E E E E E   E E E E E E E E E E E E     E E E E E E Q  E E E
|-----------------------|-------------------------||------------------------|
|-----------------------|-------------------------||o-----------------------|
|-----------------------|-------------------------||------------------------|
|-----------------------|-------------------------||--------------2---------|
|-----------------5-5-5-|-5-5-5-4-4-4-3-3-3-2-2-2-||o-------------2---------|
|-3-3-3-3-3-3-3---------|-------------------------||--0-0-0-0-0-0----0-0-0--|


  |-3-|    |-3-|        |-3-| |-3-|     |-3-|   |-3-| |-3-| |-3-| |-3-|
  E E E Q  E E E Q   4x E E E E E E E E E E E   E E E E E E E E E E E E
|--------------------||-----------------------|-------------------------|
|-------------------o||-----------------------|-------------------------|
|--------------------||-----------------------|-------------------------|
|-------2--------3---||-----------------------|-------------------------|
|-------2--------3--o||-----------------5-5-5-|-5-5-5-4-4-4-3-3-3-2-2-2-|
|-0-0-0----0-0-0-----||-0-0-0-0-0-0-0---------|-------------------------|


  Gtr II
  |-3-| |----3----|      |-3-|   |----3----|      |-3-|
  E E E Q        +E   Q  E E E   Q        +E   Q  E E E Q
|------------------------5-5-5-|------------------7-7-7-5--|
|-8-8-8-7b7.5==(7.5)r----7-7-7-|-8b8.5==(8.5)r----8-8-8-7--|
|-9-9-9-7b7.5==(7.5)r-7--------|-9b9.5==(9.5)r-9-----------|
|---------------------9--------|---------------9-----------|
|------------------------------|---------------------------|
|------------------------------|---------------------------|
|
| Gtr III
| |-3-| |----3----|      |-3-|   |----3----|      |-3-|
| E E E E      E  E   Q  E E E   E      E  E   Q  E E E Q
|------------------------------|---------------------------|
|------------------------------|---------------------------|
|------------------------------|---------------------------|
|---------------------2--------|---------------2--------3--|
|---------------------2--------|---------------2--------3--|
|-0-0-0-0------0--0------0-0-0-|-0------0--0------0-0-0----|


  |-3-|       |-3-|         |-3-|    |-3-|
  E E E Q     E E E Q       E E E Q  E E E Q
|-7-5---5-----5-----------|--------------------|
|-8-7-8-7-----7-8-7-8-----|-8-7-5-7--7-5---5---|
|-----9---------9-7-9-----|-9-7-6-7--7-6-7-6---|
|-------------------------|--------------9-----|
|-------------------------|--------------------|
|-------------------------|--------------------|
|
| |-3-| |-3-|       |-3-|   |-3-|    |-3-|
| E E E E E E Q     E E E   E E E Q  E E E Q
|-------------------------|--------------------|
|-------------------------|--------------------|
|-------------------------|--------------------|
|-------------2-----------|-------2--------3---|
|-------------2-----------|-------2--------3---|
|-0-0-0-0-0-0-------0-0-0-|-0-0-0----0-0-0-----|


  Gtr II
  |-3-| |----3----|      |-3-|   |----3----|      |-3-|
  E E E Q        +E   Q  E E E   Q        +E   Q  E E E Q
|------------------------5-5-5-|------------------7-7-7-5--|
|-8-8-8-7b7.5==(7.5)r----7-7-7-|-8b8.5==(8.5)r----8-8-8-7--|
|-9-9-9-7b7.5==(7.5)r-7--------|-9b9.5==(9.5)r-9-----------|
|---------------------9--------|---------------9-----------|
|------------------------------|---------------------------|
|------------------------------|---------------------------|
|
| Gtr III
| |-3-| |----3----|      |-3-|   |----3----|      |-3-|
| E E E E      E  E   Q  E E E   E      E  E   Q  E E E Q
|------------------------------|---------------------------|
|------------------------------|---------------------------|
|------------------------------|---------------------------|
|---------------------2--------|---------------2--------3--|
|---------------------2--------|---------------2--------3--|
|-0-0-0-0------0--0------0-0-0-|-0------0--0------0-0-0----|


  |-3-|       |-3-|          |-3-|    |-3-|
  E E E Q     E E E Q        E E E Q  E E E Q
|-7-5---5-----5-----------|--8-7-5-7--7-5---5---|
|-8-7-8-7-----7-8-7-8-----|-10-8-7-8--8-7-8-7---|
|-----9---------9-7-9-----|---------------9-----|
|-------------------------|---------------------|
|-------------------------|---------------------|
|-------------------------|---------------------|
|
| |-3-| |-3-|       |-3-|    |-3-|    |-3-|
| E E E E E E Q     E E E    E E E Q  E E E Q
|-------------------------|---------------------|
|-------------------------|---------------------|
|-------------------------|---------------------|
|-------------2-----------|--------2--------3---|
|-------------2-----------|--------2--------3---|
|-0-0-0-0-0-0-------0-0-0-|--0-0-0----0-0-0-----|


  Gtr II
  |-3-| |----3----|      |-3-|   |----3----|      |-3-|
  E E E Q        +E   Q  E E E   Q        +E   Q  E E E Q
|------------------------5-5-5-|------------------7-7-7-5--|
|-8-8-8-7b7.5==(7.5)r----7-7-7-|-8b8.5==(8.5)r----8-8-8-7--|
|-9-9-9-7b7.5==(7.5)r-7--------|-9b9.5==(9.5)r-9-----------|
|---------------------9--------|---------------9-----------|
|------------------------------|---------------------------|
|------------------------------|---------------------------|
|
| Gtr III
| |-3-| |----3----|      |-3-|   |----3----|      |-3-|
| E E E E      E  E   Q  E E E   E      E  E   Q  E E E Q
|------------------------------|---------------------------|
|------------------------------|---------------------------|
|------------------------------|---------------------------|
|---------------------2--------|---------------2--------3--|
|---------------------2--------|---------------2--------3--|
|-0-0-0-0------0--0------0-0-0-|-0------0--0------0-0-0----|


  |-3-|       |-3-|         |-3-|    |-3-|
  E E E Q     E E E Q       E E E Q  E E E Q
|-7-5---5-----5-----------|--------------------|
|-8-7-8-7-----7-8-7-8-----|-8-7-5-7--7-5---5---|
|-----9---------9-7-9-----|-9-7-6-7--7-6-7-6---|
|-------------------------|--------------9-----|
|-------------------------|--------------------|
|-------------------------|--------------------|
|
| |-3-| |-3-|       |-3-|   |-3-|    |-3-|
| E E E E E E Q     E E E   E E E Q  E E E Q
|-------------------------|--------------------|
|-------------------------|--------------------|
|-------------------------|--------------------|
|-------------2-----------|-------2--------3---|
|-------------2-----------|-------2--------3---|
|-0-0-0-0-0-0-------0-0-0-|-0-0-0----0-0-0-----|


  Gtr II
  |-3-| |----3----|      |-3-|   |----3----|      |-3-|
  E E E Q        +E   Q  E E E   Q        +E   Q  E E E Q
|------------------------5-5-5-|------------------7-7-7-5--|
|-8-8-8-7b7.5==(7.5)r----7-7-7-|-8b8.5==(8.5)r----8-8-8-7--|
|-9-9-9-7b7.5==(7.5)r-7--------|-9b9.5==(9.5)r-9-----------|
|---------------------9--------|---------------9-----------|
|------------------------------|---------------------------|
|------------------------------|---------------------------|
|
| Gtr III
| |-3-| |----3----|      |-3-|   |----3----|      |-3-|
| E E E E      E  E   Q  E E E   E      E  E   Q  E E E Q
|------------------------------|---------------------------|
|------------------------------|---------------------------|
|------------------------------|---------------------------|
|---------------------2--------|---------------2--------3--|
|---------------------2--------|---------------2--------3--|
|-0-0-0-0------0--0------0-0-0-|-0------0--0------0-0-0----|


  |-3-|       |-3-|         |-3-|    |-3-|      |-3-|       |-3-|
  E E E Q     E E E Q       E E E Q  E E E Q    E E E Q     E E E Q
|-7-5---5-----5-----------|-------------------|-------------------------|
|-8-7-8-7-----7-8-7-8-----|-8-7-5-7--7-5---5--|-5-----------------------|
|-----9---------9-7-9-----|-9-7-6-7--7-6-7-6--|-6-7-6-7-----7-6-4-6-----|
|-------------------------|--------------9----|---9-7-9-----9-7-5-7-----|
|-------------------------|-------------------|-------------------------|
|-------------------------|-------------------|-------------------------|
|
| |-3-| |-3-|       |-3-|   |-3-|    |-3-|      |-3-| |-3-|       |-3-|
| E E E E E E Q     E E E   E E E Q  E E E Q    E E E E E E Q     E E E
|-------------------------|-------------------|-------------------------|
|-------------------------|-------------------|-------------------------|
|-------------------------|-------------------|-------------------------|
|-------------2-----------|-------2--------3--|-------------2-----------|
|-------------2-----------|-------2--------3--|-------------2-----------|
|-0-0-0-0-0-0-------0-0-0-|-0-0-0----0-0-0----|-0-0-0-0-0-0-------0-0-0-|


  |-3-|    |-3-|
  E E E Q  E E E Q      W                      W                  3x
|-------------------||-----------------------|--------------------||
|-------------------||o----------------------|-------------------o||
|-6-4-2-4--4-2-0-2--||-----------------------|--------------------||
|-7-5-4-5--4-2-0-4--||-----------------------|--------------------||
|-------------------||o----------------------|-------------------o||
|-------------------||-----------------------|--------------------||
|
|                       Gtrs II, III
| |-3-|    |-3-|        |-3-| |-3-|    |-3-|   |-3-|    |-3-|
| E E E Q  E E E Q      E E E E E E Q  E E E   E E E Q  E E E Q   3x
|-------------------||-----------------------|--------------------||
|-------------------||o----------------------|-------------------o||
|-------------------||-----------------------|--------------------||
|-------2--------3--||--------------2--------|-------2--------3---||
|-------2--------3--||o-------------2--------|-------2--------3--o||
|-0-0-0----0-0-0----||--0-0-0-0-0-0----0-0-0-|-0-0-0----0-0-0-----||


    Gtrs II, III
    PM--------|    PM----------|    PM--|      PM|    PM|      PM|    PM|
    |-3-| |-3-|    |-3-|   |-3-|    |-3-|
    E E E E E E Q  E E E   E E E Q  E E E Q    E E Q  E E Q    E E Q  E E Q
||-----------------------|-------------------|---------------|----------------||
||o----------------------|-------------------|---------------|---------------o||
||-----------------------|-------------------|---------------|----------------||
||--------------2--------|-------2--------3--|-----5------5--|-----5------5---||
||o-------------2--------|-------2--------3--|-----5------5--|-----5------5--o||
||--0-0-0-0-0-0----0-0-0-|-0-0-0----0-0-0----|-3-3-3--3-3-3--|-3-3-3--3-3-3---||


                        1.,2.,3.          4.
    PM--------|         PM|    PM|        PM|    PM|      PM|    PM|
    |-3-| |-3-|
    E E E E E E Q  Q    E E Q  E E Q   4x E E Q  E E Q    E E Q  E E Q
||--------------------|----------------||---------------|----------------|
||o-------------------|---------------o||---------------|----------------|
||--------------------|----------------||---------------|----------------|
||--------------2--2--|-----3------3---||-----5------5--|-----5------5---|
||o-------------2--2--|-----3------3--o||-----5------5--|-----5------5---|
||--0-0-0-0-0-0-0--0--|-1-1-1--1-1-1---||-3-3-3--3-3-3--|-3-3-3--3-3-3---|


  PM--------|    PM----------|    PM--|
  |-3-| |-3-|    |-3-|   |-3-|    |-3-|
  E E E E E E Q  E E E   E E E Q  E E E Q
|----------------------|-------------------|
|----------------------|-------------------|
|----------------------|-------------------|
|-------------2--------|-------2--------3--|

|-------------2--------|-------2--------3--|
|-0-0-0-0-0-0----0-0-0-|-0-0-0----0-0-0----|


  |-3-| |-3-|     |-3-|   |-3-|
  E E E E E E E E E E E   E E E E E H
|-----------------------|----------------*|
|-----------------------|----------------*|
|-----------------------|----------------*|
|-2-2-2-2-2-2-2---2-2-2-|-2-2-2-2--------*|
|-2-2-2-2-2-2-2---2-2-2-|-2-2-2-2--------*|
|-0-0-0-0-0-0-0---0-0-0-|-0-0-0-0--------*|

6.LAST CARESS

Intro
|---------------10-12-----10-12--10---7----|
|10-------------10-12--10-10-12--10---7----|
|10--------------8-10--10--8-10---8---5----|
|-8---------------------8------------------|

Verse
   PM...................		     
|-------------------------10-12-|
|10-----------------------10-12-|
|10------------------------8-10-|
|-8--8-8-8-8-8-8-8-8-8-8--------|
   
Fill
                PM........... 
|10---10---7--7------------------------------------|
|10---10---7--7---10---------------9/10-10-10------|
|-8----8---5--5---10---------------9/10-10-10------|
|------------------8--8-8-8-8-8-8--7/8---8--8------|

Chorus
|-3-----3----5-----5-----------------------------------|
|-1-----1----3-----3--8-8-8-8-7-7-7-7-5-5-5-5-5-5-5-5--|

End
|----------10-12-|
|-10-------10-12-|
|-10--------8-10-|
|--8-------------|

7.AM I EVIL

Gtr 1 : Distorted



        |   |   |   |     |   |   |   |    |   |     |   |        
    
||---||-----------------|----------------|---------------------|
||-4-||-----------------|----------------|---------------------|
||---||-9-----------7-9-|-10----------12-|-9---9-9-9-9---9-9-9-|
||-4-||-9-----------7-9-|-10----------12-|-9---9-9-9-9---9-9-9-|
||---||-7-----------5-7-|-8-----------10-|-7---7-7-7-7---7-7-7-|
||---||-----------------|----------------|---------------------|

   |   |     |     |       |   |     |   |       |   |     |	 |
 
 |-----------------------|---------------------|-----------------------|
 |-----------------------|---------------------|-----------------------|
 |-9---9-9-9-7-7-7-7-7-7-|-9---9-9-9-9---9-9-9-|-9---9-9-9-7-7-7-7-7-7-|
 |-9---9-9-9-7-7-7-7-7-7-|-9---9-9-9-9---9-9-9-|-9---9-9-9-7-7-7-7-7-7-|
 |-7---7-7-7-5-5-5-5-5-5-|-7---7-7-7-7---7-7-7-|-7---7-7-7-5-5-5-5-5-5-|
 |-----------------------|---------------------|-----------------------|
					       |
					       |
   					       | Gtr 2 : Distorted
					       | ( Trem Strum ) 
					       |-----------------------|
					       |-----------------------|
 					       |-----------------------|
					       |-14-\------------------|
					       |-14-\------------------|
					       |-12-\------------------|

  
Gtr 1 doubles Gtr 2

  |   |     |   |       |   |     |     |       |   |     |   |

|---------------------|-----------------------|---------------------|
|---------------------|-----------------------|---------------------|
|*--------------------|-----------------------|---------------------|
|-2-------------------|-----------9-9-9-9-9-9-|-8-------------------|
|*2-------------------|-----------9-9-9-9-9-9-|-8-------------------|
|-0-------------------|-----------7-7-7-7-7-7-|-6-------------------|


 
  |   |     |     |       |   |     |   |       |   |     |     |    

|-----------------------|---------------------|-----------------------|
|-----------------------|---------------------|-----------------------|
|----------------------*|---------------------|-----------------------|
|-----------3-3-3-3-3-3-|-2-------------------|-----------9-9-9-9-9-9-|
|-----------3-3-3-3-3-3*|-2-------------------|-----------9-9-9-9-9-9-|
|-----------1-1-1-1-1-1-|-0-------------------|-----------7-7-7-7-7-7-|



  |   |     |   |       |   |     |        |          |   |     |   |

|---------------------|-----------------------------|---------------------|
|---------------------|-----------------------------|---------------------|
|---------------------|-----------10-10-10-10-10-10-|-9-------------------|
|-8-------------------|-----------10-10-10-10-10-10-|-9-------------------|
|-8-------------------|-----------8--8--8--8--8--8--|-7-------------------|
|-6-------------------|-----------------------------|---------------------



  |   |     |     |       |   |     |   |       |   |     |     |

|-----------------------|---------------------|-----------------------|
|-----------------------|---------------------|-----------------------|
|-----------------------|---------------------|-----------------------|
|-----------9-9-9-9-9-9-|-8-------------------|-----------3-3-3-3-3-3-|
|-----------9-9-9-9-9-9-|-8-------------------|-----------3-3-3-3-3-3-|
|-----------7-7-7-7-7-7-|-6-------------------|-----------1-1-1-1-1-1-|



  |   |     |   |       |   |     |     |       |    |     |   |
   
|---------------------|-----------------------|----------------------|
|---------------------|-----------------------|----------------------|
|---------------------|-----------------------|*---------------------|
|-2-------------------|-----------7-7-7-7-7-7-|-/9---9-9-9-9---9-9-9-|
|-2-------------------|-----------5-5-5-5-5-5-|*/7---7-7-7-7---7-7-7-|
|-0-------------------|-----------------------|----------------------|


                        Gtr 1 : Grad rit.

  |   |     |     |       |   |   |   |      |   |   |   |
	(Repeat 3 times)
                                  ~~             ~~      ~~
|-----------------------|------------------|-------------------|
|-----------------------|------------------|-------------------|
|----------------------*|------------------|-------------10----|
|-9---9-9-9-7-7-7-7-7-7-|------------------|-----9---8---------|
|-7---7-7-7-5-5-5-5-5-5*|-------------8----|-7-----------------|
|-----------------------|-0---7---6--------|-------------------|


  ~~                                  
|------------------------------------|
|------------------------------------|
|-9---10---/12---/14-----/16---------|
|------------------------------------|
|------------------------------------|
|------------------------------------|



Gtr 2 : Intro solo. (See comments at end)

   HH  HH  HH  HH  HH  HH  HH  HH    HH  HH  HH  HH  HH  HH  HH  HH
|---------------------------------|---------------------------------|
|-058-058-058-058-058-058-058-058-|-047-047-047-047-047-047-047-047-|
|---------------------------------|---------------------------------|
|---------------------------------|---------------------------------|
|---------------------------------|---------------------------------|
|---------------------------------|---------------------------------|


							(Hold last note..)
   HH  HH  HH  HH  HH   HH   HH  HH    HH  HH  HH  HH  HH  HH  HH
|-----------------------------------|---------------------------------|
|-058-058-058-058-0710-0710-058-058-|-047-047-047-047-047-047-047-----|
|-----------------------------------|---------------------------------|
|-----------------------------------|---------------------------------|
|-----------------------------------|---------------------------------|
|-----------------------------------|---------------------------------|


  A   A   A   A   A   A Wh~~~~~~
|-------------------------------|
|-------------------------------|
|-------------------------------|
|-----5-------------------------|
|-5-----------5-------7---------|
|---------5-------7-------------|



"One, Two"		(Repeat Main Riff 8 times before verse)

                      PM---|  PM-|  PM---|

           	    |   |   |  |    |   |   |  |
Main Riff :       |------------------------------|
		  |------------------------------|
		  |*----------------------------*|
		  |---------------2---------3--2-|
		  |*2-2-2-2-5-2-2-0-2-2-2---1--0*|
		  |-0-0-0-0-3-0-0---0-0-0--------|	

(Main Riff with verse 1)

Verse 1 : (Lyrics)

		My mother was a witch, she was burned alive.
		Thankless little bitch, for the tears i've cried.
		Take her down now, don't want to see her face.
		All blistered and burned, can't hide my disgrace.


		      PM---|  PM-|  PM---|

		    |   |   |  |    |   |   |  |
Pre-Chorus riff : |------------------------------|
		  |------------------------------|
		  |*----------------------------*|
		  |---------7-----9---------10-9-|
		  |*7-7-7-7-5-7-7-7-7-7-7---8--7*|
		  |-5-5-5-5---5-5---5-5-5--------|

(Pre-Chorus riff x 4 with Pre-Chorus)

Pre-Chorus : (Lyrics)

		Twenty-seven, every one is nice,
		Gotta see 'em, make 'em pay the price,
		See the bodies out on the ice,
		Take my time.......


(Main Riff x 4 with Chorus)

Chorus : (Lyrics)

		Am I Evil?
		Yes I am,
		Am I Evil?
		I am that, yes I am....


			*******Main Riff x 2*******

(Main Riff x 8 with verse 2)

Verse 2 : (Lyrics)

		As i watched my mother die, I lost my head,
		Revenge now I sought, to break with my bread,
		Taking no chances, you come with me,
		I split you to the bone, help set you free.


(Pre-chorus riff x 4 with pre-chorus)

(Main Riff x 4 with chorus)



Bridge : 

		|------------------|------------------------------|
		|------------------|------------------------------|
		|*9-----7-----5---*|------------------------------|
		|-9-----7-----5----|---------------2---------3--2-|
		|*7-----5-----3---*|-2-2-2-2-5-2-2-0-2-2-2---1--0*|
		|------------------|-0-0-0-0-3-0-0---0-0-0--------|


               (Repeat 3 times)

	. |   |   |   |      |   |     |  |       |   |   |   |    
						    ~~~~~~~~~~~
	|------------------|--------------------|------------------|
	|------------------|--------------------|------------------|
	|*9-----7-----5---*|-9-----11-----12----|------------------|
	|-9-----7-----5----|-9-----11-----12----|------------------|
	|*7-----5-----3---*|-7-----9------10----|--/7--------------|
	|------------------|--------------------|------------------|



Double Time feel : 


	
				      _______________________________________
Fast Riff 1:			      |1.

  |   |   |   |      |   |   |   |      |   |   |   |      |   |   |   |

     PM-|    PM-|       PM-|               PM-|    PM--|      PM-|
|------------------|------------------|------------------|------------------|
|------------------|------------------|------------------|------------------|
|*-----------------|------------------|------------------|-----------------*|
|------------------|-------------7----|------------------|---------5--------|
|*7--7777-7--7777--|-7--7777-5---5----|-7--7777-7--7777--|-7--7777-3---5---*|
|-5--5555-5--5555--|-5--5555-3--------|-5--5555-5--5555--|-5--5555-----3----|


_____________________________________
|2.					Fast Riff 2 : (Note : Lyrics)

  |   |   |   |      |   |   |   |      |   |   |   |     |   |   |   | 

     PM-|    PM--|			PM------------------------|
|------------------|-----------------||-----------------|-----------------|
|------------------|-----------------||-----------------|-----------------|
|------------------|-----------------||*----------------|-----------------|
|------------------|-----------------||-----------------|------------7----|
|-7--7777-7--7777--|-----------------||*2--2222-2-2222--|-2--2222-2--5----|
|-5--5555-5--5555--|-555-555-555-532-||-0--0000-0-0000--|-0--0000-0-------|
   		   |   Triplets      |


  |   |   |   |     |   |   |   |   

  PM-------------------------|
|-----------------|-----------------|	
|-----------------|-----------------|
|-----------------|----------------*|    Repeat whole sequence again.
|-----------------|------------7-7--|
|-2--2222-2-2222--|-2--2222-2--5-5-*|
|-0--0000-0-0000--|-0--0000-0-------|



(With Fast Riff 2 [First repeat])

Lyrics : 


(With Fast Riff 2 [Second repeat])

Lyrics :







		*******Then Fast Riff 1 x 1*******



  |   |   |   |      |   |   |   |      |   |   |   |

|------------------|------------------|------------------|
|------------------|------------------|------------------|
|------------------|------------------|------------------|
|-2----------------|------------------|-5-------7--------|
|-2----------------|------------------|-5-------7--------|
|-0----------------|------------------|-3-------5--------|


GUITAR SOLO:

	
For the solo, the rhythm follows the following 'feel':

          X       X         X       X           
	|-X--XXXX-X-XXXX--|-X--XXXX-X-XXXX--|

	Chord changes are noted above tab lines, and are 2 or 3 fingered power
chords, depending on what you feel like. For the 'XX' notes, strike the
full chord, on the others just play the lowest note (Usually the E string)

  B5
  
  |  |||| |  | |||    |    | ||| |   | || |    
  @  @@@@ @  @ @@@    @    @ @@@ @   @ @@ @   
      (Full)    P                               
|-----------7-------|----------------11-12--|
|------------10-7-7/|/12-----------12-------|
|-9^^^^^^^^^--------|-----------------------|
|-------------------|-----------------------|
|-------------------|-----------------------|
|-------------------|-----------------------|



  |       |  |  |  |     |     |  |  |  |    |    |||| |   ||||
  @       @  @  @  @     @     @  @  @  @    @    @@@@ @   @@@@
    H  P       H  H        P  P     P  P
|-11-12-11---11-12-14-14-14-12-11-12-11----|-----------------7---|
|---------12----------------------------12-|-10---------/7-------|
|------------------------------------------|---------------------|
|------------------------------------------|---------------------|
|------------------------------------------|---------------------|
|------------------------------------------|---------------------|



  |  ||||  |     |   | |  |     |    | || | |     ||||
  @  @@@@  @     @   @ @  @     @    @ @@ @ @     @@@@
            H P                   P       P   P 
|-10-9--7--7-9-7-----7--------|--------------------------|
|----------------10----10-7---|-10-7---7-----------------|
|-----------------------------|------9---9-7-9-7---7---7-|
|-----------------------------|------------------9-------|
|-----------------------------|--------------------------|
|-----------------------------|--------------------------|



  |    ||  | | |    | | | |     |    ||  | | |    | | | | 
  @    @@  @ @ @    @ @ @ @     @    @@  @ @ @    @ @ @ @
 (Full)                        (Full)
|-----7-----------------------|-----7-----------------------|
|-----7-10-7---7--------------|-----7-10-7---7--------------|
|-9^^--------9---9-7-7------7-|-9^^--------9---9-7-7------7-|
|-----------------------------|-----------------------------|
|-----------------------------|-----------------------------|
|-----------------------------|-----------------------------|




  |    ||  | | |    | | | |      |      | | | |   |   | | | |
  @    @@  @ @ @    @ @ @ @      @      @ @ @ @   @   @ @ @ @
 (Full)
|-----7-----------------------|-/19--/20---/22---/24----------|
|-----7-10-7---7--------------|-------------------------------|
|-9^^--------9---9-7-7------7-|-------------------------------|
|-----------------------------|-------------------------------|
|-----------------------------|-------------------------------|
|-----------------------------|-------------------------------|



  E5
  |      | |  |  |  |      | |  |  |    |      | |  |  |  |      | |  |  |
  @      @ @  @  @  @      @ @  @  @    @      @ @  @  @  @      @ @  @  @
    P  P              P  P                P  P              P  P
|-15-14-12----12-14-15-14-12----12-14-|-15-14-12----12-14-15-14-12----12-14-|
|----------15----------------15-------|----------15----------------15-------|
|-------------------------------------|-------------------------------------|
|-------------------------------------|-------------------------------------|
|-------------------------------------|-------------------------------------|
|-------------------------------------|-------------------------------------|




  |     | | | |  |     | | | |     |     | | | |  |     | | | | 
  @     @ @ @ @  @     @ @ @ @     @     @ @ @ @  @     @ @ @ @

|-15---14---12--------12---------|--------------------------------|
|----------------15--------15----|-14---12---14-------------------|
|--------------------------------|----------------12======--------|
|--------------------------------|--------------------------------|
|--------------------------------|--------------------------------|
|--------------------------------|--------------------------------|



  B5
  |  | | | | |   | | | |    |    | | | |  |   | | | |
  @  @ @ @ @ @   @ @ @ @    @    @ @ @ @  @   @ @ @ @
 (Full) P     P      P        P      P     P     P
|------7-0-0-9-0-0-10-0-0-|-12-0-0-10-0-0-9-0-0-7-0-0-|
|----7--------------------|---------------------------|
|-9^----------------------|---------------------------|
|-------------------------|---------------------------|
|-------------------------|---------------------------|
|-------------------------|---------------------------|

  |    | | | | |   | | | |      |   | | | | |   | | | |
  @    @ @ @ @ @   @ @ @ @      @   @ @ @ @ @   @ @ @ @ 

|-10---9---7--------7---------|----------------------------|
|--------------10-------10----|-9---7---9------------------|
|-----------------------------|-------------7======\-------|
|-----------------------------|----------------------------|
|-----------------------------|----------------------------|
|-----------------------------|----------------------------|

 
  |  |||| |  ||||   |  |||| |  ||||   |  |||| |  ||||   |  |||| |  ||||
  @  @@@@ @  @@@@   @  @@@@ @  @@@@   @  @@@@ @  @@@@   @  @@@@ @  @@@@
   HH  HH  HH  HH    HH  HH  HH  HH    HH  HH  HH  HH    HH  HH  HH  HH
|-----------------|-----------------|-----------------|-047-047-047-047-|
|-047-047-047-047-|-058-058-058-058-|-047-047-047-047-|-----------------|
|-----------------|-----------------|-----------------|-----------------|
|-----------------|-----------------|-----------------|-----------------|
|-----------------|-----------------|-----------------|-----------------|
|-----------------|-----------------|-----------------|-----------------|



                                      A5
  |  |||| |  ||||   |  |||| |  ||||   |   ||||  |   ||||
  @  @@@@ @  @@@@   @  @@@@ @  @@@@   @   @@@@  @   @@@@
   HH  HH  HH  HH    HH  HH  HH  HH   T PP T PP T PP T PP
|-058-058-058-058-|-047-047-047-047-|-1285-1285-1285-1285-|
|-----------------|-----------------|---------------------|
|-----------------|-----------------|*-------------------*|
|-----------------|-----------------|---------------------|
|-----------------|-----------------|*-------------------*|
|-----------------|-----------------|---------------------|



  F5                    A#5                   F#5
  |   ||||  |   ||||    |   ||||  |   ||||    |   ||||  |   ||||
  @   @@@@  @   @@@@    @   @@@@  @   @@@@    @   @@@@  @   @@@@
  T PP T PP T PP T PP   T PP T PP T PP T PP   T PP T PP T PP T PP 
|-1385-1385-1385-1385-|-1396-1396-1396-1396-|-1496-1496-1496-1496-|
|---------------------|---------------------|---------------------|
|*-------------------*|*-------------------*|---------------------|
|---------------------|---------------------|---------------------|
|*-------------------*|*-------------------*|---------------------|
|---------------------|---------------------|---------------------|




  B5
  |    || | | |    || | |   |  |||| |  ||||   |  |||| |  ||||
  @    @@ @ @ @    @@ @ @   @  @@@@ @  @@@@   @  @@@@ @  @@@@
  T P P T P P T P P T P P    HH  HH  HH  HH    HH  HH  HH  HH
|-14107-14107-14107-14107-|-047-----047-----|-047-----047-----|
|-------------------------|-----047-----047-|-----047-----047-|
|*-----------------------*|-----------------|-----------------|
|-------------------------|-----------------|-----------------|
|*-----------------------*|-----------------|-----------------|
|-------------------------|-----------------|-----------------|




  |  |||| |  ||||   |  |||| |  ||||   |  |||| |  ||||   |  |||| |  ||||
  @  @@@@ @  @@@@   @  @@@@ @  @@@@   @  @@@@ @  @@@@   @  @@@@ @  @@@@
   HH  HH  HH  HH    HH  HH  HH  HH    HH  HH  HH  HH    HH  HH  HH  HH
|-----------------|-----------------|-----------------|-----------------|
|-047-----047-----|-047-----047-----|-----------------|-----------------|
|-----047-----047-|-----047-----047-|-047-----047-----|-047-----047-----|
|-----------------|-----------------|-----047-----047-|-----047-----047-|
|-----------------|-----------------|-----------------|-----------------|
|-----------------|-----------------|-----------------|-----------------|



                                        E5
  |  |||| |  ||||   |  |||| |  ||||     |      | | |  |   |      | | |  |
  @  @@@@ @  @@@@   @  @@@@ @  @@@@     @      @ @ @  @   @      @ @ @  @
   HH  HH  HH  HH                         P  P     P  P     P  P     P  P
|-----------------|-------------------|-------------------------------------|
|-----------------|----------------12-|-1514-0-0-1715-0-0-1514-0-0-1715-0-0-|
|-----------------|-------------/14---|-------------------------------------|
|-047-----047-----|-------------------|-------------------------------------|
|-----047-----047-|-------------------|-------------------------------------|
|-----------------|-7\----------------|-------------------------------------|



  |      | | |  |   |      | | |  |     |        |  | | |    |    ||| |
  @      @ @ @  @   @      @ @ @  @     @        @  @ @ @    @    @@@ @
    P  P    P  P    P  P    P  P
|-------------------------------------|---------------------------------|
|-1514-0-0-1715-0-0-1514-0-0-1715-0-0-|-1514-0-1412-0-1210-0-109-0-97-0-|
|-------------------------------------|---------------------------------|
|-------------------------------------|---------------------------------|
|-------------------------------------|---------------------------------|
|-------------------------------------|---------------------------------|


                      B5
  |  ||||  |  ||||    |   |||| |    || ||    |    |||| |  ||||
  @  @@@@  @  @@@@    @   @@@@ @    @@ @@    @    @@@@ @  @@@@ 
                     (Full)      P                     (Full)
|-------------------|----------------------|------------10^====|
|-7-----------------|-10^------107---7-----|-------------------|
|-7-9-7---7---------|--------------9---9-7-|-9-7---7-----------|
|-------------------|----------------------|-----9-------------|
|-------------------|----------------------|-------------------|
|-------------------|----------------------|-------------------|

 
  |   || || |       || | |    |    || | |  |  | | | |       (END SOLO)
  @   @@ @@ @       @@ @ @    @    @@ @ @  @  @ @ @ @
              H  P    H  P     H P   H P    ~~~~~~~~
|-9----12-------------------|--------------------------|
|-----------10-12-10-8-10-8-|-7-8-7-5-6-5--3========---|
|---------------------------|--------------------------|
|---------------------------|--------------------------|
|---------------------------|--------------------------|
|---------------------------|--------------------------|


*******Fast Riff 1 x 2 ( Note : Only repeat the first section )*******

On fourth repeat, Gtr 2 plays:

               P
|------------------|
|------------------|
|------------------|
|-/777-777-777-75--|
|----------------7-|
|------------------|


*******Fast Riff 2 x 4*******

*******Fast Riff 1 x 4*******


(Triplet feel - not strict time)

                             _________________________
                             |1,2,3.      |4.
                              H   H P 
|------------------|----------------------|----------| 
|------------------|----------------------|----------|
|------------------|---------------------*|----------|
|-----9---7-7------|-7-7------------------|-7--------|
|-----7---5-5------|-5-5---------5-7-5---*|-5---7----|
|-0-0--------------|---------5-7-------7--|-----5----|




    PM---|  PM-|  PM---|       h   h
              (Repeat 6 times)
|----------------------------|-----------------|
|----------------------------|-----------------|
|*--------------------------*|-----------------|
|---------------2--------3-2-|-------------2---|
|*2-2-2-2-5-2-2-0-2-2-2--1-0*|---------5---2---|
|-0-0-0-0-3-0-0---0-0-0------|-5---5---3---0---| 

8.BATTERY

Intro
        Rhy. Fig. 1
Acous.|--------------------|---------------|--------------|----------------|
gtr.1 |--------------------|---------------|--------------|----------------|
      |--------------------|-----------0---|--------------|----------------|
      |----3-2-----2-------|--2-----0--0---|--3-2---2-----|--2----0--0-----|
      |----2-------0-------|--0--------5---|--2-----0-----|--0-------5-----|
      |----0-------1-------|--2--------3---|--0-----1-----|--2-------3-----|

      Play w/Rhy. Fig 1   ~~~~~~~                 ~~~~                  ~~~
Acous.|-----------------------|-----------------------|--------------------|
gtr.2 |-----------------------|-----------------------|--------------------|
      |---4-5-------4---5-----|---4-5----------5--4---|-4-5-----4-4h5p4----|
      |-------7-----------7---|(7)----7---5-----------|-----7-----------7--|
      |-----------------------|-----------------------|--------------------|
      |-----------------------|-----------------------|--------------------|
       ~~~                ~~~~
      |-----------------------|     Play gtr.2 over gtr.3 with Rhy. Fig. 1 
      |-----------------------|     and the second time through add gtr.4
      |---4-5----------5--4---|     
      |(7)----7---5-----------|
      |-----------------------|
      |-----------------------|

                          ~~~~~~~                 ~~~~                  ~~~
Acous.|-----------------------|-----------------------|--------------------|
gtr.3 |---3-5-------3---5-----|---3-5----------5--3---|-3-5-----3-3h5p3----|
      |-------5-----------5---|(5)----5---4-----------|-----5-----------5--|
      |-----------------------|-----------------------|--------------------|
      |-----------------------|-----------------------|--------------------|
      |-----------------------|-----------------------|--------------------|
       ~~~                ~~~~
      |-----------------------|
      |---3-5----------5--3---|
      |(5)----5---4-----------|
      |-----------------------|
      |-----------------------|
      |-----------------------|

                          ~~~~~~~~                ~~~~~~                ~~~
Acous.|---3-5-------3---5-----|---3-5----------5--3---|-3-5-----3-3h5p3----|
gtr.4 |-------5-----------5---|-5-----5---3-----------|-----5-----------5--|
      |-----------------------|-----------------------|--------------------|
      |-----------------------|-----------------------|--------------------|
      |-----------------------|-----------------------|--------------------|
      |-----------------------|-----------------------|--------------------|
       ~~~                ~~~~
      |---3-5----------5--3---|        
      |-5-----5---3-----------|
      |-----------------------|
      |-----------------------|
      |-----------------------|             Now it changes to electrics.
      |-----------------------|          All electrics play over each other.

Elec. |-----------------------|-----------------------|  
gtr.1 |-----------------------|-----------------------|
      |-----------------------|-----------------------|repeat
      |2--2-2-2-2--3-(3)------|------------5-(5)------|
      |2--2-2-2-2--3-(3)------|5--5-5-5-5--5-(5)------|
      |0--0-0-0-0--1-(1)------|2--2-2-2-2--3-(3)------|
       >  P.M.---| >           > P.M-----| >                  
              ~~~~~~      ~~~~~~~~         ~~~~   ~~~~~~~~~    ~~~~~     ~~
Elec. |-----------------------|-----------------------|--------------------|
gtr.2 |-----------------------|-----------------------|*-------------------|
      |---4-5-------4---5-----|---4-5----------5--4---|(4)-4-5------4--5---|
      |-------7-----------7---|(7)----7----5----------|--------7---------7-|      
      |-----------------------|-----------------------|*-------------------|
      |-----------------------|-----------------------|--------------------|
       ~~~         ~~~~   ~~~~ ~~~         ~~~~    ~~~
       |1.2._________________| |3.___________________|                     
      |-----------------------|-----------------------|
      |----------------------*|-----------------------|
      |---4-5----------5--4---|---4-5----------5---4--|
      |(7)----7----5----------|(7)----7----5----------|
      |----------------------*|-----------------------|
      |-----------------------|-----------------------|
      
              ~~~~~~      ~~~~~~~~         ~~~~   ~~~~~~~~~~    ~~~~     ~~        
Elec. |-----------------------|-----------------------|--------------------|
gtr.3 |---3-5-------3---5-----|---3-5----------5--3---|*(3)-3-5-----3--5---|
      |-------5-----------5---|(5)----5----4----------|---------5--------5-|
      |-----------------------|-----------------------|--------------------|
      |-----------------------|-----------------------|*-------------------|
      |-----------------------|-----------------------|--------------------|
       
       ~~~         ~~~~   ~~~~ ~~~         ~~~~    ~~~
       |1.2._________________| |3.___________________|                     
      |-----------------------|-----------------------|
      |---3-5----------5--3--*|---3-5----------5---3--|
      |(5)----5----4----------|(5)----5----4----------|
      |-----------------------|-----------------------|
      |----------------------*|-----------------------|
      |-----------------------|-----------------------|
              
              ~~~~~       ~~~~~~~~         ~~~~   ~~~~~~~~~    ~~~~~     ~~
Elec. |---3-5-------3---5-----|---3-5----------5--3---|(3)-3-5------3--5---|
gtr.4 |-------5-----------5---|(5)----5----3----------|*-------5---------5-|
      |-----------------------|-----------------------|--------------------|
      |-----------------------|-----------------------|--------------------|
      |-----------------------|-----------------------|*-------------------|
      |-----------------------|-----------------------|--------------------|

       ~~~         ~~~~~   ~~~ ~~~         ~~~~    ~~~
       |1.2._________________| |3.___________________|
      |---3-5-----------5--3--|---3-5----------5---3--|
      |(5)----5----3---------*|(5)----5----3----------|    
      |-----------------------|-----------------------|
      |-----------------------|-----------------------|
      |----------------------*|-----------------------|
      |-----------------------|-----------------------|

       Riff A
Elec. |-----------------------|
gtr.1 |-----------------------|
  &   |---------4-------------|
gtr.2 |----2----4----5----4---|
      |----2----2----5----6---|
      |----0---------3--------|
           
tempo=190                       gtr.2 plays Rhy. Fig. 1 the first time 
                             and doubles gtr.1 second on the first 4 bars
Elec. |-----------------------------------|---------------------------------|
gtr.1 |*----------------------------------|---------------------------------|
      |-----------------------------------|---------------------------------|
      |----------------------8---8---7----|----------------------5---5---4--|
      |*---------------------8---8---7----|----------------------7---7---5--|
      |--0---0-0-0---0-0-0---6---6---5----|--0---0-0-0---0-0-0--------------|
        P.M.--------------|                 P.M.--------------|

      |-----------------------------------|---------------------------------|
      |-----------------------------------|---------------------------------|
      |-----------------------------------|---------------------------------|
      |--5-------------------8---8---7----|------4------5-------5------6----|
      |--7-------------------8---8---7----|------4------5-------5------6----|
      |------0-0-0---0-0-0---6---6---5----|--0---2------3---0---3------4----|
            P.M.----------|                 P.M.           P.M.

Rhy.  |-----------------------------------|---------------------------------|
Fig.2 |-----------------------------------|---------------------------------|
plays |-----------------------------------|---------------------------------|
over  |----------------------8---8---7----|----------------------5---5---4--|
these |----------------------8---8---7----|----------------------7---7---5--|
4 bars|--0---0-0-0---0-0-0---6---6---5----|--0---0-0-0---0-0-0--------------|
        P.M.--------------|                 P.M.--------------|

      |-----------------------------------|---------------------------------|
      |-----------------------------------|--------------------------------*|
      |-----------------------------------|---------------------------------|
      |--5-------------------8---8---7----|--8---7------7------7------7-----|
      |--7-------------------8---8---7----|--8---7------7------7------7----*|
      |------0-0-0---0-0-0---6---6---5----|--6---5------5------5------5-----|
            P.M-----------|        
       Rhy. Fig. 2
      |-----------------------------------|---------------------------------|
      |-----------------------------------|---------------------------------|
      |----------------------3---3---2----|---------------------------------|
      |--2-------------------3---3---2----|--2-------------------5---5---4--|
      |--2-------------------1---1---0----|--2-------------------7---7---6--|
      |--0--------------------------------|--0------------------------------|
         >                                

      |-----------------------------------|---------------------------------|
      |-----------------------------------|---------------------------------|
      |----------------------3---3---2----|---------------------------------|
      |--5-------------------3---3---2----|--8---7------7------7------7-----|
      |--7-------------------1---1---0----|--8---7------7------7------7-----|
      |-----------------------------------|--6---5------5------5------5-----|
                                                   (gtrs. double)
       Rhy. Fig. 3                                  
      |-----------------------|-----------------------|---------------------|
      |-----------------------|-----------------------|---------------------|
      |-----------------------|-----------------------|--2------------------|
      |--2--------------------|--5--------------------|--2---------3--3--4--|
      |--2--------------------|--5--------------------|--0---------3--3--6--|
      |--0--------------------|--3--------------------|------------1--1-----|

      Play all over main riff
 
      Play Rhy. Fig. 2 for the first four bars starting with "Lashing out the action"

      Play Rhy. Fig. 2 for the for the four bars starting with "Hypnotizing power"

      Play Rhy. Fig. 3 starting with "smashing through the boundries"

      After that play Rhy. Fig. 2 for the first for bars which starts with the "y" in battery

      Then play Rhy. Fig. 3 starting with "Pounding out aggression"

      Then play Rhy. Fig. 2 but only the first two bars starting with the "y" in battery      

      "Cannot kill the family, battery has grounded"  
      |-----------------------|-----------------------|
      |-----------------------|-----------------------|<-You need to add a beat to the third
      |--------------4--------|-----------------------|  bar of Rhy. Fig. 2 when it is played
      |----2---------4--------|----5----------5---4---|  two bars after "Cannot kill the family,
      |----2---------2--------|----5----------7---6---|  battery has grounded"
      |----0------------------|----3------------------|

      Then play Rhy. Fig. 2 but only the first 3 bars starting with "me!" 
                        
                          Bat-ter
      |-----------------------------|     After that play Rhy. Fig. 2 but only the first 
      |-----------------------------|     3 bars and don't add that beat to the third bar
      |----------3----2----3--------|     After those 3 bars play Rhy. Fig. 4
      |--5-------3----2----3---3----|
      |--7-------1----0----1---3----|     
      |------------------------1----|  

         bat -ter - y
Rhy.  |-----------------------------|
Fig.4 |-----------------------------|
      |---3---------2---------------|
      |---3----3----2---------------|
      |---1----3----0---------------|
      |--------1--------------------|     


Fill  |-----12--17p12-15p12-14p12--12-17p12-15p12-|-14p12--12-17p12-15p12-14p12--12-17p12-15p12|
Solo  |-15^Full------------------15---------------|------15--------------------15--------------|
w/Rhy.|-------------------------------------------|--------------------------------------------|
Fig. 3|-------------------------------------------|--------------------------------------------|
      |-------------------------------------------|--------------------------------------------|
      |-------------------------------------------|--------------------------------------------|

      |-14p12-------------------------------------|------------------| Play an E5 before the 
      |------14p12-14p12-------------14^half------|------------------| interlude for 2 bars
      |------------------14--12------14^full------|--12\-------------|
      |--------------------------14---------------|------------------|
      |-------------------------------------------|------------------|
      |-------------------------------------------|------------------|   

Interlude
 
      |----------|---------|---------|-------------|---------|---------|---------|-------------|
      |----------|---------|---------|-------------|---------|---------|---------|-------------|
      |----------|---------|---------|-------------|---------|---------|---------|-------4--4--|
      |-2--------|(2)------|-5-------|(5)---5----5-|-2-------|(2)------|-5-------|(5)----4--4--|
      |-2--------|(2)------|-5-------|(5)---5----5-|-2-------|(2)------|-5-------|(5)----2--2--|
      |-0--------|(0)------|-3-------|(3)---3--3-3-|-0-------|(0)------|-3-------|(3)----------|
     
Rhy.  |-----------------------|--------------------|---------------------|---------------------|
gtr.1 |*----------------------|--------------------|---------------------|--------------------*|    
      |-----------------------|------------5----7--|---------------------|--------2-(2)----4---|
      |*2--------2--2---------|-2--2----2--5----7--|-5---------5--5------|5-5-----2-(2)----4--*|
      |-2--------2--2---------|-2--2----2--3----5--|-5---------5--5------|5-5-----0-(0)----2---|
      |-0--------0--0----x--x-|-0--0----0----------|-3---------3--3--x-x-|3-3------------------|
                                                                                        play x3
Lead  |-----------------------|--------------------|---------------------|---------------------|
gtr.2 |*----------------------|--------------------|---------------------|--------------------*|
      |-----------------------|--------------------|---------------------|---------------------|
      |*------4--5------------|------5-------------|--------4--5---------|-----5-----4--5--7--*|
      |-7--7--------7-------7-|-7-------7--3--3-5/7|-7p5----------7----7-|--7-----7------------|
      |-----------------------|--------------------|-----7---------------|---------------------|
       P.M.------------------------------------|     --t-- P.M.--------------------------|

Rhy.  |-----------------------|--------------------|---------|---------|-----------------------|
gtr.1 |-----------------------|--------------------|---------|---------|-----------------------|
      |-----------------------|-----------------4--|---------|---------|-----------------------|
      |-2--------2--2---------|-2------5-(5)----4--|-5-------|(5)------|--3--2----2----2----2--|
      |-2--------2--2---------|-2------5-(5)----2--|-5-------|(5)------|--3--2----2----2----2--|
      |-0--------0--0----x--x-|-0------3-(3)-------|-3-------|(3)------|--1--0----0----0----0--|   
                                                                          
Lead  |-----------------------|--------------------|---------|---------|-----------------------|
gtr.2 |-----------------------|--------------------|---------|---------|-----------------------|
      |-----------------------|-----------------4-/|-7-------|(7)------|-----------------------|
      |-------4--5------------|-2------------------|---------|---------|-----------------------|
      |-7--7--------7---------|--------2-----------|---------|---------|-----------------------|
      |-----------------------|--------------------|---------|---------|-----------------------|

Guitar Solo
         Rhy.Fig.5
Rhy.  |------------------------------|----------------------------------|
gtr.1 |------------------------------|----------------------------------|
      |------------------4---3---2---|-----4---3---2-------4---3---2----|
      |------------------4---3---2---|-----4---3---2-------4---3---2----|
      |------------------2---1---0---|-----2---1---0-------2---1---0----|
      |-0--0-0-0--0-0-0--------------|-0---------------0----------------|
       P.M.------------|              P.M.            P.M.
        
       w/wah wah
Lead  |------------------------------|----------------------------------|
gtr.2 |-14^Half-----14^Half--14^Half-|-14^Half-----14^Half-14-----------|
      |-14^Full-----14^Full--14^Full-|-14^Full-----14^Full-14--14-12h14-|
      |------------------------------|----------------------------------|
      |------------------------------|----------------------------------|
      |------------------------------|----------------------------------|
                              (end Rhy.Fig.5)
Rhy.  |--------------------------------------|--------------------------------------|
gtr.1 |--------------------------------------|--------------------------------------|
      |-------------------------4---3---2----|-------4-----------3---------2--------|
      |-------------------------4---3---2----|-------4-----------3---------2-----5--|
      |-------------------------2---1---0----|-------2-----------1---------0-----5--|
      |-0--0--0--0---0--0--0-----------------|-0---------------------------------3--|
       P.M.-----------------|                 P.M.

Lead  |--------------------------------------|--------------------------------------|
gtr.2 |--------------15p12-15-p-12--15--12---|-12h15p12----12h15p12----12--15^Full--|
      |12--12h14p12------------------------15|----------15----------15--------------|
      |--------------------------------------|--------------------------------------|
      |--------------------------------------|--------------------------------------|
      |--------------------------------------|--------------------------------------|

     w/Rhy.Fig.5(3 bars)                              ~~~~
      |---15^Full-(15)^1.5-----------|-15^1.5--r------------15-------------|
      |------------------------------|-15^1.5---------17--17--17p15--17-15-|
      |------------------------------|-----------------------------16------|
      |------------------------------|-------------------------------------|
      |------------------------------|-------------------------------------|
      |------------------------------|-------------------------------------|    
                                                              ===t===
                                                Bb5    A5    A5     A5  A5 
                                                                ~~~~~~~~~~~
      |----------------------------------------|---------------------------|
      |-17----15-12--12-15-12h15p12--12h15p12--|-12h15p12----15-15^Full----|
      |----/16-----14--------------14--------14|---------------------------|
      |----------------------------------------|---------------------------|
      |----------------------------------------|---------------------------|
      |----------------------------------------|---------------------------|

     w/Rhy.Fig.5(3 bars)
     |------------------------------------|------------------------------------------|
     |------------------------------------|------------------------------------------|   
     |-4p2p0-4p2p0-4p2p0-4-----4p2p0-2h4--|4p2p0-4p2p0-4p2p0-2h4-0--4p2p0-4p2p0-4p2p0|
     |-----------------------0-----------0|------------------------------------------|
     |------------------------------------|------------------------------------------|
     |------------------------------------|------------------------------------------|
       ==t== ==t== ==t==       ==t==       ==t== ==t== ==t==        ==t== ==t== ==t==
                                                          E(open6)B5      Bb5
     |--------------------------------------------------|-------------------------
     |--------------------------------------------------|-------------------------
     |-4p2p0-4p2p0-6p4p0-6p4p0-8p6p0-8p6p0-10p8p0-10p8p0|-12p10p0-12p10p0-12p10p0-
     |--------------------------------------------------|-------------------------
     |--------------------------------------------------|-------------------------
     |--------------------------------------------------|-------------------------
       ==t== ==t== ==t== ==t== ==t== ==t== ==t=== ==t===  ===t=== ===t=== ===t===

      A5          G5    F5  w/Rhy.Fig.5(3 bars)
     ---------------------|-12--15--14--12h14p12--12------------|
     ---------------------|---------------------15--15-12h14p12-|
     -12p10p0-14\---------|-------------------------------------|
     ---------------------|-------------------------------------|
     ---------------------|-------------------------------------|
     ---------------------|-------------------------------------|
      ===t===                           ===t=== --t--- ---t----
      |--------------------------------|------------------------------|
      |-14p12--------------------------|------------------------------|
      |------14-12---------------------|----------------9--12---------|
      |------------14--12--------------|---------9--12---------12--9--|
      |--------------------14--13--12--|-10--11-----------------------|
      |--------------------------------|------------------------------|
        ---t---           P.M.---------------------------------------|
        Bb5  A5      A5      A5      A5     E5
                A.H.      ~~~~~~~~~~                  ~~~~~~~ A.H.
      |----------------------------------|----------------------------|
      |----------------------------------|--------7--10^Full---10--8--|
      |----------------------------------|-----7----------------------|
      |--12--14--12--14--(14)----(14)\---|7/9-------------------------|
      |----------------------------------|----------------------------|
      |----------------------------------|----------------------------|

        G5                          A5                       F#5          ~~~~~~~~
      |---------------------------|-------------------------|--------------------|
      |-7-----7--8--7h8p7---------|-------------------------|--------------------|
      |----9-------------9--7--6--|-7---7^F-7---6---4---7---|-6------------------|
      |---------------------------|-------------------------|-----7---6---7^Full-|
      |---------------------------|-------------------------|--------------------|
      |---------------------------|-------------------------|--------------------|
                    ==t==           - - t - -   - - t - -     - - t - -
        E5          ~~~~~~~~          G5  ~~~~~~~          ~~~~~~~~~~~~
      |-----------------------------|-----15^Full-15p12-15p12----------|
      |---------12--15^Full-15p12---|-12-------------------------------|
      |-----12-------------------14-|----------------------------------|
      |/14--------------------------|----------------------------------|   
      |-----------------------------|----------------------------------|
      |-----------------------------|----------------------------------|
                            ---t---
        A5                                                                 F#5
      |-20p15-20p15---------------14-14--------|------------------------------|
      |----------------------10/12-----12\10---|-10---------------------------|  
      |-------------17p16p14----------------12-|----12-11h12-11h12p11p9-9\----|
      |----------------------------------------|------------------------------|
      |----------------------------------------|------------------------------|
      |----------------------------------------|------------------------------|
                    ---t----           ---t---   ---t--===== ===t====
                                          Play x4
      |--------------------|---------------------|--------------|---------------|
      |*-------------------|--------------------*|--------------|---------------|
      |-------3----4----3--|-4----3----4---------|--------------|---------------|
      |*-3----3----4----3--|-4----3----4----4---*|--3-----------|------3--3--4--|
      |--3----1----2----1--|-2----1----2----4----|--3-----------|------3--3--6--|
      |--1-----------------|----------------2----|--1-----------|------1--1-----|
         >    >    >    >    >    >         >       >                 P.M--|

 Outro
                                             play 7x
      |----------------------|----------------------|----------------------|
      |*---------------------|---------------------*|----------------------|
      |-------3----4----3----|--4----3----4---------|-------3----4----3----|
      |*-3----3----4----3----|--4----3----4----4---*|--3----3----4----3----|
      |--3----1----2----1----|--2----1----2----4----|--3----1----2----1----|
      |--1-------------------|-----------------2----|--1-------------------|
         >    >    >    >       >    >    >    >       >    >    >    >

      |-----------|--------|-----------------------|-----------------------|
      |-----------|--------|-----------------------|-----------------------|
      |--4--------|-(4)----|-----------------------|-----------------------|
      |--4--------|-(4)----|--4--3----3----3----3--|--2--------------------|
      |--2--------|-(2)----|--4--3----3----3----3--|--2--------------------|
      |-----------|--------|--2--1----1----1----1--|--0--------------------|
         >                    >  >    >    >    >     >

9.STONE COLD CRAZY

 A.H.
|---------------|------------|------------|------------|----------|
|----\----*---/-|-\----*---/-|-\----*---/-|-\----*---/-|----------|
|--0---\-2.5-/--|---\-1.5-/--|---\--1--/--|---\-0.5-/--|-(0)-~-~--|
|--------\--/---|-----\--/---|-----\--/---|-----\--/---|----------|
|---------------|------------|------------|------------|----------|
|---------------|------------|------------|------------|----------|
|    *: dive w/ bar
|
|---------------|------------|------------|------------|----------|
|---------------|------------|------------|------------|----------|
|---------------|------------|------------|------------|----------|
|--5------------|--(5)-------|--(5)-------|--(5)-------|--(5)-----|
|--3------------|--(3)-------|--(3)-------|--(3)-------|--(3)-----|
|---------------|------------|------------|------------|----------|


|---------------|---------------|----------------|-------*--------|
|---------------|---------------|----------------|-------1--------|
|--(0)----------|---------------|----------------|-------/--------|
|----------0----|--(0)----------|--(0)-----------|--(0)-/---------|
|---------------|---------------|----------------|----------------|
|---------------|---------------|----------------|----------------|
|						*: pull bar up 1 tone
|
|---------------|---------------|----------------|----------------|
|---------------|---------------|----------------|----------------|
|---------------|---------------|----------------|-------------0--|
|--(5)----------|--(5)----------|--(5)-----------|--(5)--------0--|
|--(3)----------|--(3)----------|----------------|-------------0--|
|---------------|---------------|----------------|----------------|



 Rhy Fig 1
||--------------------------|--------------------|
||--------------------------|--------------------|
||o-------------------------|--------------------|
||o----------------------3--|--(3)---------------|
||-----------------------1--|--(1)---------------|
||---1h3--3--3--3--3--3-----|--------------------|
	  PM...........|

|------------------------|-------------------|
|------------------------|-------------------|
|------------------------|-------------------|
|------------------------|-------------------|
|-------------1h3--3--3--|--(3)--2--3--4--5--|
|--1h3--3--3-------------|-------------------|
       PM...|			PM.........|

|-------------------------|--------------------|
|-------------------------|--------------------|
|-------------------------|--------------------|
|----------------------3--|--(3)---------------|
|----------------------1--|--(1)---------------|
|--1h3--3--3--3--3--3-----|--------------------|
	PM...........|
				   end Rhy Fig 1
|------------------------|--------------------||
|------------------------|--------------------||
|------------------------|-------------------o||
|------------------------|-------------------o||
|-------------1--3----3--|--(3)--2--3--4--5---||
|--1h3--3--3-------------|--------------------||
	PM.................................|


1st Verse

 Sleeping very soundly on a Saturday morning I was dreaming I was Al Capone
|--------------------------|------------------------|------------------|-----------|
|--------------------------|------------------------|------------------|-----------|
|--------------------------|------------------------|------------------|-----------|
|--5-----------------------|------------------------|------------------|-----------|
|--------------------------|------------------------|------------------|-----------|
|--3-----------------------|------------------------|------------------|-----------|


 Rumor going round gotta clear out of town, smelling like a dry fishbone
|-----------------------|--------------------|-----------------------|-----------|
|-----------------------|--------------------|-----------------------|-----------|
|-----------------------|--------------------|-----------------------|-----------|
|-----------------------|--------------------|-----------------------|-----------|
|-----------------------|--------------------|-----------------------|-----------|
|-----------------------|--------------------|-----------------------|-----------|


 Here come the law gonna break down the door, carry me away once more
|-----------------------|--------------------|--------------------|-----------|
|-----------------------|--------------------|--------------------|-----------|
|-----------------------|--------------------|--------------------|-----------|
|-----------------------|--------------------|--------------------|-----------|
|--5--------------------|--------------5--5--|--(5)---------------|-----------|
|--3--------------------|--------------3--3--|--(3)---------------|-----------|


 Never, never, never want it anymore. Gotta get away from this stone cold floor
|-------------|---------------------|-------------------------|----------------------|
|-------------|---------------------|-------------------------|----------------------|
|-------------|---------------------|-------------------------|----------------------|
|--3----3-----|--3------------------|-------------------------|-------------5--5--5--|
|--1----1-----|--1------------------|-X\----X\----X\----X\----|-X/--X/--X/--3--3--3--|
|-------------|---------------------|-X\----X\----X\----X\----|-X/--X/--X/-----------|
				 pick slides

Chorus
	  Crazy			     stone cold crazy, you know.
|------------|-----------------|---------------|---------------|
|------------|-----------------|---------------|---------------|
|------------|-----------------|---------------|---------------|
|--5-------5-|----5------5--5--|--5------------|---------------|
|--3-------3-|----3------3--3--|--3------------|---------------|
|------------|-----------------|---------------|-----------10\-|


||--------------------------|--------------------|
||--------------------------|--------------------|
||o-------------------------|--------------------|
||o----------------------3--|--(3)---------------|
||-----------------------1--|--(1)---------------|
||---1h3--3--3--3--3--3-----|--------------------|
	  PM...........|

|------------------------|-------------------|
|------------------------|-------------------|
|------------------------|-------------------|
|------------------------|-------------------|
|-------------1h3--3--3--|--(3)--2--3--4--5--|
|--1h3--3--3-------------|-------------------|
       PM...|			PM.........|

|-------------------------|--------------------|
|-------------------------|--------------------|
|-------------------------|--------------------|
|----------------------3--|--(3)---------------|
|----------------------1--|--(1)---------------|
|--1h3--3--3--3--3--3-----|--------------------|
	PM...........|

|------------------------|--------------------||
|------------------------|--------------------||
|------------------------|-------------------o||
|------------------------|-------------------o||
|-------------1--3----3--|--(3)--2--3--4--5---||
|--1h3--3--3-------------|--------------------||
	PM.................................|


 Yeah!		 Guitar Solo 1
|------------X--|---------------------|------------------0----|
|------------X--|--10b12--------------|-(10)~-~-~(10)\---0----|
|------------X--|---------------------|------------------0----|
|---------------|---------------------|-----------------------|
|---------------|---------------------|-----------------------|
|---------------|---------------------|-----------------------|
|
|		 Rhy Fig 2
|---------------|---------------------|-----------------------|
|---------------|---------------------|-----------------------|
|---------------|---------------------|-----------------------|
|----2----1--4--|--4----4----------4--|--------4--------------|
|----0----3--2--|--2----2----2--2--2--|--2--2--2----2--0----1-|
|---------------|---------------------|-----------------------|


|--7--9--7--9--7h9p7------|---------7-------7--7h10p-|
|--------------------9-7--|--10b12---10b12---0-------|
|-------------------------|--------------------------|
|-------------------------|--------------------------|
|-------------------------|--------------------------|
|-------------------------|--------------------------|
|
|
|-------------------------|--------------------------|
|-------------------------|--------------------------|
|-------------------------|--------------------------|
|--4----------------------|--------------------------|
|--2----2--2--2--2--2--2--|--2--2--2--2--2--0--0--1--|
|-------------------------|--------------------------|
	PM................................|


|-7--------------------------|--------------------------|
|---10-7-10-7h10p7---7-7-----|------------------------5-|
|------------------9-----9-7-|-9p7---7---9b12-----5--5--|
|----------------------------|-----9---9----------------|
|----------------------------|--------------------------|
|----------------------------|--------------------------|
|						  NH...|
|
|----------------------------|--------------------------|
|----------------------------|--------------------------|
|----------------------------|--------------------------|
|---------4------------4-----|--------4-----------4-----|
|--2------2------2--2--2-----|--2--2--2-----2--2--2-----|
|----------------------------|--------------------------|



|-------/---------------|------------------------|
|------/----------------|------------------------|
|--3--/-----------------|--(3)--------------0----|
|-----------------------|-------------------0----|
|-----------------------|-------------------0----|
|-----------------------|------------------------|
|  NH, pull bar gradually up 3 tones
|				    end Rhy Fig 2
|-----------------------|------------------------|
|-----------------------|------------------------|
|--2h4------2b3---------|------------------------|
|------------------4----|--(4)--2----------------|
|-----------------------|--------------5----2----|
|-----------------------|------------------------|



||--------------------------|--------------------|
||--------------------------|--------------------|
||o-------------------------|--------------------|
||o----------------------3--|--(3)---------------|
||-----------------------1--|--(1)---------------|
||---1h3--3--3--3--3--3-----|--------------------|
	  PM...........|

|------------------------|-------------------|
|------------------------|-------------------|
|------------------------|-------------------|
|------------------------|-------------------|
|-------------1h3--3--3--|--(3)--2--3--4--5--|
|--1h3--3--3-------------|-------------------|
       PM...|			PM.........|

|-------------------------|--------------------|
|-------------------------|--------------------|
|-------------------------|--------------------|
|----------------------3--|--(3)---------------|
|----------------------1--|--(1)---------------|
|--1h3--3--3--3--3--3-----|--------------------|
	PM...........|

|------------------------|--------------------||
|------------------------|--------------------||
|------------------------|-------------------o||
|------------------------|-------------------o||
|-------------1--3----3--|--(3)--2--3--4--5---||
|--1h3--3--3-------------|--------------------||
	PM.................................|



2nd verse

 Rainy afternoon, on a killer typhoon, and it's aplaying with my slide trombone.
|----------------------|-------------------------|------------------------------|
|----------------------|-------------------------|------------------------------|
|----------------------|-------------------------|------------------------------|
|----------------------|-------------------------|------------------------------|
|----------------------|-------------------------|------------------------------|
|--3-------------------|-------------------------|------------------------------|


		    Anymore, anymore, can't take it anymore.
|------------------|-----------------|----------------------|
|----X--X----3-----|--(3)\-----------|----------------------|
|----X--X----3-----|--(3)\-----------|----------------------|
|----X--X----3-----|--(3)\-----------|----------------------|
|------------------|-----------------|----------------------|
|------------------|-----------------|----------------------|


 Gotta get away from this stone cold floor.
|-------------------------|-------------------------|
|-------------------------|-------------------------|
|-------------------------|-------------------------|
|-------------------------|-------------------------|
|-X\----X\----X\----X\----|-X/----X/----X/----X/----|
|-X\----X\----X\----X\----|-X/----X/----X/----X/----|
 pick slides

	  Crazy			     stone  cold    crazy, you know.
|------------|-----------------|-------------------|----------------|
|------------|-----------------|-------------------|----------------|
|------------|-----------------|-------------------|----------------|
|--5-------5-|----5------5--5--|--5----------------|----------------|
|--3-------3-|----3------3--3--|--3----------------|----------------|
|------------|-----------------|-----0-dive w/ bar-|-slack----------|


		Guitar Solo 2
      Hey!	w/ Rhy Fig 2 (3 times)
|--------------|-------------|------------------|---------------|
|--------------|-------------|------------------|---------------|
|--------------|--4----------|--(4)------2------|--4------------|
|--3-----------|--4----------|--(4)------2------|--4------------|
|--1-----------|--2----------|--(2)------0------|--2------------|
|--------------|-------------|------------------|---------------|


|--------------|------------------|-------------------|---------------|
|--------------|------------------|-------------------|---------------|
|--------------|----------------X-|--9b11----9----7-~-|-(7)-~-~-~--0--|
|---------4~-~-|--(4)-----/9----X-|-------------------|---------------|
|--4/5~-~------|----------------X-|-------------------|---------------|
|--------------|------------------|-------------------|---------------|


|------------|----------------------|-------------------|-----------15h17-15--17-|
|--10b12--~--|-(10)-~-~--7-10p7-10--|-b12-----(10)-~-~--|-(10)~-~-/--------------|
|------------|----------------------|-------------------|-----------------(0)----|
|------------|----------------------|-------------------|------------------------|
|------------|----------------------|-------------------|------------------------|
|------------|----------------------|-------------------|------------------------|


|-19-19p17-15-17-15h17p15-15--|-14--------------------------------|
|-----------------------------|-----15-15-17--14--15p14----14-(0)-|
|-----------------------------|-------------------------16----(0)-|
|-----------------------------|-----------------------------------|
|-----------------------------|-----------------------------------|
|-----------------------------|-----------------------------------|


|-14h15------14----------14------|--------14------------------|
|--------17------15----------15--|-----------15----14h15------|
|--------------------16----------|--16----------16--------16\-|
|--------------------------------|----------------------------|
|--------------------------------|----------------------------|
|--------------------------------|----------------------------|


|-10/-16-----14-14-14-17-14-14-14-14-14-|-19--14--14-14-17-\4-/16--14--|
|---------14----------------------------|------------------------------|
|---------------------------------------|------------------------------|
|---------------------------------------|------------------------------|
|---------------------------------------|------------------------------|
|---------------------------------------|------------------------------|


|-19p16p14-14-14-19p17p14-14-14-|-19p17p14-14-19p17p14-\-7-/-14-14-|
|-------------------------------|----------------------------------|
|-------------------------------|----------------------------------|
|-------------------------------|----------------------------------|
|-------------------------------|----------------------------------|
|-------------------------------|----------------------------------|


|-19p17p14-14-14-19p17p14-14-14--19p--|-17p14-14-14-19p17p14-\-(0)----|
|-------------------------------------|------------------------(0)----|
|-------------------------------------|------------------------(0)----|
|-------------------------------------|-------------------------------|
|-------------------------------------|-------------------------------|
|-------------------------------------|-------------------------------|


|-19-19--21-19-17-19--12-14-12----------|-------------------------|
|------------------------------16-12-16-|-14--16--12--------------|
|---------------------------------------|------------14-11/23-\---|
|---------------------------------------|-------------------------|
|---------------------------------------|-------------------------|
|---------------------------------------|-------------------------|


||--------------------------|--------------------|
||--------------------------|--------------------|
||o-------------------------|--------------------|
||o----------------------3--|--(3)---------------|
||-----------------------1--|--(1)---------------|
||---1h3--3--3--3--3--3-----|--------------------|
	  PM...........|

|------------------------|-------------------|
|------------------------|-------------------|
|------------------------|-------------------|
|------------------------|-------------------|
|-------------1h3--3--3--|--(3)--2--3--4--5--|
|--1h3--3--3-------------|-------------------|
       PM...|			PM.........|

|-------------------------|--------------------|
|-------------------------|--------------------|
|-------------------------|--------------------|
|----------------------3--|--(3)---------------|
|----------------------1--|--(1)---------------|
|--1h3--3--3--3--3--3-----|--------------------|
	PM...........|

|------------------------|--------------------||
|------------------------|--------------------||
|------------------------|-------------------o||
|------------------------|-------------------o||
|-------------1--3----3--|--(3)--2--3--4--5---||
|--1h3--3--3-------------|--------------------||
	PM.................................|


3rd verse

 Walking down the street shooting people that I meet, full loaded Tommy gun
|---------------------------|-------------------|---------------------|-----------|
|---------------------------|-------------------|---------------------|-----------|
|---------------------------|-------------------|---------------------|-----------|
|--5------------------------|-------------------|---------------------|-----------|
|---------------------------|-------------------|---------------------|-----------|
|--3------------------------|-------------------|---------------------|-----------|


 Here come the deputy try  ***ing gettin' me,   gotta ***in' get up and run
|--------------------|--------------------------|--------------------------|
|--------------------|--------------------------|--------------------------|
|--------------------|--------------------------|--------------------------|
|--------------------|--------------------------|--------------------------|
|-----------------5--|--X--X--X--X--X--X--X--X--|--X--X--X--X--X--X--X--X--|
|-----------------3--|--X--X--X--X--X--X--X--X--|--X--X--X--X--X--X--X--X--|


    They     got    the     sirens    loose,	     I'm running right
|--------------------------|----------------|--------------------------|
|--------------------------|----------------|--------------------------|
|--------------------------|----------------|--------------------------|
|--------------------------|----------------|--------------------------|
|--X--X--X--X--X--X--X--X--|----X------X----|--X--X--3--X--X--X--3--X--|
|--X--X--X--X--X--X--X--X--|----X------X----|--X--X--1--X--X--X--1--X--|


    out    of    juice			They're gonna  put me in a cell. If I
|--------------------------|--------------------------|----------------------|
|--------------------------|--------------------------|----------------------|
|--------------------------|--------------------------|----------------------|
|--------------------------|--------------------------|--3-------------------|
|--X--X--3--X--X--X--3--X--|--X--X--3--X--X--X--3--X--|--1-------------------|
|--X--X--1--X--X--X--1--X--|--X--X--1--X--X--X--1--X--|----------------------|


 can't go to heaven, let me go to hell.			Cra-
|-------------------|------------------|-----------|-----------|
|-------------------|------------------|-----------|-----------|
|-------------------|------------------|-----------|-----------|
|-------------------|--X-\-------------|-----------|--5--------|
|-------------------|--X-\-------------|-----------|--3--------|
|-------------------|--X-\-------------|--15-\-----|-----------|
		   pick slide

 zy
|-------------------|------------|------------|--------------|
|-------------------|------------|------------|--------------|
|-------------------|------------|------------|--------------|
|----5----5----5----|--5---------|------------|--------------|
|----3----3----3----|--3---------|------------|--X--X--X--X--|
|-------------------|------------|------------|--X--X--X--X--|
							Yeah!

||--------------------------|--------------------|
||--------------------------|--------------------|
||o-------------------------|--------------------|
||o----------------------3--|--(3)---------------|
||-----------------------1--|--(1)---------------|
||---1h3--3--3--3--3--3-----|--------------------|
	PM...........|

|------------------------|--------------------||
|------------------------|--------------------||
|------------------------|-------------------o||
|------------------------|-------------------o||
|-------------1--3----3--|--(3)--2--3--4--5---||
|--1h3--3--3-------------|--------------------||
	PM.................................|


|-------------------------|------------------------------------|
|-------------------------|----------------------------------6-|
|-------------------------|---------------------------6-8b10---|
|----------------------3--|--(3)------------------6-8----------|
|----------------------1--|--(1)--------4-6-4h6/8--------------|
|--1h3--3--3--3--3--3-----|---------4h6------------------------|
|	PM...........|
|
|-------------------------|------------------------------------|
|-------------------------|------------------------------------|
|-------------------------|------------------------------------|
|-------------------------|--3---------------------------------|
|-------------------------|--1---------------------------------|
|-------------------------|--//--------------------------------|
			tremolo pick


|-----------8p6-----------------------------|
|-9p6-6-9p6-----9p6-6h9p6h8p6-----6---------|
|-----------------------------8b9---6---6-8-|
|-------------------------------------8-----|
|-------------------------------------------|
|-------------------------------------------|
|
|
|-------------------------------------------|
|-------------------------------------------|
|-------------------------------------------|
|--3----------------------------------------|
|--1----------------------------------------|
|--//---------------------------------------|


|------------------------------------------------|
|------------------------------------------------|
|-6b8---6b7-8-6b8---6b7-8-6b8-8-6b7-8b10r8p6---6-|
|-----8-----------8--------------------------8---|
|------------------------------------------------|
|------------------------------------------------|
|
|
|------------------------------------------------|
|------------------------------------------------|
|---------------------------------3--------------|
|------------------------------3-----------------|
|--1h3p1-3b5r3-----1h3p5--3/5--------------------|
|---------------------------------------------1--|


|-------------------------------|---------------------|
|-------------------------------|---------------------|
|-------------------------------|---------------------|
|-8--6--------------------------|------------0.5--0.5-|
|------8-6\4-6-6b8r6-4---4------|--4b5--4----/-\--/-\-|
|----------------------6---6----|---------------------|
|					*: pull bar up
|
|-------------------------------|---------------------|
|-------------------------------|---------------------|
|-------------------------------|---------------------|
|-----3--3-------------------3--|--(3)----------------|
|-1---1--1-------------------1--|--(1)----------------|
|---1----//---------------------|---------------------|


|---------------|------------|------------------|
|---------------|------------|------------------|
|---------------|------------|------------------|
|-0.5------h6---|-(6)--------|------------------|
|-/-\-~-~-~-~-~-|-(4)--------|--4tr(6)-~-~-~----|
|---------------|------------|--------------2-0-|
|	     both notes vib.
|
|---------------|------------|---------------X--|
|---------------|------------|---------------X--|
|---------------|------------|---------------X--|
|--(3)----------|--(3)-------|----X\------------|
|--(1)----------|--(1)-------|----X\------------|
|---------------|------------|----X\------------|
				pick slide


|-------------------------------------|---------------------|
|-------------------------------------|---------------------|
|-------------------------------------|---------------------|
|-------------------------------------|---------------------|
|-------------------------------------|----------5--(5)\----|
|-1h3--1h3--1h3--1h3--1h3--1h3--1h3-~-|--(3)~-~--3--(3)\----|
|
|
|-------------------------------------|---------------------|
|-------------------------------------|---------------------|
|-------------------------------------|---------------------|
|-------------------------------------|---------------------|
|---------------5---5-------------5---|--(5)----------------|
|---3---3---3---3---3-------------3---|--(3)----------------|
comments
We did not receive enough feedback on this tab! Please rate:
1 2 3 4 5
2 comments total.
0 reply
Metallica708 wrote on May 10 2006, 03:21 pm

i haven't even read through all this yet... but "For Whom The Bell Tolls"'s opening powerchords... it's

F#, F#, E.

not

G, G, E

0 reply
cgates13 wrote on October 25 2007, 06:56 pm

ok dude, u just got the tabs from allthe other tabs, they play shit different live

I want to post or [tab]
guest
You may want to rate the tab now too:
select rating
Please do not post tabs as comments. Select "correction" instead!