Oops, an error
Loading. Please wait.

Live Shit Binge And Purge Seattle Bass Tab

3,586 views 9 this week
3 commentsread comments
1 2 3 4 5
accurate
x 4
Autoscroll
+/-
esc
set tempo
stop
Hey! There's an official Ultimate Guitar app which is ideal
for learning songs when you're away from computer. Get the app
WARNING: You are trying to view
                                    content from Ultimate-Guitar.com
                                    in an unauthorized application,
                                    which is prohibited.

                                    Please use an official Ultimate
                                    Guitar Tabs application for iPhone,
                                    iPad or Android to access legitimate
                                    chords, guitar, bass, and drum tabs
                                    from Ultimate-Guitar.com database.

                                    Type "ultimate guitar tabs" in Apple
                                    App Store's or Android Market's
                                    search to find the application.
Metallica
Live shit binge and purge (seattle)

Blackened

INTRO         *backwards bass guitar
|--------------------------------------------------------------------|
|--------------------------------------------------------------------|
|--------------------7------------------------------------7----------|
|---7--------8-------0--------7--------8--------10--------0----------|

|--------------------------------------------------------------------|
|--------------------------------------------------------------------|
|-9--10-----------------------7----------------------------------7---|
|--------7--8---------10------0--------7-------8-------10--------0---|

|-----------------------------------|-----|
|-----------------------------------|-----|
|--1------2--3-3--------------------|-----|
|----2--3--------1-0----------0-----|-----|

|--------------------|---|------------------------------|
|--------------------|---|------------------------------|
|--------------------|---|---7---7---7-8-7---7---7---7--|
|--3--3-3-3--0--2--2-|---|-0---0---0-------0---0---6----|

|-------------------------------------------------------------------|
|-------------------------------------------------------------------|
|---7---7---7-8-7-1-----2--3-3-----------------------1------2--1----|
|-0---0---0---------2-3--------1---------0-0-0-0-0-0---2--3------3--|

 1,2,3 VERSES...................2X's....................................
|-----------------------------------------------------------------------|
|-----------------------------------------------------------------------|
|---------------1-----2-1-------------------1-----2-1-------------------|
|-0--0--0-0-0-0---2-3-----3---0-0-0-0--0-0----2-3-----3---0--0-0-0-0-0--|
...............
---------------|  |-------------------------|
---------------|  |-------------------------|
--1-----1------|  |-------------1-----1-----|
----2-3---2-3--|  |-0-0-0-0-0-0---2-3---2-3-|

|------------------------------------------------------------|
|------------------------------------------------------------|
|-------------1-----2-3-3----------7---7---7-8-7---7---7---7-|
|-3-3-3-3-3-3---2-3-------1------0---0---0-------0---0---6---|

|---------------------------------------------------------------------|
|---------------------------------------------------------------------|
|---7---7----7-8-7--1-----2--3-3-------7---7----7-8-7---7---7---7-----|
|-0---0----0----------2-3--------1---0---0----0-------0---0---6---0000|

  CHORUS..............................................................  
|---------------------------------------------------------------------|
|---------------------------------------------------------------------|
|--7---------------5--------3-----------------------------------------|
|--0-----------5-5----3--3------3-3---2---2-2-2-2-0--3-3-3------3-3-3-|
  
....................................................................... 
|----------------------------------------------------------------------|
|----------------------------------------------------------------------|
|-7------------5---------3--3------------------------------------------|
|-0--------5-5-----3--3-------3--2--------2-2-2-2-0-3----3-3-3-0---2--2|
 ..........................................................
|-----|----------------------------------------------------|
|-----|----------------------------------------------------|
|-----|----------------------------------------------------|
|-----|-3-3-3-3--0--2-2-----1--1----0------(0)---------(0)-|

|---------------------------------------------------------------|
|---------------------------------------------------------------|
|-------------------------------------------------6--6----6--6--|
|-0--0-0-0-0-0-0-0--0-0-0-0--0-0-0--0-0-0-0--5--6---------------|

|------------------------------------------------------|
|------------------------------------------------------|
|-------7----------------8-7----------------7----------|
|-0-5-6---0-0-0-0---5-6------0-0-0-0--0-5-6---0-0-0-0--|

|-----------------------------------------------------------------------|
|-----------------------------------8-----------------------------------|
|-----6----6-6--------7---------7-----7---------------7-----------------|
|-5-6-----------0-5-6---0-0-0-0---6-----0-0-0-0-0-5-6---0-0-0-0----6-0--|

------------------|
------------------|
-6-6-6-6-6-6---7--|
-------------0----|

|----------------------------------------------------------------------|
|----------------------------------------------------------------------|
|----7-7-7-----------7-7-7----7--------7-7-7---7-5---6-----6-6-5-7-----|
|-0--------5-7-6-0---------5----6--0---------0----------------------6--|

|----------------------------------------------------------------------|
|----------------------------------------------------------------------|
|----7-7-7-----------7-7-7----7--------7-7-7---7--5--6----6-6-6-6-----2|
|-0--------5-7-6-0---------5----6--0---------0--------------------0-2--|

|----------------------------------------------------------------------|
|---4-----------------5-4------------------4---------------------------|
|-3----------------2-------------------2-3----------3-2----------------|
|------2-2-2-2-0-2---------2--2--2-0-2--------2-2-2-----3---1--1-1-1-1-|

|------------------------------------------------------------------|
|------------------------------------------------------------------|
|-------7--------------8-7----------------7--------------7---------|
|-0-5-6---0-0-0-0--5-6-----0-0-0-0-0-5-6----0-0-0-0--5-6-----------|

|---------------------------------------------------------------------|
|---------------------8-----------------------------------------------|
|-------7---------7-----7--------------7--------------6---6---6-----7-|
|-0-5-6---0-0-0-0---6-----0-0-0-0-0-5-6--0-0-0-0--6-0---4---4---4-0---|

|----------------------------------------------------------------|
|----------------------------------------------------------------|
|-----7-7-7----------7-7-7---7-------7-7-7---7-5-6-----6-6-5-7---|
|--0--------5-7-6-0--------5---6--0--------0-------------------6-|

|---------------------------------------------------------------|
|---------------------------------------------------------------|
|----7-7-7----------7-7-7---7------7-7-7---7-5-6---6-6-6------2-|
|-0--------5-7-6-0--------5---6-0--------0---------------0-2----|

|-----------------------------------------------------------|
|---4-------------5-4---------------4-----------------------|
|-3-------------2---------------2-3---------3-2-----------8-|
|-----2-2-2-0-2-------2-2-2-0-2-------2-2-2-----3-1---------|

|-------------------------------------------------------------|
|-----9-----7-------------------------------------------------|
|-7------7--5---3--3--2----------7--0--5---3--3---2--2--------|2X's
|------------------------3-2--0--------------------------3--2-|

  GUITAR SOLO.......6X's................
|---------------------------------------|-----------------------------|
|---------------------------------------|-----------------------------|
|--------------------------------9---10-|-----------------------------|
|-0-3-0--2-0-3-0-2-0-3-0-2-0-3-7---8----|-0-3-0-2-0-3-0-2-0-3-0-2-0-3-|

|----------------|--|-------------|
|----------------|--|-------------|
|----------------|--|---------19--|
|-3--3-3-3-0-2-2-|--|-1-1---------|

|------------------------------------------------------------------|
|------------------------------------------------------------------|
|---8---8---8---8---7---7-----5H7---7---7---7---7---5---5---5---5--|
|-0---0---0---0---0---0---0-0-----0---0---0---0---0---0---0---0----|

--------------------------------------------------|
--------------------------------------------------|
----8---8---8---8---7---7-----5H7-----------------|
--0---0---0---0---0---0---0-0-----0-0-0-0-0-0-0-0-|

|---------------------------------------------------|
|---------------------------------------------------|
|-7----------5-----3--------------------------------|2X's
|-0------5-5---3-3---3-3-2--2-2-2-2-0--3-3-3--3-3-3-|
 ................................2X's................................
|--------------------------------------------------------------------|
|--------------------------------------------------------------------|
|---7---7---7---7---7---7---7---7---5---5---5---5---10---10---5----5-|
|-0---0---0---6---5---5---5---5---3---3---3---3---8----8----3----3---|

|------------|  |------------------------------------------------------|
|------------|  |------------------------------------------------------|
|------------|  |--7---7---7-8-7---7---7---7---7---7---7-8-7-1-----2---|
|-3-3-3-3-3/-|  |0---0---0-------0---0---6---0---0---0----------2-3--1-|
                    .....................2X'S..........................
|--------------|   |---------------------------------------------------|
|--------------|   |---------------------------------------------------|
|--------------|   |7--------5------3----------------------------------|
|-3--3-3-3-0-2-|   |0----5-5----3-3-----3-3--2---2-2-2-2-0--3-3-3-3-3-3|

|----------------------------------------------------------------|
|----------------------------------------------------------------|
|-------------------------------------7---7---7-8-7---7---7------|
|-0--2--2---3-3-3-3-0-2-2---1---1---0---0---0-------0---0----6-0-|




for whom the bell tolls

Intro:
4/4                              
:--------------------------------|--------------------------------|
:--------------------------------|--------------------------------|
:--------------------------------|--------------------------------|
:--------------------------------|-----------------2-2-----2-2----|

There are two basses, the first plays the higher note and starting E.
The second plays ending F#.

With distortion and wah wah
|--------19-18-17-16-------19p16-|--------19----------------------|
|*-------------------------------|17--16-------------------------*|x 8
|*-------------------------------|------------17--16--------(16)-*|
|-0------------------------------|(0)--------------2--2----2--2---|

Normal Bass
|--------------------------------|--------------------------------|
|*-------------------------------|--------------------------------|
|*-------------------------------|-----------------------------0--|
|-0---3---2---1---0---3---2---1--|-0---3---2---1---0---2---3------|

|--------------------------------|--------------------------------|
|--------------------------------|-------------------------------*|x 4
|--------------------------------|-----------------------------2-*|
|-0---3---2---1---0---3---2---1--|-0---3---2---1---0---2---3------|

|--------------------------------|--------------------------------|
|--------------------------------|--------------------------------|
|--------------------------------|--------------------------------|
|-0------------------------------|(0)-----------------------------|

|Fig.1
|--------------------------------|--------------------------------|
|*----------tripl-----------tripl|-----------tripl-----------tripl|
|*>------------------------------|--------------------------------|
|-0---------0-0-0-0---------0-0-0|-0---------0-0-0-0---------0-0-0|

|--------------------------------|--------------------------------|
|-----------tripl-----------tripl|--------------------------------|
|->------------------------------|->------------------------------|
|-3---------3-3-3-3---------3-3-3|-3-------------------------12---|

|--------------------------------|--------------------------------|
|-----------tripl-----------tripl|-----------tripl-----------tripl|
|->------------------------------|--------------------------------|
|-0---------0-0-0-0---------0-0-0|-0---------0-0-0-0---------0-0-0|

                                  1.                           (1)
|--------------------------------|-tripl-----------tripl----------|
|-----------tripl-----------tripl|------->--------------->-------*|
|->------------------------------|-3-3-3-3---------0-0-0-0-------*|
|-3---------3-3-3-3---------3-3-3|--------------------------------|

                                  2.                  (2) end Fig.1
                                 |---tripl-----------tripl--------|
                                 |->------------------------------|
                                 |-3-3-3-3---------0-0-0-12-------|
                                 |--------------------------------|

|Fig.2
|--------------------------------|--------------------------------|
|*tripl-----------tripl----------|-tripl--------------------------|
|*------>--------------->--------|------->--------->------->------|
|-0-0-0-3---------0-0-0-5--------|-0-0-0-3-------0-6-------2------|

                                                         end Fig.2|
|--------------------------------|--------------------------------|
|-tripl-----------tripl----------|-tripl--tripl------------------*|
|------->--------------->--------|-------->-------->------>----->*|
|-0-0-0-3---------0-0-0-5--------|-0-0-0--3-0-0----6------2-----1-|

Verse 1, 2:

   Repeat Fig.1

End Verse

Chorus:

   Repeat Fig.2 x 2  (To Coda at the end of second chorus)

End Chorus

Interlude (between first chorus and second verse):
:--------------------------------|--------------------------------|
:*----------tripl-----------tripl|-----------tripl-----------tripl|
:*>------------------------------|--------------------------------|
:-0---------0-0-0-0---------0-0-0|-0---------0-0-0-0---------0-0-0|

|--------------------------------|--------------------------------|
|-----------tripl----------------|-----------tripl-----------tripl|
|->------------------------------|->------------------------------|
|-0---------0-0-0-0---------/12-|-3---------3-3-3-3----------3-3-3|

                                  1.                           (1)
|--------------------------------|-----------tripl----------------|
|-----------tripl-----------tripl|->-----------------------------*|
|->------------------------------|-2---------2-2-2-2---------/14*|
|-0---------0-0-0-0---------0-0-0|--------------------------------|

                                  2.                           (2)
                                 |-----------tripl----------------:
                                 |->------------------------------:
                                 |-2---------2-2-2-2-----------2--:
                                 |--------------------------------:

Coda:
|--------------------------------|--------------------------------|
|*-------------------------------|--------------------------------|
|*-------------------------------|--------------------------------|
|-0---------------2---2----------|-0---------------2---2----------|

2/4
|--------------------------------:
|-------------------------------*:
|-------------------------------*:
|-3---3--------------------------: End (fade out)


welcome home (sanitarium)

Intro 4/4                                2/4         4/4
    |-----------------|---------------------|-----------|----------------------|
    |-------7---------|------------7-----75-|(5)----57--|----------------------|
    |-----PAUSE-------|---------------------|-----------|7---------------------|
    |-----------------|---------------------|-----------|----------------------|
                                                    H
                           2/4            4/4                                    2/4
|-------------------------|-------------||-------------------|------------------|------------||
|---------------7------7/9|(9)-----57---||:------------------|------------------|-----------:||
|(7)----------------------|----7--------||----------3------3-|5------5----------|------------||
|-------------------------|-------------||-0------0----------|---------5------3-|(3)-3--°5---||
                                   H                                                 °2 (2nd,4th
                                                                                          times)
  4/4                                 2/4
||------------------|----------------|----------||
||------------------|----------------|----------||
||---------3-----23-|5-3-2-----------|----------||
||0------0----------|------3-5------3|(3)-3-2-2-||

1st, 2nd Verses
4/4                                    2/4
|----------------|----------------|-----------|-----------------|-----------------|-----------|
|----------------|----------------|-----------|-----------------|-----------------|-----------|
|--------3-----3-|5-----5---------|-----------|--------3------3-|5------5---------|-----------|
|0-----0---------|--------5---5-3-|(3)--3--5--|0-----0----------|---------5---5-3-|(3)-3-2-2--|

4/4                                2/4         4/4                                 2/4
|----------------|----------------|-----------|-----------------|-----------------|-----------|
|----------------|----------------|-----------|-----------------|-----------------|-----------|
|--------3-----23|5-3-2-----------|-----------|--------3------23|-5-3-2-----------|-----------|
|0-----0---------|------3---5----3|(3)-3-2-2--|0-----0----------|-------3-5-5-5-3-|(3)-3-2-2--|

4/4                                2/4      4/4                               2/4
|----------------|----------------|--------|----------------|----------------|--------||
|----------------|----------------|--------|----------------|----------------|--------||
|----2-2-----3-3-|----5-5---------|--------|----2-2-----3-3-|----5-5---------|--------||
|0-0-----0-0-----|0-0-----5-5-5-3-|3-3-5-2-|0-0-----0-0-----|0-0-----5-5-5-3-|3-3-5-2-||

Chorus
4/4
|-------------------|----------------|-------------------|------------------|
|-------------------|-------020------|-------------------|------------------|
|-----------32--32--|(2)-------32----|-----------32--32--|(2)-22222232------|
|0---XX32XX---XX----|------------5323|0---XX32XX---XX----|-------------3-X-1|
                            HP
                                                                            Second time to Coda
|-------------------|----------------|-------------------|------------------||
|-------------------|-------020------|-------------------|------------------||
|-----------32--32--|(2)-------32----|-----------32--3---|2-----------------||
|0---XX32XX---XX----|------------5323|0---XX32XX---XX----|------------------||
                            HP
                                     2/4           3 times
||-----------------|----------------|-------------||
||:----------------|----------------|------------:||
||---------3-----3-|5-----5---------|-------------||
||-0-----0---------|--------5-----3-|(3)--3--°5---||
                                             °2 (2nd time)

4/4                                   2/2       D.S. al Coda
|------------------|-----------------|----------||
|------------------|-----------------|----------||
|---------3------3-|5------5---------|----------||
|0------0----------|---------5-5-5-5-|(3)-3-2-2-||

Coda
2/4               4/4                              2/4
|----------------|------------------|-------------|----------------|
|-------020------|------------------|-------------|-------020------|
|----------32----|-----------32--3-|2------------|----------32----|
|------------5323|0---XX32XX---XX--|-------------|------------5323|
        HP                                                HP

Double time
4/4
|-------------|-------------|-------------|-------------|----------------|----------------|
|-------------|-------------|-------------|-------------|----------------|----------------|
|-------------|-------------|-------------|-------------|----------------|----------------|
|0------------|(0)----------|(0)----------|(0)----------|0-0-0-0-0-0-0-0-|0-0-0-0-0-0-0-0-|

|-------------|-------------|----------------|----------------|----------------|----------------|
|----%--------|------%------|----------------|----------------|----------------|----------------|
|-------------|-------------|----------------|----------------|----------------|----------------|
|-------------|-------------|5-7---5-7-0-0-0-|0-0-0-0-0-0-0-0-|5-6---5-6---5-6-|--5-7-0-0-0-0-0-|
                              H     H                           H     H     H      H

                                                                       X3
||-----------------|----------------|----------------|-----------------||
||:----------------|----------------|----------------|----------------:||
||-----------------|----------------|----------------|-----------------||
||-5-6---5-6-0-0-0-|0-0-0-0-0-0-0-0-|5-6---5-6---5-6-|--5-7-0-0-0-0-0--||
    H     H                           H     H     H      H

|------------|-----------|------------|--------------|
|------------|-----------|------------|--------------|
|02----------|02-55------|02----------|02-33-32-22---|
|---00-------|-----------|---11-------|--------------|

|------------|-----------|------------|--------------|-----------------|
|------------|-----------|------------|--------------|-----------------|
|02----------|02-55------|02----------|02-33-32-22---|-----------------|
|---00-------|-----------|---11-------|--------------|000000000000(12)|

Double time
Guitar Solo
||---------------------------------------------------------------------||
||:-------------------------------------------------------------------:||
||---------------------------------------------------------------------||
||-5-6---5-6-0-0-0-|0-0-0-0-0-0-0-0-|5-6---5-6---5-6-|--5-7-0-0-0-0-0--||

Nornal  time                                                                   X6
|------------|------------||------------|-----------|-----------|---------------||
|------------|------------||:-----------|-----------|-----------|--------------:||
|02----------|02-55---5---||-02---------|02-55------|02---------|02-33---32-22--||
|---00-------|------------||----00------|-----------|---11------|---------------||

|-----------|-----------|-----------|--------------|
|-----------|-----------|-----------|--------------|
|02---------|02-55------|02---------|02-33---32-22-|
|---00------|-----------|---11------|--------------|

|----------------|----------------|----------------|----------------|------------------|
|----------------|----------------|----------------|----------------|------------------|
|02--------------|02-55---5-5-5-5-|02--------------|02-33---2-2-2-2-|2-2-2-2--2-2-2-2--|
|---00---0-0-0-0-|----------------|---11---1-1-1-1-|----------------|------------------|

|----------------|----------------|----------------|----------------||
|----------------|----------------|----------------|----------------||
|2---0-----------|----------------|----------------|----------------||
|--------3---2---|0---------------|(0)-------------|7---------------||
                  /                 /
                  /                 /
                  /                 /

harvester of sorrow


     INTRO
---------------------!
---------------------!
---------2-1-0-------!2X's
---3-2-0-------3-2-0-!
..............3X;s................
-----------------!----------------!-----------------!
-----------------!----------------!-----------------!
----7------------!--7-----5-------!----7------------!
-0-----0-5-7-1-1-!0----0-3---1-1--!0------0-5-7-1-1-!
                          ......INTRO #2................
-------------------------!------------------------------!
-------------------------!------------------------------!
-----7--------2-1-0------!--------------------2-1-0-----!
-0-------3-2-0-------3-2-!0--0-0-0--0-0-3-2-0-------3-2-!

-------------------------------!------------------------------!
-------------------------------!------------------------------!
---------------------2-1-0-----!--------------------2-1-0-----!
-1--1-1-1--1-1-3-2-0-------3-2-!0--0-0-0--0-0-3-2-0-------3-2-!

-------------------------------!----------------------!
-------------------------------!----------------------!
-------------------------------!----------------------!
-1--1-1-1--1-1-3-2-0-5-5-5-3-2-!-0-----(0)--------0-1-!

-----------------------------------!
-----------------------------------!
-----1/-----7-----7-----7--7-------!3X's
--2------0-----0-----0--------0--1-!

-----------------------!--------------------------!--------------------!
-----------------------!--------------------------!--------------------!
---5-------------------!---1/-----7-----7--7------!---5----------------!
-2---0--3----3--3--0-1-!2------0-----0--------0-1-!2----0--3---3--3-0-1!

------------------------!         !--------------------------!
------------------------!         !--------------------------!
------------------------!3X's     !--------------------------!
-2--0---0----0---0--0-1-!         !-2--3----3----3---3---0-1-!
                              .............2X's.................        
-----------------------------!----------------------------------!
-----------------------------!----------------------------------!
-----------------------------!----------------------------------!
-2---0-----0-1-2---0-----0-1-!-2---0-----0-----0----0---0---0-1-!                                     
                                        PRE-CHORUS
--------------------------------!-----!--------------------------!
--------------------------------!-----!--------------------------!
--------------------------------!-----!--------------------------!
-2---3-----3-----3----3---0-1-0-!-0-1-!-2--0----0-1-2--0-----0-1-!

---------------------------------!
---------------------------------!    THEN PLAY INTRO #2 WHICH IS
---------------------------------!     THE CHORUS
-2--0----0----0-0-0-1-0------(0)-!
                 ......3X's...........
----------------!---------------------!--------------------!
----------------!---------------------!--------------------!
----------------!----1/---7---7-7-----!---5----------------!
-(0)-----1--0-1-!-2-----0---0-----0-1-!-2---0-3----3-3-0-1-!

-------------------------------------!
-------------------------------------!
-------------------------------------!
0---------0--------0----(0)---1--0-1-!

   GUITAR SOLO
------------------------!----------------------!-----------------------!
------------------------!----------------------!-----------------------!
------------------------!----------------------!-----------------------!
-2--0----0-1-0-0----0-1-!-2-0----0----0--0-0-1-!-2--0----0-1-2--0---0-1!

------------------------!-----------------------!----------------------!
------------------------!-----------------------!----------------------!
------------------------!-----------------------!----------------------!
-2--3----3----3--3--0-1-!-2--0----0-1-2-0---0-1-!-2--0---0---0-0-0-1-0-!

-----------------------------!-------------------------------!
-----------------------------!-------------------------------!
-----------------------------!---------------------2-1-0-----!
-0--0-0-0--0-0-0--0-0-0--0-0-!-0--0-0-0--0-0-3-2-0-------3-2-!

-------------------------------!-----------------------------!
-------------------------------!-----------------------------!
---------------------2-1-0-----!-----------------------------!
-1--1-1-1--1-1-3-2-0-------3-2-!-0--0-0-0--0-0-0--0-0-0--0-0-!

------------------------------!----------------------------!
------------------------------!----------------------------!
------------------------------!----------------------------!
-0--0-0-0--0-0--1--1-1-1--1-1-!-0----(0)--------1-1--1-1-1-!

------------------------!------------------------!
------------------------!------------------------!
------------------------!------------------------!
------------1-1---1-1-1-!-----0--0----0----0-0-1-!

------------------------!       !------------------------------!
------------------------!       !------------------------------!
------------------------!2X's   !------------------------------!
-2-0---0----0--0--0--1--!       !-2--3-----3-----3--3--0--1--0-!

                          THEN PLAY INTRO #2 TILL
                             THE END
The four horsemen

Intro                                              2 times
|---------||-------|---|---|---------|---|---|-----------||
|---------||-o---R-|-R-|-R-|---------|---|---|---------o-||
|-3---5-3-||-o-7---|---|---|-R---R---|-R-|-R-|-3---5-3-o-||
|---3-----||-------|---|---|---0---0-|---|---|---3-------||
  q q q q      q h.  w   w   q q q q   w   w   q q q q

fig.1
|-----------------|-------------|-----------------|-------------|
|-----------------|-------------|-----------------|-------------|
|-------7-------7-|-------7-5-5-|-------7-------7-|-------7-3-5-|
|-0-0-0---0-0-0---|-0-0-0-------|-0-0-0---0-0-0---|-0-0-0-------|
  e e e q e e e q   e e e q q q   e e e q e e e q   e e e q q q
  [ 3 ]   [ 3 ]     [ 3 ]         [ 3 ]   [ 3 ]     [ 3 ]

                                   end fig.1
|-----------------|-------------|---------||
|-----------------|---------5---|---------||
|-------7-------7-|-------7---7-|-3---5-3-||
|-0-0-0---0-0-0---|-0-0-0-------|---3-----||
  e e e q e e e q   e e e q q q   q q q q
  [ 3 ]   [ 3 ]     [ 3 ]

  Verses 1,2                 Chorus
||--                         |---------------|-----------------|
||-o  play fig.1  2 times    |---------------|-----------------|
||-o                         |-7-7-7-7-0-7-0-|-7-0-7-0-7-0-7-0-|
||--                         |---------------|-----------------|
                               q e e e e e e   e e e e e e e e

|-----------------|-----------------|-----------------|-----------------|
|-----------------|-----------------|-----------------|-----------------|
|-5-5-5-5-5-0-5-0-|-5-0-5-0-5-0-5-0-|-3-3-3-0-3-0-3-0-|-3-0-3-0-3-0-3-0-|
|-----------------|-----------------|-----------------|-----------------|
  e e e e e e e e   e e e e e e e e   e e e e e e e e   e e e e e e e e

|---------|--------------|---------------|-----------------|
|---------|------7-7-8-9-|---------------|-----------------|
|-2-3-5-7-|-9-10---------|-7-7-0-7-0-7-0-|-7-0-7-0-7-0-7-0-|
|---------|--------------|---------------|-----------------|
  q q q q   q q  q e e e   q e e e e e e   e e e e e e e e
                   [ 3 ]

                   2nd & 3rd time fill 1
|-----------------|-----------------|-----------------|---------|
|-----------------|-----------------|-----------------|---------|
|-5-5-5-0-5-0-5-0-|-5-0-5-0-5-0-5-0-|-3-3-3-0-3-0-3-0-|-2-3-2---|
|-----------------|-----------------|-----------------|-------3-|
  e e e e e e e e   e e e e e e e e   e e e e e e e e   q q q q

                   fill 1
                  |-----------------|
                  |-7-------7---7---|
                  |---5-5-5---5---5-|
                  |-----------------|
                    e e e e e e e e

fig.2
|-----------------|-----------------|-----------------|-------------------|
|-----------------|-----------------|-----------------|-----------7-5-----|
|-7-5-7-5-7-5-7-5-|-7-5-7-5-7-5---5-|-7-5-7-5-7-5-7-5-|-----5-7-5-----7-5-|
|-----------------|-------------7---|-----------------|-6-7---------------|
  e e e e e e e e   e e e e e e e e   e e e e e e e e   e e e e e e e e e
                                                        [ 3 ]

                                      end fig.2            3rd time to coda
|-----------------|-----------------|---------|              --||
|-----------------|-----------------|---------|  play fig.2  o-||
|-7-5-7-5-7-5-7-5-|-7-5-7-5-7-5-----|-3---5-3-|              o-||
|-----------------|-------------7-5-|---3-----|              --||
  e e e e e e e e   e e e e e e e e   q q q q

                              fig.3
|---||-----|  6  |-----------||-----------------------|
|---||-----|-----|-R-R-------||-o---------------------|
|-7-||---R-|-----|-----8p7-7-||-o-7---------7---------|
|-0-||-0---|     |-----------||-----0-0-0-0---0-0-0-0-|
  w    e h..       q e e q q      e e e e e e e e e e
                                    [ 3 ]       [ 3 ]

                                             end fig.3 4 times
|------------------|---------------------|-----------------||
|------------------|---------------------|---------------o-||
|-7---------87--7-|-7---------7---------|-7---------8-8-o-||
|---0-0-0-0--------|---0-0-0-0---0-0-0-0-|---0-0-0-0-------||
  e e e e e s e. q   e e e e e e e e e e   e e e e e q q
      [ 3 ]              [ 3 ]     [ 3 ]       [ 3 ]

half time (102 bpm)                      164 bpm straight eights
fill A-------------------| 2/4          4/4
|-9-7---7-----------------|-/9-7---7-----|---R-----------||
|-----9---9-8-7-5-7---5-7-|------9---9-8-|-7-----R---R---||
|-------------------7-----|--------------|-----3---4---5-||
|-------------------------|--------------|---------------||
  e e e e e e e e e e e e    e e e e e e   q e e e e e e
  [ 3 ] [ 3 ] [ 3 ] [ 3 ]    [ 3 ] [ 3 ]

                                   8 times
||-------------------|-------------------||
||-o-----------------|-----------------o-||
||-o---------8-7-5-7-|-------3---4---5-o-||
||---0-0-5-7---------|-0-0-0---0---0-----||
     e e e e e e e e   e e e e e e e e

Bridge                              8 times
||-------------------|-------------------||
||-o-----------------|-----------------o-||
||-o-----------------|-------3---4---5-o-||
||---0-0-0-0-0-0-0-0-|-0-0-0---0---0-----||
     e e e e e e e e   e e e e e e e e

102 bpm
fill A 2 times

90 bpm
|-------------------------|----------------------|-------------------------|
|-------------------------|----------------------|-------------------------|
|-----7-7-7-7-5-5-5-5-7-5-|-3-3-3-3-3-0-2-2-2-9--|-------------------------|
|-0-0---------------------|----------------------|-0-0-0-0-0-0-2-2-3-2-0-2-|
  e e s s s s e e s s s s   e e s s s s e e e e    e e s s s s e e s s s s

|---------------------------|--------------------------|
|---------------------------|--------------------------|
|-----------R-------------5-|-7-7-7-7-7/9-9-9-9-9-9/10-|
|-3-3-3-3-3---7-7-7-7-7-7---|--------------------------|
  e e s s s s s s s s s s e   e e s s s s e e s s s s

|----------------------------------|-------------------------------------|
|----------------------------12----|-14-14-14-14-14-14-16-16-16-16-16-16-|
|-10-10-10-10-10/14-14-14-14----14-|-------------------------------------|
|----------------------------------|-------------------------------------|
  e  e  s  s  s  s  s  s  e  e  e    e  e  s  s  s  s  e  e  s  s  s  s

|-----------------------------------------||
|-17-17-17-17-17/21-21-21-21-21-21-21-21-||
|-----------------------------------------||
|-----------------------------------------||
  e  e  s  s  s  s  s  s  s  s  s  s  e

Guitar solo I
|-----------------------|---------------------|--------------------|
|-------4-5---------4-5-|---------4-5---------|--------------------|
|-----7-----5-5-5-7-----|-3-3-5-7-----2-2-2-2-|-7----7-5-5-7-5-0-5-|
|-0-0-------------------|---------------------|-0--0---------------|
  e e e s s e e s s s s   e e s s s s e e e e   e. s q e e s s s s

|-----------------------|-------------------------|
|-----------------5-4-2-|-2-2-2-2-0-2-4-4-4-4-0-4-|
|-3-3-5-3-0-3-2-2-------|-------------------------|
|-----------------------|-------------------------|
  e e s s s s e e s s e   e e s s s s e e s s s s

|--------------------------|----------------------------|
|-5-5-5-4-2-0--------------|----------------------------|
|-------------2-2-0-2-0-2/-|-/7-----7-7-7-7-5-5-7-5-0-5-|
|--------------------------|--0-0-0---------------------|
  e e s s s s e s s s s e     e s s s s s s e e s s s s

|-----------------------------|---------------------------|
|-----5-4-2-------------------|-2---2-0-2-4-2-4-2-4-2-4-0-|
|-3-3-------5-3-5-3-2-3-2-----|---------------------------|
|-------------------------3-2-|---0-----------------------|
  e e s s s s s s s s s s s s   e e e s s s s s s s s s s

|-------------------------|-----------------------------|
|-------------------------|-----------------------------|
|-3-3-3-5-3-0-3-2-2-2-----|-------7-7-7-7-9-9-9-9-9-9-7-|
|---------------------3-2-|-0-0-0-----------------------|
  e s s s s s s e s s e e   e s s s s s s e s s s s s s

|-----------------------|-------------------------|-------------------------|
|-----5-------------5---|-----------------5-7-----|-----------5-7-----------|
|-3-3---3-0-3-2-2-2---7-|-7---7-7-7-7-5-5-----7-5-|-3-3-3-5-7-----2-2-2-2-2-|
|-----------------------|-0-0---------------------|-------------------------|
  e e s s s s s s e e e   e e s s s s e e s s s s   s s e s s s s s s e e e

                          2/4         4/4
|-------------------------|-----------|-----------------|-----||
|---------------------7---|-----------|-----------------|---R-||
|-7---7-7-7-7-5-5-7-5---5-|-3-3-5-3-5-|-2-3-2-3-2-3-2-3-|-2---||
|---0---------------------|-----------|-----------------|-----||
  e e s s s s e e s s s s   e e s s e   e e e e e e e e   q h.

triplet feel
204 bpm                102 bpm

play fig.3  4 times   |  play fill A 2 times ||

204 bpm
|------|---|---|---------|---|---|---------|---------|---------|---------|
|------|---|---|---------|---|---|---------|---------|---------|---------|
|---R--|-R-|-R-|-R---R---|-R-|-R-|-3---5-3-|---R---R-|---R---R-|---R---R-|
|-0----|---|---|---0---0-|---|---|---3-----|-0---0---|-0---0---|-0---0---|
  e h..  w   w   q q q q   w   w   q q q q   q q q q   q q q q   q q q q

|---------|---------|---------|---------||
|---------|---------|---------|---------||
|---R---R-|---R---R-|---R---R-|-3---5-3-||
|-0---0---|-0---0---|-0---0---|---3-----||
  q q q q   q q q q   q q q q   q q q q

D.S. Verse 3 al Coda

Coda                         Guitar solo II
|---||                      ||                     ||-----------------|
|-R-|| play fig.3  4 times  || play fig.3  8 times ||-----------------|
|---||                      ||                     ||-7-5-7-5-7-5-7-5-|
|---||                      ||                     ||-----------------|
  w                                                   e e e e e e e e

|-----------------|-----------------|-------------------|
|-----------------|-----------------|-----------7-5-----|
|-7-5-7-5-7-5---5-|-7-5-7-5-7-5-7-5-|-----5-7-5-----7-5-|
|-------------7---|-----------------|-6-7---------------|
  e e e e e e e e   e e e e e e e e   e e e e e e e e e
                                      [ 3 ]

|-----------------|-----------------|---------|-----||
|-----------------|-----------------|---------|-----||
|-7-5-7-5-7-5---5-|-7-5-7-5-7-5-----|-3---5-3-|---R-||
|-------------7---|-------------7-5-|---3-----|-0---||
  e e e e e e e e   e e e e e e e e   q q q q   q h.



the thing that should not be

Tune down 1 whole step E string to D
                                                                  X 4 TIMES
|---|----------------|----------------||-----------------|-----------------||
|-4-|-----PAUSE------|----------------||:----------------|----------------:||
|-4-|----7-BEATS-----|----------------||-------1-------2-|------3----------||
|---|----------------|--------------0-||-0-1-2-------2---|----2---------0--||

||-----------------|-----------------||--------- ---- ---|----------------|
||:----------------|----------------:||--------- ---- ---|----------------|
||-------1-------2-|------3----------||--------- ---- ---|----------------|
||-0-1-2-----1-2---|--1-2-----1-2-0--||7-7-7-7-10-7-10---|6-3-3-3-6-3-6---|

|----------------|----------------|----------------|----------------|
|----------------|----------------|----------------|----------------|
|----------------|----------------|----------------|----------------|
|7-4-4-4-7-4-7---|4-1-1-1-1-1-1-1-|2---------------|--------------0-|

|----------------|----------------||
|----------------|----------------||
|----------------|----------------||
|2---------------|--------------0-||

1ST,2ND,3RD VERSES

|----------------|----------------|----------------|----------------|
|----------------|----------------|----------------|----------------|
|----------------|----------------|----------------|----------------|
|2---------------|--------------0-|2---------------|---------------0|

|----------------|----------------|----------------|----------------|
|----------------|----------------|----------------|----------------|
|------1-------2-|------3---------|------1-------2-|------3---------|
|0-1-2-------2---|----2---------0-|0-1-2-------2---|----2---------0-|

|----------------|----------------|----------------|----------------|
|----------------|----------------|----------------|----------------|
|----------------|----------------|----------------|----------------|
|2---------------|--------------0-|2---------------|--------------0-|

|----------------|----------------|--------- ---- ---|----------------|
|----------------|----------------|--------- ---- ---|----------------|
|------1-------2-|------3---------|--------- ---- ---|----------------|
|0-1-2-------2---|----2---------0-|7-7-7-7-10-7-10---|6-3-3-3-6-3-6---|

|----------------|----------------|--------- ---- ---|----------------|
|----------------|----------------|--------- ---- ---|----------------|
|----------------|----------------|--------- ---- ---|----------------|
|7-4-4-4-7-4-7---|4-1-1-1-1-1-1-1-|7-7-7-7-10-7-10---|6-3-3-3-6-3-6---|

|----------------|----------------|----------------|----------------|
|----------------|----------------|----------------|----------------|
|----------------|----------------|0-------1-------|----------------|
|7-4-4-4-7-4-7---|4-1-1-1-1-1-1-1-|----------------|5-6---5-6-0-0-0-|

|----------------|---|--------|---|----------------|----------------|
|----------------|-2-|--------|-4-|----------------|----------------|
|----------------|-4-|--------|-4-|0-------1-------|----------------|
|0-0-0-0-0-0-0-0-|---|5-6---5-|---|----------------|5-6---5-6-0-0-0-|

                                    2nd Time to Coda 1
                                    3rd Time to Coda 2
                                                   @
|----------------|---|--------|---|----------------|----------------|
|----------------|-2-|--------|-4-|----------------|----------------|
|----------------|-4-|--------|-4-|0-------1-------|--------0-------|
|0-0-0-0-0-0-0-0-|---|5-6---5-|---|----------------|1-------------0-|

||-----------------|-----------------||-----------------|-----------------||
||:----------------|----------------:||:----------------|----------------:||
||-------1-------2-|------3----------||-------1-------2-|------3----------||
||-0-1-2-------2---|----2---------0--||-0-1-2-----1-2---|--1-2-----1-2-0--||

Coda 1
@                                   Guitar Solo                X 4 Times
|----------------|----------------||-----------------|-----------------||
|----------------|----------------||:----------------|----------------:||
|--------0-------|----------------||-----------------|-----------------||
|1---------------|--------5-6---5-||-6-0-0-0-0-0-0-0-|0-0-0-0-5-6---5--||

|----------------|----------------|----------------|----------------|
|----------------|----------------|----------------|----------------|
|0-----0-10--1-0-|0-----0-310-1-0-|0-------1-------|0-----0-510-1-0-|
|--3-5-----3-----|--3-5-----------|----------------|--3-5-----------|

                                                         D.S. al Coda 2
                                                              X 4 Times
|----------------|----------------||-----------------|-----------------||
|----------------|----------------||:----------------|----------------:||
|0-------1-------|--------0-------||-------1-------2-|------3----------||
|----------------|1-------------0-||-0-1-2-----1-2---|--1-2-----1-2-0--||

Coda 2                                                  Repeat and Fade
|----------------|----------------||-----------------|-----------------||
|----------------|----------------||:----------------|----------------:||
|--------0-------|0-----0-510-1-0-||-----------------|-----------------||
|1---------------|--3-5-----------||-5-6---5-6-0-0-0-|0-0-0-0-0-0-0-0--||

master of puppets

Intro
4/4
|----------|------------|-------------|------------|----------|--------|---------|
|----------|------------|-------------|------------|----------|--------|---------|
|----------|5---4---3---|(3)----------|------------|----------|--------|---------|
|0---------|------------|-------------|0-----------|----------|--------|-------1-|

||-------|------------|--------|---------||--------|------------|---------------|---------------|
||:------|------------|--------|--------:||--------|------------|---------------|---------------|
||-------|5---4---3---|--------|---------||--------|5---4---3---|---3-3-3-3-3-3-|3-3-3-3-3-3-3-3|
||-0-----|------------|--------|------1--||0-------|------------|---------------|---------------|

|----------------||----------|----------|----------|-----------------||
|----------------||:---------|----------|----------|----------------:||
|3-3-3-3-3-3-3-3-||----------|----------|----------|-----------------||
|----------------||-0--------|----------|----------|32-0-32-0-32--||
                                                     S     S     S

||-----------------|----------------|----------------|----------------|
||:----------------|----------------|----------------|----------------|
||-----2-----3-----|4-----3-----2-2-|----2-----3-----|4-----3-----2---|
||-0-1---0-1---0-1-|--0-1---0-1-----|0-1---0-1---0-1-|--0-1---0-1-----|

|-----------------|----------------|----------------|-----------------||
|-----------------|----------------|----------------|----------------:||
|-----2-----3-----|4-----3-----2-2-|----2-----3-----|-----------------||
|-0-1---0-1---0-1-|--0-1---0-1-----|0-1---0-1---0-1-|32-0-32-0-32--||
                                                      S     S     S

|-----------------|----------------|------------------||
|-----------------|----------------|------------------||
|-----------------|----------------|------------------||
|32-0-32-0-32--|0---------------|---------------8-||

Bass riff1                                            5/8
||-----------------|----------------|----------------|-----------||
||:----------------|----------------|----------------|----------:||
||-----------------|----------------|----------------|-----------||
||-0-0-0-0-0-0-0-0-|0-3-5-0-65-3-5-|0-0-0-0-0-0-0-0-|0-3/5-3/5--|| end of riff1
                       H     S   H

1st, 2nd, 3rd Verses 
Bass riff1 X4

Bass riff2 X2                                       5/8        
|----------------|----------------|----------------|----------|
|----------------|----------------|----------------|----------|
|----------------|----------------|----------------|----------|
|2-2-2-2-2-2-2-2-|2-5/7---87-5/7-|2-2-2-2-2-2-2-2-|2-5/7-5/7-| end of riff2

Pre-chorus
|----------------||----------------|---------------|----------------|----------------|
|----------------||----------------|---------------|----------------|--------1-------|
|----------------||7-------5---7---|---------------|3-3-3-3-3---2---|3-3-3-3-----2---|
|7-7-7-7-7-7-7-7-||--0-0-0---------|0------2-3-----|----------------|----------------|

                                                    ------------------   --------------
                                                    |1.2.             | |3.           
||-----------------|---------------|----------------|-----------------||--------------|
||:----------------|---------------|----------------|--------1-------:||4-2-1---1-----|
||-7-------5---7---|---------------|3-3-3-3-3---2---|3-3-3-3-----2----||----------3-2-|
||---0-0-0---------|0------2-3-----|----------------|-----------------||--------------|

                                    Chorus           2/4      4/4
|----------------|----------------||----------------|--------|----------------|-----------------|
|----------------|----------------||----------------|--------|----------------|-----------------|
|----------------|----------------||----------------|--------|----------------|-----------------|
|0---0-----------|1---1-----------||0-----------0-0-|2-0-0-0-|3---3-3---3-3---|3-3-3-3-3-3-333--|
                                                      P
                  2/4      4/4                                                 2/4
|----------------|--------|----------------|----------------|-----------------|--------|
|----------------|--------|----------------|----------------|-----------------|--------|
|3---2-3-3-0-0-0-|2-0-0-0-|0---0-0---0-0---|(0)-------------|5----------------|5-------|
|----------------|--------|----------------|----------------|-----------3-3-3-|----0-0-|

4/4               2/4      4/4                                                 2/4
|----------------|--------|----------------|----------------|-----------------|--------|
|----------------|--------|----------------|----------------|-----------------|--------|
|3---3-3---3-3---|3-3-3---|----------------|----------------|-----------------|--------|
|----------------|--------|0---0-----------|1---1-----------|0----------0-0-0-|2-0-0-0-|
                                                                                P

 4/4                                                                  2nd time to Coda1
|----------------|----------------|----------------|----------------||3rd time to Coda2
|----------------|----------------|----------------|----------------||
|3---3-3---3-3---|3-3-2-2-0-0-----|----------------|----------------||
|----------------|------------3-3-|0---0-----------|1---1-----------||

                                                      -----------------   ------------------
                                                     |1.               | |2.
||-----------------|----------------|----------------|-----------------||-----------------|
||:----------------|----------------|----------------|----------------:||-----------------|
||-----2-----3-----|4-----3-----2-2-|----2-----3-----|4-----3-----2----||-----------------|
||-0-1---0-1---0-1-|--0-1---0-1-----|0-1---0-1---0-1-|--0-1---0-1------||32-0-32-0-32--|
                                                                          S     S     S
                   D.S al Coda1           Coda1
|-----------------|                       |----------------|----------------||
|-----------------|                       |----------------|----------------||
|-----------------|                       |----------------|----------------||
|32-0-32-0-32-----|                       |----------------|----------------||
  S     S     S

Interlude
 2/4      4/4         2/4                4/4                                              2/4
|--------|-----------|--------||--------|---------------|---------------|----------------|------|
|--------|--3 pause--|--------||--------|---------------|---------------|----------------|------|
|--------|-----------|--------||7-------|5--------------|3--------------|0-------2-------|6-----|
|--------|-----------|--------||--------|---------------|---------------|----------------|------|

Interlude riff1
             4/4                                                2/4
||---------|----------------|----------------|----------------|---------||
||:--9-9---|----------------|----------------|----------------|--------:||
||-7-----7-|5-----5-5-5---5-|3-3---333-3-0-3-|0-----0-2-220-2-|66660-6--||End of Interlude riff1
||---------|------------5---|----------------|----------------|---------||

Guitar solo1
            4/4                                                2/4
||---------|----------------|----------------|----------------|---------||
||:--9-----|----------------|----------------|----------------|--------:||
||-7---7-7-|5-----555-5-7-5-|3-3-----3-3-0-3-|0-----0-2-220-2-|66660-6--||
||---------|----------------|------33--------|----------------|---------||

Interlude riff1 X2
            
            4/4                                                2/4
||---------|----------------|----------------|----------------|---------||
||:--------|----------------|----------------|----------------|--------:||
||---------|----------------|----------------|----------------|6-6-6-6--||
||-0-0-0-0-|2-2-2-2-2-2-2-2-|3-3-3-3-3-3-3-3-|5-5-5-5-7-7-7-7-|---------||

  4/4                                                                     X6
||----------------|----------------||-----------------|-----------------||
||----------------|----------------||:----------------|----------------:||
||----------------|----------------||---------------44|--------------4--||
||0-0-0-0-0-0-0-0-|0-0-0-0-0-0-0-0-||-2-2-3-2-2-2-3---|2-2-3-2-2-2-3----||

||----------------|-----------------|----------------|----------------||
||----------------|-----------------|----------------|5-4-2-2-0-------||
||----------------|-----------------|----------------|----------4-2-0-||
||3---3---3-3-3-3-|(3)3-3---3-3-3---|2---2---2-2-2---|----------------||

Guitar solo2
Bass riff1 X4
Bass riff2 X2

|----------------||-----------------|----------------|----------------|-----------------||
|----------------||:----------------|----------------|----------------|----------------:||
|----------------||-----------------|------------2-2-|----------------|------------2----||
|7-7-7-7-7-7-7-7-||-0-0-1-0-0-1-0-0-|1-0-0-1-0-0-----|0-0-1-0-0-1-0-0-|1-0-0-1-0-0------||

                                                                      X4
|----------------|----------------|----------------|----------------||
|----------------|------------0-2-|4-5-------------|------0---------||
|----------------|------0-2-3-----|----3---------33|3-2-3---3-2-----||
|0-0-0-0-0-0-0-0-|0-2-3-----------|----------------|------------3-2-||

|----------------|----------------||-----------------|----------------|----------------|
|----------------|------0---------||:----------------|----------------|----------------|
|--------------33|3-2-3---3-2-----||-----------------|----------------|----------------|
|0---------------|------------3-2-||-0---------------|----------------|----------------|

                                    D.S. al Coda2      Coda2
|-----------------||----------------||                 ||-----------------|---------------|
|----------------:||----------------||                 ||:----------------|---------------|
|-----------------||----------------||                 ||-----------------|---------------|
|32-0-32-0-32-----||32-0-32-0-32----||                 ||-0-0-0-0-0-0-0-0-|0-3-5-0-65-3-5|
  S     S     S      S     S     S                                            H     S   H  

                  5/8       x8 4/4
|----------------|-----------||----------------|----------------|----------------||
|----------------|----------:||----------------|----------------|----------------||
|----------------|-----------||----------------|----------------|----------------||
|0-0-0-0-0-0-0-0-|0-3/5-3/5--||----------------|32-0-32-0-32----|0---------------||


fade to black


 Intro
  Moderately Rock Q=116
 4/4
  Gtr I
  W          W          W          H    Q  E E   W          W
|----------|----------|----------|-------------|----------|------|
|----------|----------|----------|-------------|----------|------|
|----------|----------|----------|-------------|----------|------|
|----------|----------|----------|-----------5-|-7--------|------|


  W          H    Q  E E   Q  Q  H
|----------|-------------|------------|
|----------|-------------|------------|
|----------|-------------|------------|
|----------|-----------5-|-7----------|


  H    Q  Q    W          Q  H    Q    W
|------------|----------|------------|------|
|------------|----------|------------|------|
|---------5--|----------|------------|------|
|------------|-7--------|---------5--|-7----|


  W          W          H    Q  E E   W          W          W          W
|----------|----------|-------------|----------|----------|----------|------|
|----------|----------|-------------|----------|----------|----------|------|
|----------|----------|-------------|----------|----------|----------|------|
|----------|----------|-----------5-|-7--------|----------|----------|------|


  Q.   E Q.   E   Q.   E H       W
|---------------|-------------||----------|
|---------------|-------------||----------|
|---------------|-2----2------||-0--------|
|-1----1-4----4-|--------0----||----------|


  W          W          H    Q   Q
|----------|----------|---------------|
|----------|----------|---------------|
|----------|----------|---------------|
|----------|----------|------3--/7----|


  W          W          W          W          H.      E E   H.      E E
|----------|----------|----------|----------|-------------|--------------|
|----------|----------|----------|----------|-------------|--------------|
|-0--------|----------|----------|----------|-0-------0-2-|-3-------3-2--|
|----------|----------|----------|----------|-------------|--------------|


  H.      E E   H      Q   Q     H.      E E
|-------------|----------------|-------------|
|-------------|----------------|-------------|
|---------3-2-|--------2--/7---|-0-------0-2-|
|-3-----------|-0--------------|-------------|


  H.      S S E   H.      E E   H    Q   Q
|---------------|-------------|---------------||
|---------------|-------------|---------------||
|-3-----------5-|-------------|------7--------||
|---------5s7---|-3-------5-3-|-0--------0----||


 1st Verse
  H.      E E   Q.   E Q  a E E   H.      E E   Q  E E  E E q
|-------------|-----------------|-------------|-----------------|
|-------------|-----------------|-------------|-----------------|
|-0-------0-2-|-3----3-3--2h3-2-|-------------|-----------5-7---|
|-------------|-----------------|-3-------5-3-|-0--0-0-/7-------|


  H.      E E   H.      S S E   H.      E E   H    q   Q
|-------------|---------------|-------------|--------------|
|-------------|---------------|-------------|--------------|
|-0-------0-2-|-3-----------5-|-------------|--------------|
|-------------|---------5s7---|-3-------5-3-|-0----3--/7---|


  H.      E E   Q.   E Q  a E E   H.      E E   H    q  q
|-------------|-----------------|-------------|-------------|
|-------------|-----------------|-------------|-------------|
|-0-------0-2-|-3----3-3--2h3-2-|---------3-2-|------7--7---|
|-------------|-----------------|-3-----------|-0-----------|


  H.      E E   H    +E   E S S S S   H    +E  S S S S E   E E E E E E E E
|-------------|---------------------|--------------------|-----------------||
|-------------|-------------5h7p5---|-5----(5)-----5h7-5-|-----------------||
|-0-------0-2-|-3----(3)-/7-------7-|----------5h7-------|-7-7-7-7-7-7-7-7-||
|-------------|---------------------|--------------------|-----------------||


    Q.   E E S S E E   Q.   E E S S E E   Q.   E q  q    Q.   E E S S E E
||-------------------|------------------|--------------|------------------|
||o------------------|------------------|--------------|------------------|
||o-0----0-0-------5-|-3----3-3-------5-|-0----0-0--5--|-7------------3-2-|
||-----------0-0-3---|----------0-0-3---|--------------|------0-0-0-0-----|


  Q.   E E S S E E   Q.   E E S S E E   Q.   E q  E E   W
|------------------|------------------|---------------|-------||
|------------------|------------------|---------------|------o||
|-0----0-0-------5-|-3----3-3-------5-|-0----0-0------|------o||
|----------0-0-3---|----------0-0-3---|-----------3-2-|-0-----||


 Interlude
  H.      E E   H.      S S E   H.      E E   H.       Q
|-------------|---------------|-------------|---------------|
|-------------|---------------|-------------|---------------|
|-0-------0-2-|-3-----------5-|-------------|---------/7----|
|-------------|---------5s7---|-3-------5-3-|-0-------------|


  H.      E E   Q  Q  Q  S S E   Q  Q  Q  E E   H.       q
|-------------|----------------|--------------|--------------||
|-------------|----------------|--------------|--------------||
|-0-------0-2-|----------------|--------------|--------------||
|-------------|-3--3--3--0-3-5-|-3--3--3--5-3-|-0-------/7---||


 2nd Verse
  Q.   E Q  E a E   Q.   E Q  E E   H    E Q  E   Q.   E q  Q
|-----------------|---------------|-------------|----------------|
|-----------------|---------------|-------------|----------------|
|-0----0-0--0-3h5-|-3----3-3--5---|-------------|-----------2/---|
|-----------------|-------------7-|-3----3-5--3-|-0----0-0-------|


  H.      E E   H.      E E   Q  Q  +E  E E E   H    q  a Q
|-------------|-------------|-----------------|---------------|
|-------------|-------------|-----------------|---------------|
|-0-------0-2-|-3-------3-5-|-----------------|---------------|
|-------------|-------------|-3--3--(3)-3-5-3-|-0----0--5s7---|


  H    Q  E E   Q.   E Q  a E E   Q.   E Q  E E   Q  E E Q  a Q
|-------------|-----------------|---------------|----------------|
|-------------|-----------------|---------------|----------------|
|-0----0--0-2-|-3----3-3--2h3-2-|---------------|----7---7-------|
|-------------|-----------------|-3----3-3--5-3-|-0----0----5s7--|


  H    Q  E E   Q.   E E S S S S S S   H.      S S E   E E E E E E E E
|-------------|----------------------|---------------|-----------------|
|-------------|--------------5h7p5---|-5-------5h7p5-|-----------------|
|-0----0--0-2-|-3----3-3-5h7-------7-|---------------|-7-7-7-7-7-7-7-7-|
|-------------|----------------------|---------------|-----------------|


  Q.   E E S S E E   Q.   E E S S E E   Q.   E q  q    Q.   E E S S E E
|------------------|------------------|--------------|-------------------|
|------------------|------------------|--------------|-------------------|
|-0----0-0-------5-|-3----3-3-------5-|-0----0-0--5--|-7------------3-2--|
|----------0-0-3---|----------0-0-3---|--------------|------0-0-0-0------|


  Q.   E E S S E E   Q.   E E S S E E   Q.   E q  E E   W
|------------------|------------------|---------------|------|
|------------------|------------------|---------------|------|
|-0----0-0-------5-|-3----3-3-------5-|-0----0-0------|------|
|----------0-0-3---|----------0-0-3---|-----------3-2-|-0----|


  Q.   E E S S E E   Q.   E E S S E E   Q.   E q  q    Q.   E E S S E E
|------------------|------------------|--------------|-------------------|
|------------------|------------------|--------------|-------------------|
|-0----0-0-------5-|-3----3-3-------5-|-0----0-0--5--|-7------------3-2--|
|----------0-0-3---|----------0-0-3---|--------------|------0-0-0-0------|


                                                         Q=144
  Q.   E E S S E E   Q.   E E S S E E   Q.   E q  E E    W
|------------------|------------------|---------------||------|
|------------------|------------------|---------------||------|
|-0----0-0-------5-|-3----3-3-------5-|-0----0-0------||------|
|----------0-0-3---|----------0-0-3---|-----------3-2-||-0----|


  +W           +W           +W           +W
|------------|------------|------------|------------|
|------------|------------|------------|------------|
|------------|------------|------------|------------|
|-(0)--------|-(0)--------|-(0)--------|-(0)--------|


  +W           +H..       S S   E S S E S S E S S E E
|------------|----------------|--------------------------||
|------------|------------9-9-|-9-7-7-7-5-5-5-4-4-4-5----||
|------------|----------------|--------------------------||
|-(0)--------|-(0)------------|--------------------------||


   Bridge
    E E E E Q  E E   E E E E E Q.
||-----------------|----------------|
||o----------------|---------5-4----|
||o-5-7-----7------|-5-7------------|
||------0-0----0-0-|-----0-0--------|


  E E E E Q.   S S   E S S E S S E S S E E
|------------------|---------------------4--|
|--------------9-9-|-9-7-7-7-5-5-5-4-4-4----|
|---5---5-5--------|------------------------|
|------------------|------------------------|


  E E E E Q  E E   E E E E E Q    E   E E E E Q.   S S   E S S E S S E S S E E
|----------------|------------------|------------------|-----------------------|
|----------------|---------5-4--/12-|--------------9-9-|-9-7-7-7-5-5-5-4-4-4-5-|
|-5-7-----7------|-5-7--------------|---5---5-5--------|-----------------------|
|-----0-0----0-0-|-----0-0----------|------------------|-----------------------|


  1.
  E E E E Q  E E   E E E E E E   Q    E E E E Q.   S S   E S S E S S E S S E E
|----------------|------------------|------------------|---------------------4-|
|----------------|---------5-4-/12--|--------------9-9-|-9-7-7-7-5-5-5-4-4-4---|
|-5-7-----7------|-5-7--------------|---5---5-5--------|-----------------------|
|-----0-0----0-0-|-----0-0----------|------------------|-----------------------|


  E E E E Q  E E   E E E E E Q    E
|----------------|------------------|
|----------------|---------5-4--/12-|
|-5-7-----7------|-5-7--------------|
|-----0-0----0-0-|-----0-0----------|


  E E E E Q.   S S   E S S E S S E S S E E
|------------------|---------------------4--||
|--------------9-9-|-9-7-7-7-5-5-5-4-4-4---o||
|---5---5-5--------|-----------------------o||
|------------------|------------------------||


  2.
  E E E E H      E E E E E Q.     E E E E Q.   S S   E S S E S S E S S E E
|--------------|----------------|------------------|---------------------4-|
|--------------|----------------|--------------9-9-|-9-7-7-7-5-5-5-4-4-4---|
|---------7----|----------------|---------5--------|-----------------------|
|-0-0-0-0------|-0-0-0-0-3-2----|-0-0-0-0----------|-----------------------|


  E E E E H      E E E E E Q.     E E E E Q.   S S   E S S E S S E S S E E
|--------------|----------------|------------------|-----------------------||
|--------------|----------------|--------------9-9-|-9-7-7-7-5-5-5-4-4-4-5-||
|---------7----|----------------|---------5--------|-----------------------||
|-0-0-0-0------|-0-0-0-0-3-2----|-0-0-0-0----------|-----------------------||


    Q.   E +Q   Q    +E  Q.   E E E E   Q.   E +Q   Q    +E  Q.   E E E E
||-----------------|------------------|----------------|------------------|
||o----------------|------------------|----------------|------------------|
||o-2----2-(2)--2--|-(2)-2----4-2-0---|-0----0-(0)--0--|-(0)-0----0-0-0-0-|
||-----------------|----------------2-|----------------|------------------|


  Q.   E +Q   E E   +E  E E E E E E E   Q.   E +Q   Q    E Q.   E E E E
|-----------------|-------------------|----------------|------------------||
|-----------------|-------------------|----------------|------------2-2--o||
|-----------------|-------------------|-0----0-(0)--0--|-0-0----0-0------o||
|-3----3-(3)--3-3-|-(3)-3-3-3-3-3-3-3-|----------------|------------------||


    Q.   E +Q   Q    E Q  E E E E E   E E E E +Q   E E   E Q  E E E E E
||-----------------|----------------|------------------|----------------|
||o----------------|----------------|------------------|----------------|
||o-2----2-(2)--2--|-2-2--2-4-2-0---|-0-0-0-0-(0)--0-0-|-0-0--0-0-0-0-0-|
||-----------------|--------------2-|------------------|----------------|


  E E E E +Q   E E   E Q.   E E E E   Q.   E +Q   E E   E Q.   E E E E
|------------------|----------------|-----------------|------------------||
|------------------|----------------|-----------------|------------2-2--o||
|------------------|----------------|-0----0-(0)--0-0-|-0-0----0-0------o||
|-3-3-3-3-(3)--3-3-|-3-3----3-3-3-3-|-----------------|------------------||


  Q.   E +Q   Q    E Q  E E E E E   E E E E +Q   E E   E Q  E E E E E
|----------------|----------------|------------------|-----------------|
|----------------|----------------|------------------|-----------------|
|-2----2-(2)--2--|-2-2--2-4-2-0---|-0-0-0-0-(0)--0-0-|-0-0--0-0-0-0-0--|
|----------------|--------------2-|------------------|-----------------|


  E E E E +Q   E E   E Q.   E E E E   Q.   E +Q   E E   E Q.   E E E E
|------------------|----------------|-----------------|-----------------|
|------------------|----------------|-----------------|------------2-2--|
|------------------|----------------|-----------------|-----------------|
|-3-3-3-3-(3)--3-3-|-3-3----3-3-3-3-|-2----2-(2)--2-2-|-2-2----2-2------|


    Q.   E +Q   Q    E Q  E E E E E   E E E E +Q   E E   E Q  E E E E E
||-----------------|----------------|------------------|----------------|
||o----------------|----------------|------------------|----------------|
||o-2----2-(2)--2--|-2-2--2-4-2-0---|-0-0-0-0-(0)--0-0-|-0-0--0-0-0-0-0-|
||-----------------|--------------2-|------------------|----------------|


  E E E E +Q   E E   E Q.   E E E E   Q.   E +Q   E E   E Q.   E E E E
|------------------|----------------|-----------------|------------------||
|------------------|----------------|-----------------|------------2-2--o||
|------------------|----------------|-0----0-(0)--0-0-|-0-0----0-0------o||
|-3-3-3-3-(3)--3-3-|-3-3----3-3-3-3-|-----------------|------------------||

seek and destroy

140 bpm
        cresc.
|  6  |-----------------|-----------------||---------------------|
|-----|-----------------|---------7-7-7---||-o-----5h7-----5h7---|
|-----|-0-0-0-0-0-0-0-0-|-0-0-0-0-------0-||-o-0-0-----0-0-----0-|
|     |-----------------|-----------------||---------------------|
        e e e e e e e e   e e e e e e e e      e e   q e e   e e

                 4 times
|---------------5-----||---------|-------|  3  |-----------|-------------|
|-----------5-----7-o-||---------|-------|-----|-----------|-------------|
|-(0)-0-8-7---7-----o-||---R-----|----R--|-----|-R-----R---|-R-----R-----|
|---------------------||-0---12\-|-\0----|     |---0-0---0-|---0-0---0-0-|
  (e) e e e e e e e      q h q      q h.         q e e q q   q e e q e e

|-----------------|-----------------||-------------------|
|-----------------|-----------------||-o-----------------|
|---------7-7-7-7-|---------7-5-----||-o-----------------|
|-0-0-0-0---------|-0-0-0-0-----7-6-||---0-0-0-0-3-5-3-5-|
  e e e e e e e e   e e e e e e e e      e e e e e e e e

              4 times fig.1
|-------------------||-----------------|-----------------|-----------------|
|-----------------o-||-----------------|-------------5---|-----------------|
|---------7-5-----o-||-----------------|---------------7-|-----------------|
|-0-0-0-0-----7-6---||-0-0-0-0-0-0-0-0-|-0-0-0-0-7-6-----|-0-0-0-0-0-0-0-0-|
  e e e e e e e e      e e e e e e e e   e e e e e e e e   e e e e e e e e

|-----------------|-----------------|-----------------|-----------------|
|-----------------|-----------------|-------------5---|-----------------|
|-----------------|-----7-----------|---------------7-|-----7-------7---|
|-0-0-0-0-7-6-3-0-|-0-0---0-0-0-0-0-|-0-0-0-0-7-6-----|-0-0---0-0-0---0-|
  e e e e e e e e   e e e e e e e e   e e e e e e e e   e e e e e e e e

                   S
          end fig.1  Verse 1,2,3  Pre-chorus
|-----------------||            ||-----------------|----------------|
|-----------------|| play fig.1 ||-o---------------|----------5---7-|
|-----7-----------||            ||-o-3-0-0-0-3-5-3-|-3-0-0-/7---7---|
|-0-0---0-7-6-3-0-||            ||-----------------|----------------|
  e e e e e e e e                    e e e e e e q   e e e  e e e q

                |1.                  |2.
|---------------|-7-5---------------||-9-7---7---------|-----------------|
|---------------|-----7-6-5-------o-||-----9---9-8-7-5-|-----------------|
|-0-0-0-0-3-5-3-|-----------7-6-5-o-||-----------------|-7-5---5---------|
|---------------|-------------------||-----------------|-----7---7-6-5-3-|
  e e e e e e q   e e e e e e e e      e e e e e e e e   e e e e e e e e

Chorus                                           |1.
||-------------------|---------|-----------------|---------------------||
||-o---------------5-|---------|-----------------|-------------------o-||
||-o-----------------|---------|-----------------|-------5---7---7---o-||
||---3-3-3-3-3-3-3---|-2-2-1-1-|-0-0-0-0-0-0-0-0-|-0-5-7---0---0---0---||
     e e e e e s s q   q q q q   e e e e e e e e   e s s e e e e e e

|2. 3rd time fill 1  |3.        to coda I,II|4.
|-------------------||---------------------||-----------------|
|-----------------o-||-------------------o-||-----------------|
|-7-5-------------o-||-------5---7---7---o-||-----------------|
|-----7-6-5-7-6-5---||-0-5-7---0---0---0---||-0-0-0-0-3-5-3-5-|
  e e e e e e e e      e s s e e e e e e      e e e e e e e e
      fill 1
   |-----------------|
   |-----------------|
   |-7-5-------------|
   |-----7-5-6-5-7-5-|
     e e e e e e e e

|-----------------|-----------------|-----------------|-----------------|
|-----------------|-----------------|-----------------|-----------------|
|---------7-5-----|-----------------|-----------5-6-7-|-----------------|
|-0-0-0-0-----7-6-|-0-0-0-0-3-5-3-5-|-0-3-5-6-7-------|-0-0-0-0-3-5-3-5-|
  e e e e e e e e   e e e e e e e e   e e e e e e e e   e e e e e e e e

                                                D.S al coda I
|-----------------|-----------------|-----------------||
|-----------------|-----------------|-----------------||
|---------7-5-----|-----------------|---------7-5-----||
|-0-0-0-0-----7-6-|-0-0-0-0-3-5-3-5-|-0-0-0-0-----7-6-||
  e e e e e e e e   e e e e e e e e   e e e e e e e e

Coda I                          208 bpm        (guitar)
|-----------------|---------|---||------|  3  ||  7  |-----------------||
|---------------5-|---------|---||------|-----||-----|-------3-2-0-----||
|-----------------|---------|---||---R--|-----||-----|-3-2-0-------3-0-||
|-3-3-3-3-3-3-3---|-2-2-1-1-|-0-||-0----|     ||     |-----------------||
  e e e e e s s q   q q q q   w    q h.                e e e e e e e e

                                                             2 times
||-------------------|-----------------|-----|-------------------||
||-o-------7-----7---|-------7-----7---|  %  |-------3-2-0-----o-||
||-o-----0---0-0---0-|-0-0-0---0-0---0-|-----|-3-2-0-------3-0-o-||
||---3h5-------------|-----------------|-----|-------------------||
     e e e e e e e e   e e e e e e e e         e e e e e e e e

Guitar solo                                                 3 times
||-------------|---------|-----------------|-------------------||
||-o-----------|---------|-----------------|-----------------o-||
||-o-----------|---------|-----7-7-----7-7-|-----7-7-----7-7-o-||
||---3-3-3-3-3-|-2-2-1-1-|-0-0-----0-0-----|-0-0-----0-0-------||
     q q e e q   q q q q   e e e e e e e e   e e e e e e e e

|-----------|---------||-------------------|-----------------|
|-----------|---------||-o-----------------|-----------------|
|-----------|---------||-o-5h7---7-----7---|-5h7---7-----7---|
|-3-3-3-3-3-|-2-2-1-1-||-------0---0-0---0-|-----0---0-0---0-|
  q q e e q   q q q q      e e e e e e e e   e e e e e e e e

                  |1,2,3.              |4.
|-----------------|-------------------||-----------------|-----------------|
|-----------------|-----------------o-||-----------------|-----------------|
|-4h7---7-----7---|-------3-2-0-----o-||-------3-2-0-----|-------3-2-0-----|
|-----0---0-0---0-|-3-2-0-------3-0---||-3-2-0-------3-2-|-3-2-0-------3-2-|
  e e e e e e e e   e e e e e e e e      e e e e e e e e   e e e e e e e e

      Tempo I
|----||------|--------|------|--------|------|---|-----------------|
|----||---R--|-R------|---R--|-R------|---R--|-R-|-----------------|
|-0--||-0----|----0-0-|-0----|----0-0-|-0----|---|-0-0-0-0-0-0-0-0-|
|----||------|--------|------|--------|------|---|-----------------|
  l     q h.   h. e e   q h.   h. e e   q h.   w   e e e e e e e e

                                                           4 times
|-----------------||---------------------|---------------5-----||
|-----7---7-7-----||-o-----5h7-----5h7---|-----------5-----7-o-||
|-0-0---0-----0-0-||-o-0-0-----0-0-----0-|-(0)-0-8-7---7-----o-||
|-----------------||---------------------|---------------------||
  e e e e e e e e      e e   q e e   e e   (e) e e e e e e e

|---------|-----------------|-----------------|-----------------|
|---------|-----------------|-----------------|-----------------|
|---R-----|-----------------|---------7-5-----|-----------------|
|-0---12\-|-0-0-0-0-3-5-3-5-|-0-0-0-0-----7-6-|-0-0-0-0-3-5-3-5-|
  q h q     e e e e e e e e   e e e e e e e e   e e e e e e e e

|-----------------|-----------------|-----------------|-----------------|
|-----------------|-----------------|-----------------|-----------------|
|-----------5-6-7-|-----------------|---------7-5-----|-----------------|
|-0-3-5-6-7-------|-0-0-0-0-3-5-3-5-|-0-0-0-0-----7-6-|-0-0-0-0-3-5-3-5-|
  e e e e e e e e   e e e e e e e e   e e e e e e e e   e e e e e e e e

                D.S al coda II
|-------------------||
|-------------------||
|-------5---7-5-----||
|-0-5h7---7-----7-6-||
  e s s e e e e e e

Coda II
|-----------------|---------|-----------------|------------------|
|---------------5-|---------|-----------------|------------------|
|-----------------|---------|-----------------|---------------10-|
|-3-3-3-3-3-3-3---|-2-2-1-1-|-0-0-0-0-0-0-0-0-|-0-0-0-0-0-0-0----|
  e e e e e s s q   q q q q   e e e e e e e e   e e e e e e e e

|-----------------|------------------|-----------------|------------------|
|-----------------|------------------|-----------------|------------------|
|-9-----9-8-----8-|-7-------------10-|-9-----9-5-----5-|-7---5---7-7-7-10-|
|---0-0-----0-0---|---0-0-0-0-0-0----|---0-0-----0-0---|---0---0----------|
  e e e e e e e e   e e e e e e e e    e e e e e e e e   e e e e e e e e

|-----------------|------------------|-----------------|----------------|
|-----------------|------------------|-----------------|----------------|
|-9-----9-8-----8-|-7-------------10-|-9-----9-5-----5-|-7---5---7-7-7\-|
|---0-0-----0-0---|---0-0-0-0-0-0----|---0-0-----0-0---|---0---0--------|
  e e e e e e e e   e e e e e e e e    e e e e e e e e   e e e e e e q

                     |1-7.                |8. 5/4               4/4
||-------------------|-------------------||---------------------|------|
||-o-----------------|-----------------o-||---------------------|------|
||-o-----------------|-----------------o-||---------------------|---R--|
||---0-0-0-0-0-3-0-0-|-2-0-0-3-0-0-5-3---||-2-0-0-3-0-0-5-3-0-0-|-0----|
     e e e e e e e e   e e e e e e e e      e e e e e e e e e e   q h.

|------|------|-------------||
|------|------|-----------R-||
|---R--|---R--|---------7---||
|-0----|-0----|-0-0-0-0-----||
  q h.   q h.   e e e e q q


...and justice for all

Bass Riff1
|-----------------------------|
|-----------------------------|
|--2-2-2-2-2-2-1-1-1-1-1-0-1--|
|-----------------------------|

Bass Riff2
|------------------------------------------------4-------------3----|
|-----------------------7--------------------4---------------3------|
|--7-7-7--7-5h7-5-5-5-5---5-3-3-3--3-3h5-2-2---2---2-1-1-3-1-----1--|
|-------------------------------------------------------------------|

Bass Riff3
|----------------------------------------------------------------|
|-----------------------------------------------------------3-2--|
|---------------------------------------------------------0------|
|---6----6-5----6-5-4----6-5-4-3----6-5-3-1-5-3-1-0-3-1-0--------|

Bass Riff3 (cont.)
|---------------------------------|
|---------------------------------|
|--3--2--0-----2-0-----0----------|
|-----------3------3-2---3-2-1-0--|

Bass Riff4
|---------------------------------------------------------------|
|---------------------------------------------------------------|
|-----------------------5h7--7-5------------------5h7--7-5------|
|--6--6--5---6--6--5--0------------7---6--6--5--0------------7--|

Bass Riff5
|-------------------------------------------------------------------------|
|-------------------------------------------------------------------------|
|-------------------------7------7-----------------------0----------0-----|
|--6--6--5---6--6--5---0------0------0--0---2--3--0---0------3--5------0--|

Bass Riff5 (cont.)
|----------------------------------------------------------------------|
|----------------------------------------------------------------------|
|------0-0-----0-0-----7------7-----------------------0----------0-----|
|--0-3-----0-3------0------0------0--0---2--3--0---0------3--5------0--|

Bass Riff5 (cont.)
|---------------------|
|---------------------|
|--------0---8--8--7--|
|--0--3---------------|

Bass Riff6
|----------------------------------------------------------------|
|----------------------------------------------------------------|
|----5h7--7-5------------------5h7--7-5--------------------------|
|--0------------7---6--6--5--0------------7---6--6--5---6--6--5--|

Bass Riff6 (cont.)
|----------------------------------------------------------------|
|----------------------------------------------------------------|
|----5h7--7-5------------------5h7--7-5--------------------------|
|--0------------7---6--6--5--0------------7---6--6--5---3--3--2--|

Bass Riff7
|-----------------------------------------------------------|
|-----------------------------------------------------------|
|----7----7--7---------------7----7--7----------------------|
|--0----0----0---0--0--1---0----0----0---6--6--5---6--6--5--|

Bass Riff8
|--------------------------|
|--------------------------|
|-----7--7--------5--5-----|
|--0--------0--0--------3--|

Bass Riff9
|-----------------------------------|
|-----------------------------------|
|-----------------------------------|
|--2---2-2-2-2-2-2-3-2-0-2h3---2h3--|

Bass Riff10
|-------------------|
|-------------------|
|-------------------|
|--2---2-2-2-2-2-2--|

Bass Riff11
|------------------------------|
|--5---------------------------|
|----------3--3-----------5h7--|
|---------------------5h7------|

Bass Riff12
|----------------------------------------------------------------|
|----------------------------------------------------------------|
|--7-------------------------------------------------------------|
|--0---0-0-0-0-0-0--1-0-0-0h1---0h1---5---5-5-3-5-7---7-7-5-7-8--|

Bass Riff12 (cont.)
|---------------------------------------------------------------------|
|---------------------------------------------------------------------|
|----------------------------------------------------------------7-8--|
|--7-5-3-1--0---0-0-0-0-0-0--1-0-0-0h1---0h1---5--5-5-3-5-7--10-------|

Bass Riff12 (cont.)
|----------------------------------------------------------------|
|----------------------------------------------------------------|
|--7-------------------------------------------------------------|
|--0---0-0-0-0-0-0--1-0-0-0h1---0h1---5---5-5-3-5-7---7-7-8-7-5--|

Bass Riff12 (cont.)
|-------------------------------------------------------|
|-------------------------------------------------------|
|----------5--3--3-3-2----------------------------------|
|--3-3-5-3-------------3-2-1----1----6--6--5---6--6--5--|

Bass Riff13
|----------------------------------------------------------------|
|----------------------------------------------------------------|
|----5h7--7-5------------------5h7--7-5--------------------------|
|--0------------7---6--6--5--0------------7---6--6--5---6--6--5--|

Bass Riff13 (cont.)
|--------------------------------------------|
|--------------------------------------------|
|----5h7--7-5------------------5h7--7-5------|
|--0------------7---6--6--5--0------------7--|

Bass Riff14
|------------------------------------|
|------------------------------------|
|------------------------------------|
|--0---0-0-0-0-0-0--1-0-0-0h1---0h1--|

Bass Riff15
|---------------------|
|---------------------|
|--3--3--2---3--3--2--|
|---------------------|

Bass Riff16
|----------------------|
|----------------------|
|----------------------|
|--0-2--0-2--2--0-2-3--|

Bass Riff17
|-----------------------------------------------------|
|-----------------------------------------------------|
|-----5--5--------3--3--------4--4--------2--2--------|
|--0--------3--0--------1--0--------2--0--------0--0--|

Bass Riff18
|-------------------------------------------------------------|
|----------------------------------------------------------4--|
|------------------------------------------------4------------|
|--5--5--3---5--5--3---3--3--2---3--3--2---2--2------2--2-----|

Bass Riff18 (cont.)
|--------------------|
|--------3-----------|
|--------------3-----|
|--1--1-----1-----1--|

Bass Riff19
|----------------------------------------------------4-------------3----|
|--------------9-----------7---------------5-----4---------------3------|
|--7-----9-7-7---5-----7-5---5-3-----5-3-3---2-2---2---2-1-1-3-1-----1--|
|----0-0-----------0-0-----------0-0------------------------------------|

Bass Riff19 (cont.)
|------------3-----------------------------------------------------------|
|------3---3-------------------------------------------------------------|
|--1-1---1-----1---7------7---5------5---3------3---2------2---1------1--|
|------------------0--x-x-0------x-x--------x-x--------x-x--------x-x----|

Bass Riff19 (cont.)
|--------------------------|
|--------------------------|
|--1------1---1------1-----|
|-----x-x--------x-x----0--|

Bass Riff20
|---------------------|
|---------------------|
|---------------------|
|--6--6--5---3--3--2--|

Bass Riff21
|-----------------------------------------------------|
|-----------------------------------------------------|
|-----7------7-----------------------0----------0-----|
|--0------0------0--0---2--3--0---0------3--5------0--|

Bass Riff21 (cont.)
|----------------------------------------------------------------------|
|----------------------------------------------------------------------|
|------0-0-----0-0-----7------7-----------------------0----------0-----|
|--0-3-----0-3------0------0------0--0---2--3--0---0------3--5------0--|

Bass Riff21 (cont.)
|---------------------|
|---------------------|
|--------0---8--8--7--|
|--0--3---------------|

Bass Riff22
|--------------------------------------------------------------------------|
|--------------------------------------------------------------------------|
|-----7------7--7----------------------------------------------------5--3--|
|--0------0-----0---0--2--3--0---5---5-5-3-5-7---7-7-8-7-5-3---3-5-3-------|

Bass Riff22 (cont.)
|--------------------------------------------|
|--------------------------------------------|
|--3--3--2-----------------------------------|
|------------3--2--1------6--6--5---6--6--5--|

Bass Riff23
|----------------9------------------------------|
|--9-------9----------------------------12------|
|--7----------7-----7--12-------12--------------|
|----------------------10-----------10------10--|

Bass Riff24
|---------------------------------------|
|----------------9-----7----------------|
|--9-------9-----------0----------------|
|--7----------7-----7----------3--3--2--|

Bass Riff25
|------------------------------------------------------|
|-------------------7----------------------------------|
|--9----------------0----------------------------------|
|--7-------6--6--5----------3--3--2-----------3--3--0--|

How it goes:
Bass Riff1 x 2
Bass Riff2 x 2
Bass Riff3 x 1
Let last note ring during drum bit
Bass Riff4 x 4
Bass Riff5 x 1
Bass Riff6 x 1
Bass Riff7 x 6
Bass Riff8 x 1
Bass Riff9 x 3
Bass Riff10 x 1
Pause for quick guitar bit
Bass Riff9 x 3
Bass Riff10 x 1 (No pause after here)
Bass Riff11 x 1
Bass Riff12 x 1
Bass Riff6 x 1
Bass Riff7 x 6
Bass Riff8 x 1
Bass Riff9 x 3
Bass Riff10 x 1
Pause for quick guitar bit
Bass Riff9 x 3
Bass Riff 10 x 1 (No pause after here)
Bass Riff11 x 1
Bass Riff12 x 1
Bass Riff13 x 1
Bass Riff3 x 1
Bass Riff14 x 3
Pause for quick guitar bit
Bass Riff14 x 3
Pause for quick guitar bit
Bass Riff15 x 1
Bass Riff16 x 3
Bass Riff15 x 1
Bass Riff16 x 3
Bass Riff15 x 1
Bass Riff8 x 2
Bass Riff17 x 1
Bass Riff7 x 4
Bass Riff18 x 1
Bass Riff2 x 4
Bass Riff19 x 1
Let last note ring during drum bit
Bass Riff4 x 2
Bass Riff20 x 1
Bass Riff7 x 4
Bass Riff8 x 2
Bass Riff9 x 3
Bass Riff10 x 1
Pause for quick guitar bit
Bass Riff9 x 3
Bass Riff10 x 1 (No pause after here)
Bass Riff11 x 1
Bass Riff12 x 1
Bass Riff21 x 1
Bass Riff22 x 1
Bass Riff21 x 1
Bass Riff23 x 1
Bass Riff24 x 1
Bass Riff23 x 1
Bass Riff25 x 1

One

|----------|------------|------|------------|-----------------||----4-------|
|----------|------------|------|------------|-----------------||------------|
|----------|------------|------|------------|---2---2---2---2-||-2----2-3-2-|
|----------|------------|------|------------|-----------------||------------|


|------------|----4---------|------------|
|------------|--------------|------------|
|------------|-2----2-2h3-2-|------------|
|-3----3-0-2-|--------------|-3----3-0-2-|


  
|----4---------|---------------|---------------|
|--------------|--------7-5----|---------------|
|-2----2-2h3-2-|-0----0-----7-|---------------|
|--------------|---------------|-3----3-0-2-3--|


|------------|------------||-------7-------|
|------------|------------||---7-----------|
|----------4-|----5-----7-||-5---5---/7----|
|-0----0-2---|-3----3-5---||------------8--|


|------------|------------|--------------|
|----5-------|----3---3---|-----2---2----|
|------------|------------|---2---2---2/-|
|-3----3-5-3-|-1----1---1-|-0------------|


   
|--------7-------|------------|------------|
|----7-----------|----4-------|----3---3---|
|-/5---5---/7----|------------|------------|
|-------------8--|-3----3-5-3-|-1----1---1-|


                 1st, 2nd Verses
  
|-------------||-------4-----|-------------|
|-------------||o------------|-------------|
|--------2h3--||o-2------3-2-|-------------|
|-0----0------||-------------|-2----3-0-2--|



|---4--------|-------------|--------------|---------------|--------------|
|------------|-------------|--------------|--------7-5----|--------------|
|-2----2-3-2-|--------2h5--|-2----2-2h3-2-|-0----0-----7--|--------------|
|------------|-3--3-0------|--------------|---------------|-3----3-0-2-3-|



|-------------|------4-----|------------|--------------|--------------|
|-------------|------------|------------|--------------|--------------|
|---2-----2---|-2------3-2-|------------|-2----2-2h3-2-|--------0-2h5-|
|-0-----2-----|------------|-2----3-0-2-|--------------|-3----3-------|



  
|--------------|---------------|--------------|--------||---------------------|
|--------------|--------7-5----|--------------|--------||---------------------|
|-2----2-2h3-2-|-0----0-----7--|--------------|--------||--------2-------2----|
|--------------|---------------|-3----3-0-2-3-|-0--2-0-||-3----5---5-3-2------|



|-----------------------||--------------|
|-----------------5---6-||-----7--------|
|------2-4-2----3---4---||--5----5s7----|
|-5----------5----------||-----------8--|


 
|------------|------------|-------------|
|----5-------|----3---3---|-----2---2---|
|------------|------------|---2---2---2-|
|-3----3-5-3-|-1----1---1-|-0-----------|


  
|-------7-------|-------------|------------|--------------||-------7--------|
|---7-----------|-----5-------|----3---3---|-------------o||---7------------|
|-5---5---/7----|-------------|------------|--------2h3--o||-5---5---/7-----|
|------------8--|-3----3-5-3--|-1----1---1-|-0----0-------||------------8---|


  
|------------|------------|-------------|-------7-------|
|----5-------|----3---3---|-----2---2---|---7-----------|
|------------|------------|---2---2---2-|-5---5---/7----|
|-3----3-5-3-|-1----1---1-|-0-----------|------------8--|


  
|------------|------------|---------------|
|----5-------|----3---3---|-----2---2-----|
|------------|------------|---2---2---2---|
|-3----3-5-3-|-1----1---1-|-0-------------|



|---------------------|---------------------|---------------------|
|---------------------|---------------------|---------------------|
|--------2---------3--|------2-4-2----2--4--|--------2---------2--|
|-3----3---5-3--3-----|-3----------5--------|-3----3---5-3--2-----|


  
|---------------------|-----------------------||
|---------------------|-----------------------||
|------2-4-2----2--4--|--------2---------2----||
|-5----------5--------|-3----5---5-3--2-------||



|------------|-------------|------------|------------|-------------|
|------------|-------------|------------|------------|-------------|
|----5-----5-|-------5-----|-2--2---2---|-3--3---3---|-----5---5---|
|-5----5-5---|-3-3-3---3-0-|------0---0-|------1---0-|-5-5---5---5-|


  
|-------------|------------|---------------|-------------|-------------|
|-------------|------------|---------------|-----7-------|-------------|
|-------------|-2--2---2-0-|-3-3-3-3---3---|---5---5-----|-------5-----|
|-3-3-3-5-3-0-|------0-----|---------1---0-|-5-------5-0-|-3-3-3---3-0-|


 
|------------|-------------|-------------|-------------|-------------|
|------------|-------------|-----7-------|-------------|-------------|
|-2--2---2---|-3-3-3---3---|---5---5-----|-------------|-2--2---2-0--|
|------0---0-|-------1---0-|-5-------5-0-|-3-3-3-5-3-0-|------0------|


 
|--------------|-------------|-------------|------------|--------------|
|--------------|-------7-----|-------7-----|------------|--------------|
|-3-3-3-3---3/-|-7-7-7---7-0-|-5-5-5---5---|-2------2-0-|-3-3-3---3/---|
|---------1----|-------------|-------------|------0-----|-------1------|


      
|--------------|-------------|------------|---------------|----------|--------||
|--------7-----|-------7-----|------------|---------------|----------|--------||
|-/7-7-7---7-0-|-5-5-5---5---|-2--2-0-2-0-|-3-3-3-3---3---|-7--------|-(7)----||
|--------------|-------------|------------|---------1---0-|-0--------|-(0)----||


 
|---------------------------------|
|---------------------------------|
|-------------7---------------7---|
|-0-0-0-0-0-0-0---0-0-0-0-0-0-0---|


  
|---------------------------------|--------------------------------||
|---------------------------------|--------------------------------||
|-------------7---------------7---|-------------7--------------7---||
|-0-0-0-0-0-0-0---0-0-0-0-0-0-0---|-0-0-0-0-0-0-0--0-0-0-0-0-0-0---||


    
||----------------------------------||-|
||o--------------------------------o||-|
||o-------------7------------------o||-|
||--0-0-0-0-0-0-0--0-0-0-0-0-0-0-1--||-|



||----------------------------------|-----------------------------------|
||o---------------------------------|-----------------------------------|
||o-------------7---------------7---|-------------7---------------7-----|
||--0-0-0-0-0-0-0---0-0-0-0-0-0-0---|-0-0-0-0-0-0-0---0-0-0-0-0-0-0-----|


  
|---------------------------------|
|---------------------------------|
|-------------7---------------7---|
|-0-0-0-0-0-0-0---0-0-0-0-0-0-0---|


                                  
|---------------------------------|--------------------------------|
|---------------------------------|--------------------------------|
|-------------7-------------------|-------------7--------------7s8-|
|-0-0-0-0-0-0-0---0-0-0-0-0-0-0-1-|-0-0-0-0-0-0----0-0-0-0-0-0-----|


    
|--------------------------------|--------------------------------|
|--------------------------------|--------------------------------|
|-------------5--------------5s8-|-------------7--------------7s8-|
|-0-0-0-0-0-0----0-0-0-0-0-0-----|-0-0-0-0-0-0----0-0-0-0-0-0-----|



|---------------------------------||
|--------------------------------o||
|-------------5--------------2---o||
|-0-0-0-0-0-0----0-0-0-0-0-0---1--||


    
||-----------------------|-------------------|
||o----------------------|-------------------|
||o-------------2--------|-------2--------3--|
||--0-0-0-0-0-0----0-0-0-|-0-0-0----0-0-0----|


  
|----------------------|--------------------|
|----------------------|--------------------|
|-------------2--------|-------2--------3---|
|-0-0-0-0-0-0----0-0-0-|-0-0-0----0-0-0-----|



|----------------------|-------------------|
|----------------------|-------------------|
|-------------2--------|-------2--------3--|
|-0-0-0-0-0-0----0-0-0-|-0-0-0----0-0-0----|



|----------------------|---------------------|
|----------------------|---------------------|
|-------------2--------|-------2--------3----|
|-0-0-0-0-0-0----0-0-0-|-0-0-0----0-0-0------|


 
|-----------------------|-----------------------|------------------------||
|-----------------------|-----------------------|-----------------------o||
|-7-7-7-7-7-7-7---7-7-7-|-7-7-7-7-7-7-7---7-7-7-|-7-7-7-7-7-7-7---7-7-7-o||
|-0-0-0-0-0-0-0---0-0-0-|-0-0-0-0-0-0-0---0-0-0-|-0-0-0-0-0-0-0---0-0-0--||


   Guitar Solo lardey dar dey dar
    4x
||-----------------------|--------------------||-|
||o----------------------|-------------------o||-|
||o-------------2--------|-------2--------3--o||-|
||--0-0-0-0-0-0----0-0-0-|-0-0-0----0-0-0-----||-|


    
||------------------------|-----------------------||
||o-----------------------|----------------------o||
||o-7-7-7-7-7-7-7---7-7-7-|-7-7-7-7-7-7-7---7-7-7o||
||--0-0-0-0-0-0-0---0-0-0-|-0-0-0-0-0-0-0---0-0-0-||


  
||--------------------|-------------------|
||o-------------------|-------------------|
||o-------------7--7--|-------------7--7--|
||--0-0-0-0-0-0-0--0--|-0-0-0-0-0-0-0--0--|


  
|-------------------|--------------------||
|-------------------|-------------------o||
|-------------------|-------------------o||
|-0-0-0-0-0-0-0--1--|-3-3-3-3-3-3-3--3---||


    
||--------------------|-------------------|
||o-------------------|-------------------|
||o-------------5--5--|-------------5--5--|
||--3-3-3-3-3-3-------|-3-3-3-3-3-3-------|



|-------------------|--------------------||
|-------------------|-------------------o||
|-------------5--5--|-------------------o||
|-3-3-3-3-3-3-------|-1-1-1-1-1-1-1--1---||


     
||----------------|---------------|-------------------|-------------------||
||o---------------|---------------|-------------------|------------------o||
||o---------------|---------------|-------------------|------------------o||
||--0-0-3--0-0-3--|-0-0-3--0-0-3--|-1-1-1-1-1-1-1--1--|-1-1-1-1-1-1-1--1--||



|-----------------------|-------------------------|
|-----------------------|-------------------------|
|-----------------5-5-5-|-5-5-5-4-4-4-3-3-3-2-2-2-|
|-3-3-3-3-3-3-3---------|-------------------------|


    4x
||-----------------------|--------------------||
||o----------------------|-------------------o||
||o-------------2--------|-------2--------3--o||
||--0-0-0-0-0-0----0-0-0-|-0-0-0----0-0-0-----||



|-----------------------|-------------------------|
|-----------------------|-------------------------|
|-7-7-7-7-7-7-7---5-5-5-|-5-5-5-4-4-4-3-3-3-2-2-2-|
|-----------------------|-------------------------|


   4x
||-----------------------|--------------------||
||o----------------------|-------------------o||
||o-------------2--------|-------2--------3--o||
||--0-0-0-0-0-0----0-0-0-|-0-0-0----0-0-0-----||


  
|---------------|---------------|---------------|
|---------------|---------------|---------------|
|---------------|---------------|---------------|
|-0-0-3--0-0-3--|-0-0-3--0-0-3--|-0-0-3--0-0-3--|



||--------------------|-----------------||
||o-------------------|----------------o||
||o-------------7--7--|----------------o||
||--0-0-0-0-0-0-0--0--|-1-1-1--1-1-1----||



|---------------|---------------|----------------------|
|---------------|---------------|----------------------|
|---------------|---------------|-------------2--------|
|-3-3-3--3-3-3--|-3-3-3--3-3-3--|-0-0-0-0-0-0----0-0-0-|


 

|-------------------|--------------------------|--------------------*|
|-------------------|--------------------------|--------------------*|
|-------2--------3--|-7-7-7-7-7-7-7---19-19-19-|-19-19-19-19--------*|
|-0-0-0----0-0-0----|-0-0-0-0-0-0-0----0--0--0-|--0--0--0--0--------*|

creeping death

Time 4/4
beat 184    

Intro:

|Fig.1
|--------------------------------|--------------------------------|
|*-------------------------------|--------------------------------|
|*------------------------7------|(7)-----------------------------|
|-0---0---0---0---0--------------|--------------------------------|

                                                         end Fig.1|
|--------------------------------|--------------------------------|
|--------------------------------|-------------------------------*|
|-------------------------7---5--|(5)----------------------------*|
|-0---0---0---0---0--------------|--------------------------------|

|Fig.1A
|--------------------------------|--------------------------------|
|*-------------------------------|--------------------------------|
|*------------------------7------|(7)--------------7--------------|
|-0---0---0---0---0--------------|--------------------------------|

                                                        end Fig.1A|
|--------------------------------|--------------------------------|
|--------------------------------|-------------------------------*|
|-------------------------7---5--|(5)--------------5-------------*|
|-0---0---0---0---0--------------|--------------------------------|

|--------------------------------|--------------------------------|
|--------------------------------|--------------------------------|
|--------------------------------|--------------------------------|
|---------5-------3-------2------|-0------------------------------|

|--------------------------------|--------------------16--17--16-|
|------------- x 6 --------------|--------------------------------|
|--------------------------------|--------------------------------|
|--------------------------------|--------------------------------|

|Fig.2                                                   end Fig.2|
|--------------------------------|--------------------------------|
|*-------------------------------|-------------------------------*|x 4
|*-------------------------------|-----------------2---3---2---0-*|
|-0---0---0---0---0---0---0---0--|-0---0---0---0------------------|

|Fig.3                                                   end Fig.3|
|--------------------------------|--------------------------------|
|*-------------------------------|-------------------------------*|x 4
|*-------------------------------|-------------------------------*|
|-0---0---3-------0---0---3------|-0---0---2---2---2---2---2---2--|

|--------------------------------|--------------------------------|
|*-------------------------------|-------------------------------*|
|*-------------------------------|-----------------2---3---2---0-*|
|-0---0---0---0---0---0---0---0--|-0---0---0---0------------------|

|Fig.4                                                   
|--------------------------------|--------------------------------|
|--------------------------------|--------------------------------|
|---------7---------------7------|-----7---5-----------7---5---7--|
|-0---------------0---0-------0--|(0)-----------------------------|

                                                         end Fig.4|
|--------------------------------|--------------------------------|
|--------------------------------|--------------------------------|
|-5---7---5-------4-------0------|-2-------2-------4--------------|
|--------------------------------|-------------------------2------|

Verse 1, 2, 3:

   Repeat Fig.2 x 8
   Repeat Fig.3 x 4

Chorus:

|Fig.5
|--------------------------------|--------------------------------|
|--------------------------------|--------------------------------|
|--------------------------------|---------------------3-------5--|
|-0-------0-------0---0---0---0--|(0)--0---0---0---0--------------|

|--------------------------------|--------------------------------|
|--------------------------------|--------------------------------|
|(5)------5-------5---5---5---5--|-5---5---5---5---8-------8------|
|--------------------------------|--------------------------------|

|--------------------------------|--------------------------------|
|--------------------------------|--------------------------------|
|-7-------7-------7---7---7---7--|(7)--7---7---7---7---3-------5--|
|--------------------------------|--------------------------------|

|--------------------------------|--------------------------------|
|--------------------------------|--------------------------------|
|(5)------5-------5---5---5---5--|--------------------------------|
|--------------------------------|-1---1---1---1---3---3---3-----|

|--------------------------------|--------------------------------|
|--------------------------------|--------------------------------|
|--------------------------------|---------------------3-------5--|
|-0-------0-------0---0---0---0--|(0)--0---0---0---0--------------|

|--------------------------------|--------------------------------|
|--------------------------------|--------------------------------|
|(5)------5-------5---5---5---5--|-5---5---5---5---8-------8------|
|--------------------------------|--------------------------------|

|--------------------------------|--------------------------------|
|--------------------------------|--------------------------------|
|-7-------7-------7---7---7---7--|(7)--7---7---7---7---3-------5--|
|--------------------------------|--------------------------------|

                                                         end Fig.5|
|--------------------------------|--------------------------------|3rd	
|--------------------------------|--------------------------------|Time
|(5)------5---5---5---5---5---5--|-5-------2-------4--------------|to 
|--------------------------------|-------------------------2------|Coda

Repeat Fig.2 x 2
Repeat Fig.4

Guitar Solo:
|--------------------------------|--------------------------------|
|*-------------------------------|--------------------------------|
|*-------------------------------|-----------------2---3---2---0--|
|-0---0---0---0---0---0---0---0--|-0---0---0---0------------------|

|--------------------------------|--------------------------------|
|--------------------------------|-------------------------------*|x 4
|-0---0---0---0---0---0---0---0--|-0---0---0---0---0-------3-----*|
|--------------------------------|--------------------------------|

Repeat Fig.3 x 4
Repeat Fig.5 

|--------------------------------|
|--------------------------------|
|--------------------------------|
|-0------------------------------|

Bridge:
 half-time
|Fig.6
|--------------------------------|--------------------------------|
|*-------------------------------|--------------------------------|
|*----------------7---7---7---7--|-8---8---8-------5--------------|
|-0------------------------------|--------------------------------|

                                                         end Fig.6|
|--------------------------------|--------------------------------|
|--------------------------------|-------------------------------*|x 6
|-7------------------------------|-------------------------------*|
|-----------------0---0---0---0--|-3-------3---3---1-------1------|

Repeat Fig.2 x 2

|--------------------------------|--------------------------------|
|--------------------------------|--------------------------------|
|--------------------------------|-----------------5----------(5)|
|-0------------------------------|-0-----1-----3------------------|

Coda:
|--------------------------------|--------------------------------|
|*----------------------------2--|(2)-----------------------------|
|*----------------------------2--|(2)-----------------------------|
|-0---0---0---0---0---0---0------|---------0---0---0---0---3---2--|

|--------------------------------|--------------------------------|
|-----------------------------3--|(3)----------------------------*|x 6
|-----------------------------3--|(3)------3---3---3---3---5---5-*|
|-0---0---0---0---0---0---0------|--------------------------------|

|--------------------------------|--------------------------------|
|--------------------------------|--------------------------------|
|---------7-------5-------3---2--|(2)-----------------------------|
|-0---0--------------------------|--------------------------------|

|--------------------------------|--------------------------------|
|--------------------------------|--------------------------------|
|(2)------3-------2-------0---3--|(3)-----------------------------|
|--------------------------------|--------------------------------|

|--------------------------------|--------------------------------|
|*-------------------------------|--------------------------------|
|*(3)-----7-------5-------3---2--|(2)-----------------------------|
|--------------------------------|--------------------------------|

                                 1. 2. 3.
|--------------------------------|--------------------------------|
|--------------------------------|-------------------------------*|
|(2)------3-------2-------0---3--|(3)----------------------------*|
|--------------------------------|--------------------------------|

Repeat Fig.1
Repeat Fig.1A
                                
|--------------------------------|--------------------------------|
|--------------------------------|--------------------------------|
|--------------------------------|--------------------------------|
|-----------------5--------------|-3---------------2--------------|

|--------------------------------|--------------------------------|
|--------------------------------|--------------------------------|
|--------------------------------|--------------------------------|
|-0------------------------------|(0)-----------------------------|

|--------------------------------|--------------------------------|
|--------------------------------|--------------------------------|
|--------------------------------|--------------------------------|
|(0)-----------------------------|(0)-----------------------------|

|--------------------------------|--------------------------------|
|--------------------------------|--------------------------------|
|--------------------------------|--------------------------------|
|(0)-----------------------------|(0)----------------------0------|

|--------------------------------:
|--------------------------------:
|--------------------------------:
|-0------------------------------: End.

Battery

tempo=75

Intro
|--------------------||----------------|---------------|----------------|
|--4/4-------12------||:---------------|---------------|----------------|
|------|---pause---|-||----------------|---------------|----------------|
|--------------------||0---0-0-1-------|2---2-2-3------|0---0-0-1-------|

|----------------------||----------------||
|---------------------:||----------------||
|----------------------||----2-----------||
|2---2-2-3---3--3--1-0-||0-------3---2---||

tempo=190

||------------|-----------------|-------------|-------|------|--------------||
||------------|-------3---------|-------------|-------|------|--------------||
||------------|--|---pause---|--|-------------|-------|------|--------------||
||0-----------|-----------------|0-------6-6-5|0------|------|6-5--5---5---5||

                                                   -----------------|
                                                  |1
||----------------|---------------|---------------|----------------||
||:---------------|----------5-5-4|5--------------|---------------:||
||----------------|---------------|---------------|----------------||
||-0-000-000-6-6-5|0-000-000------|--000-000-6-6-5|0-2---3-0-3--4--||

-----------------
|2
|-------------|-----------------|---------------|--------------||
|-------------|-----------------|----5-5-----5-5|----7-7-------||
|-------------|-----7-7------7-7|---------------|------------6-||
|6--5--5--5--5|0--------0--00---|3-------3-33---|5-5-----1-0---||

1st,2nd,3rd Verses
                                                                  X2
||-----------------|--------------|---------------|------------|
||:----------------|-----------554|5--------------|------------|
||-7----7----7-----|7----7----7---|-----7----7----|------------|
||----00---0---66-5|---00---00----|---00---00--665|0--2---303-4|

|---------------|-------------|------------|------------------|
|---------------|----5------55|-----7-7----|------------------|
|------7------77|-------------|---------776|7----7----7-------|
|0----------00--|3-3---22333--|5-5---------|--0-0--0-0---6-6-5|

|--------------|---------------|--------------|--------------|
|-----------554|5--------------|--------------|--------------|
|-7----7---7---|----7---7------|--------------|----7-------7-|
|----00--00----|--00--00--6-6-5|0--2--3-0-3--4|0--------000--|

|---------------|--------------|-------------|------------|
|-----5-5-----55|--------------|5------------|---------554|
|---------------|--------7-7-6-|---7--7------|7----7--7---|
|3--------3-33--|5-5-5-5-------|-00-00--6-6-5|---00-00----|

|----------|-----------|--------------|----------------|
|---------5|-----------|--------------|-----------5-5-4|
|---7------|---2------6|7----7--7-----|-----7---7------|
|0-----7---|3------0---|---00-00-6-6-5|0--00--00-------|

|------------------|-------------|-----------|-----------| 3rd time to Coda
|5--------------8--|-------------|--------554|5----------|
|---7--7----------8|7---7--7-----|7---7--7---|---7--7----|
|-00-00--6-6-5-----|--00-00-6-6-5|--00-00----|-00-00--665|

              -------------------------------------------|-------------|
              |1                                         |2
|-------------|------------|------------|---------------||-------------||
|-------------|------------|-----5-----5|--------------:||-------------||
|1------------|----7-----7-|------------|-------------6-||-------------||
|----1---0----|0-0---0-0---|3-3----3-3--|5-55-5-5-3-0---||0------------||

Interlude
|--------------|--------------|---------------|--------------|
|--------------|--------------|--------5------|5-----5-------|
|-------7------|-------7---7--|---------------|------------2-|
|0--0-0---0---0|0--0-0---0---0|3---3-3---3-3-3|--3-----0-0---|

|---------------|---------------|---------------|----------4||
|---------------|---------------|--------5------|---------5-||
|-------7----7--|--------7---7--|---------------|-----------||
|0--0-0---0---0-|0-----0---0---0|3---3-3---3-3-3|3------3---||
                                                                       X3
||------------------|---------------|--------------|----------------||
||:-----------------|---------------|--------------|--4-5-7-8-8-9--:||
||---------7-----7--|----7-7--------|-------------7|7---------------||
||-0---0-0---0-0---0|0-0-----8-8-7-7|3---3-3-3-0---|----------------||
                                              P

|--------------|------------|--------|--------|-------------||
|--------------|------------|--------|--------|-------------||
|-------7-----7|----------3-|--------|--------|-------------||
|0--0-0---0-0--|0-----3-----|3-------|(3)-----|6--5--5--5--5||

Guitar Solo
||-------------------|------------------|----------------|----------------|
||:------------------|------------------|----------------|----------------|
||-7-----7----7------|------------------|7----7---7------|----------------|
||---0-0--0-0---6-6-5|0--6-6-5--0--6-5-5|--0-0-0-0--6-6-5|0--6-6-5-0-3-3-1|

|-------------------|------------------|--------------------|--------------||
|-------------------|------------------|--------------------|-------------:||
|7-----7-----7------|------------------|7------7-----7------|--------------||
|--0-0---0-0---6-6-5|0--6-6-5--0--6-6-5|---0-0---0-0---6-6-5|6--5--5--5--5-||

|--------------|-----------------|--------------|----------------|
|--------------|----5-5-------5-5|--------------|----4---------4-|
|---7-------7--|-----------------|--------------|----------------|
|0-----0-00---0|3-3--------33----|5---5-5-5-005-|2-2-------2-2---|

|--------------|----------------|----------------|----------------||
|--------------|----5-5------5-5|----------------|----------------||
|---7-------7-7|----------------|----------------|----------------||
|0----0-0-00---|3-3-------33----|5---------------|--------------2-||

                                  X4                              D.S. al Coda
||-----------------|---------------||-------------|----------------||
||:----------------|--------------:||-------------|----------------||
||-----------------|---------------||-------------|--------------6-||
||-1(0)6(0)7(0)6(0)|7(0)6(0)7(0)2--||1------------|----------1-1---||

    Coda
    |------|   |-------------|----------------|   |----------------|   |-------------|
 2/4|------|4/4|-------------|-----------5-5-4|5/4|----------------|4/4|-------------|
    |1-----|   |7---7---7----|7----7---7------|   |7---7---7----1--|   |7---7---7----|
    |----1-|   |-00--00---665|--00--00--------|   |--00--00-665---1|   |--00--00--655|
    Bat-ter-   -y!
                                                                           X7
|---------------|----------------|--------||---------------|----------------||
|----------5-5-4|5---------------|--------||:--------------|---------------:||
|7---7---7------|----7---7-------|1-------||---------------|----------------||
|--00--00-------|--00--00---6-6-5|--1-0---||-1-6(0)7(0)6(0)|7(0)6(0)7(0)-2--||

|--------------|-----------|-------------|------------|---------||
|--------------|-----------|-------------|------------|---------||
|--------------|-----------|-------------|------------|---------||
|1-6(0)7(0)6(0)|7----------|(7)----------|2-2--1--1--1|0--------||

Time 4/4
beat 185

|--------------------------------|--------------------------------|
|--------------------------------|--------------------------------|
|--------------------------------|--------------------------------|
|-3---3---3---3---3---3---3---3--|-3---3---3---3---3---3---3---3--|

|--------------------------------|--------------------------------|
|--------------------------------|--------------------------------|
|--------------------------------|--------------------------------|
|-3---3---3---3---3---3---3---3--|-3---3---3---3---3---3---3---3--|

Verse 1:
|Fig.2
|--------------------------------|--------------------------------|
|--------------------------------|--------------------------------|
|--------------------------------|--------------------------------|
|-3---3---3---3---3---3---3---3--|-3---3---3---3---3---3---3---3--|

|--------------------------------|--------------------------------|
|--------------------------------|--------------------------------|
|--------------------------------|--------------------------------|
|-3---3---3---3---3---3---3---3--|-3---3---3---3---3---3---3---5--|

                        end Fig.2|
|--------------------------------|--------------------------------|
|--------------------------------|--------------------------------|
|-----------------6-------3------|--------------------------------|
|-6-------3----------------------|-3---3---3---3---3---3---3---0--|

|--------------------------------|--------------------------------|
|--------------------------------|--------------------------------|
|--------------------------------|--------------------------------|
|-3---3---3---3---3---3---3---3--|-3---3---3---3---3---3---3---3--|

Repeat Fig.2

Pre-Chorus:
|Fig.3                                                   end Fig.3|
|--------------------------------|--------------------------------|
|--------------------------------|--------------------------------|
|--------------------------------|-----------------6-------3------|
|-3---3---3---3---3---3---3---3--|-6-------3----------------------|

Repeat Fig.3 x 2 1/2

|--------------------------------|--------------------------------|
|--------------------------------|--------------------------------|
|-5---5---5---5---5---5---5---5--|-5---5---5---5---5---5---5------|
|--------------------------------|-----------------------------0--|

Chorus:
|Fig.4
|--------------------------------|--------------------------------|
|--------------------------------|--------------------------------|
|--------------------------------|--------------------------------|
|-3---3---3---3---3---3---3---3--|-3---3---3---3---3---3---3---0--|

                                                         end Fig.4|
|--------------------------------|--------------------------------|
|--------------------------------|--------------------------------|
|--------------------------------|--------------------------------|
|-0---0---0---0---0---0---0---0--|-0---0---0---0---0---0---0---2--|

Repeat Fig.4 x 2

|--------------------------------|--------------------------------|
|--------------------------------|--------------------------------|
|--------------------------------|--------------------------------|
|-3---3---3---3---3---3---3---3--|-3---3---3---3---3---3---3---2--|

|--------------------------------|--------------------------------|
|--------------------------------|--------------------------------|
|--------------------------------|--------------------------------|
|-0---0---0---0---0---0---0---0--|-0---0---0---0---0---0---0---0--|

|--------------------------------|--------------------------------|
|--------------------------------|-----5---7---5------------------|
|-5---5---5---5---5---5---5---5--|-7---------------5--------------|
|--------------------------------|---------------------0--0--5--6-|

|--------------------------------|
|--------------------------------|
|-----------------6-------3------|
|-6-------3----------------------|

Pre-Chorus:

Repeat Fig.3 x 3

|--------------------------------|--------------------------------|
|--------------------------------|--------------------------------|
|--------------------------------|--------------------------------|
|-3---3---3---3---3---3---3---0--|-3---3---3---3---3---3---3---3--|

|--------------------------------|--------------------------------|
|--------------------------------|--------------------------------|
|--------------------------------|--------------------------------|
|-3---3---3---3---3---3---3---3--|-3---3---3---3---3---3---3---3--|

|--------------------------------|
|--------------------------------|
|--------------------------------|
|-3---3---3---3---3---3---3---3--|

Verse 2:
|--------------------------------|
|--------------------------------|
|--------------------------------|
|-3---3---3---3---3---3---3---3--|

|--------------------------------|--------------------------------|
|--------------------------------|--------------------------------|
|--------------------------------|--------------------------------|
|-3---3---3---3---3---3---3---3--|-3---3---3---3---3---3---3---3--|

|--------------------------------|--------------------------------|
|--------------------------------|--------------------------------|
|--------------------------------|-----------------6-------3------|
|-3---3---3---3---3---3---0---0--|-6-------3----------------------|

|--------------------------------|--------------------------------|
|--------------------------------|--------------------------------|
|--------------------------------|--------------------------------|
|-3---3---3---3---3---3---3---0--|-3---3---3---3---3---3---3---3--|

|--------------------------------|--------------------------------|
|--------------------------------|--------------------------------|
|--------------------------------|--------------------------------|
|-3---3---3---3---3---3---3---3--|-3---3---3---3---3---3---3---3--|

|--------------------------------|--------------------------------|
|--------------------------------|--------------------------------|
|--------------------------------|--------------------------------|
|-3---3---3---3---3---3---3---3--|-3---3---3---3---3---3---3---3--|

|--------------------------------|--------------------------------|
|--------------------------------|--------------------------------|
|--------------------------------|--------------------------------|
|-3---3---3---3---3---3---3---3--|-3---3---3---3---3---3---3---3--|

|--------------------------------|--------------------------------|
|--------------------------------|--------------------------------|
|--------------------------------|--------------------------------|
|-3---3---3---3---3---3---3---3--|-3---3---3---3---6---6---3---3--|

Pre-Chorus:

Repeat Fig.3 x 5

|--------------------------------|--------------------------------|
|--------------------------------|--------------------------------|
|--------------------------------|-5---5---5---5---5---5---5---5--|
|-3---3---3---3---3---3---3---3--|--------------------------------|

|--------------------------------|--------------------------------|
|--------------------------------|--------------------------------|
|-5---5---5---5------------------|--------------------------------|
|-----------------0---0---1---2--|-3------------------------------|

|--------------------------------|--------------------------------|
|--------------------------------|--------------------------------|
|--------------------------------|--------------------------------|
|--------------------------------|--------------------------------|

|--------------------------------|
|--------------------------------|
|-5------(5)--------------------|
|-3------(3)--------------------| End.

Am I evil?

100 bpm
|--------|------|------|  3  |---|-------|---|-------|---|-----|---|-------|
|--------|------|------|-----|---|-------|---|-------|---|-----|---|-------|
|-7--5-7-|-8----|---R--|-----|---|-----2-|-1-|-(1)---|---|---2-|-1-|-(1)---|
|--------|----3-|-0----|     |-0-|-(0)---|---|-----1-|-0-|-0---|---|-----1-|
  h. e e   h. q   q h.         w   (h) h   w   (h) h   w   h h   w   (h) h

|---|-------|---|-------|---|-----|---|-------|---|-----------------|
|---|-------|---|-------|---|-----|---|-------|---|-----------------|
|---|-----2-|-1-|-(1)-8-|-7-|---2-|-1-|-(1)---|---|-----5-5-5-5-5-5-|
|-0-|-(0)---|---|-------|---|-0---|---|-----1-|-0-|-(0)-------------|
  w   (h) h   w   (h) h   w   h h   w   (h) h   w   (h) e e e e e e
                                                        [ 3 ] [ 3 ]

|--------------------|-----------------------|---------------------|
|--------------------|-----------------------|---R---------R-------|
|-7---------R-------|---R-------5-5-5-5-5-5-|-7-------------7-7-7-|
|----0-0-0-0---0-0-0-|-0---0-0-0-------------|-----0-0-0-0---------|
  q  e e e e e e e e   e e e e e e e e e e e   e e e e e e e e e e
     [ 3 ]     [ 3 ]       [ 3 ] [ 3 ] [ 3 ]       [ 3 ]     [ 3 ]

|---------------------|---------------------|-----------------------|
|---------------------|---R-----------------|-----------------------|
|-7-7-7-7-5-5-5-5-5-5-|-7-----------R-------|---R-------5-5-5-5-5-5-|
|---------------------|-----0-0-0-0---0-0-0-|-0---0-0-0-------------|
  q e e e e e e e e e   e e e e e e e e e e   e e e e e e e e e e e
    [ 3 ] [ 3 ] [ 3 ]       [ 3 ]     [ 3 ]       [ 3 ] [ 3 ] [ 3 ]

                                                         160 bpm
                                                 240 bpm 2/4 4/4
|---------|-----------|-------------|------------||  13  |----|---|---|
|---------|---9-8-/15-|-14-15-15h17-|-(17)-(17)-||------|----|---|---|
|-------8-|-7---------|-------------|------------||------|--R-|-R-|-R-|
|-0-7-6---|-----------|-------------|------------||      |----|---|---|
  q q q q   q q q  q    q  q     h    (h.) (q)              h   w   w

|---|-------|----|---------------|-----------|------------------|
|---|-R-----|----|---------------|-----------|----5-------------|
|-7-|----5/-|-/7-|-(7)-5h7-5---5-|-7-(7)-5/-|-/7---7-5---------|
|-0-|-------|--0-|-(0)-------7---|-----------|----------7-6-5-3-|
  w   h. q     w   (q.)  q e e e   h.+e e       e e e e e e e e

  fig.1                   end fig.1  3 times  fill 1              end fill 1
||-------------------|--------------||-----------------|-----------------|
||-o-----------------|------------o-||-----------------|-----------------|
||-o-----------------|------------o-||-----------------|-------------5-7-|
||---0-0-0-0-3-0-0-5-|-0-0-0-6--5---||-0-0-0-0-3-0-0-5-|-0-0-0-5-6-7-----|
     e e e e e e e e   e e e q. q      e e e e e e e e   e e e e e e e e

  Verse 1,2              fill 2                     end fill 2
||--                     |-----------------|-----------------|
||-o play fig.1  3 times |-----------------|-----------------|
||-o                     |-----------------|-------5-7-5-----|
||--                     |-0-0-0-0-3-0-0-5-|-0-0-0-------7-5-|
                           e e e e e e e e   e e e e e e e e

                       Pre-chorus                     4 times
                      ||-------------------|--------------||
  play fig.1  4 times ||-o-----------------|------------o-||
                      ||-o---------5-----7-|-------8--7-o-||
                      ||---7-7-7-7---7-7---|-7-7-7--------||
                           e e e e e e e e   e e e q. q

  Chorus
  play fig.1, 1st time play fill 1 , play fig.1  2 times
              2nd time play fill 3

             fill 3
             |-----------------|-----------------|
             |-----------------|-----------------|
             |-----------------|---7-7-7-7-7-7-7-|
             |-0-0-0-0-3-0-0-5-|-0---------------|

|1.                           |2.
                           --||---------|-5-5-5-5-5-5-------|
  play fig.1, play fill 1  o-||---------|-------------------|
                           o-||-7--5--3-|---------------5-6-|
                           --||---------|-------------7-----|
                                q. q. q   e s s e e e e e e

                                                              3 times
|-----------------|------------||-----------|-5-5-5-5-5-5---------||
|-----------------|------------||-o---------|-------------------o-||
|-7---------------|------------||-o-7--5--3-|---------------5-6-o-||
|---0-0-0-3-0-0-5-|-0-0-0-6--5-||-----------|-------------7-------||
  e e e e e e e e   e e e q. q      q. q. q   e s s e e e e e e

                                       192 bpm triplet feel
                                         fig.3
|----------|---------------|-----|-----||---------------------|
|----------|---------------|-----|-----||---7-7-7-7---7-7-7-7-|
|-7--9--10-|-(10)-(10)-3--|-(3)-|-(3)-||-0---------0---------|
|----------|---------------|-----|-----||---------------------|
  q. q. q     e   (e)   h.   (w)   (w)    e e e e e e e e e e
                                              [ 3 ]     [ 3 ]

                                              end fig.3
|---------------|---------------------|---------------|---------------------|
|---7-7-7-7-----|---7-7-7-7---7-7-7-7-|---7-7-7-7-----|---7-7-7-7---7-7-7-7-|
|-0-----------5-|-0---------0---------|-0---------3---|-0---------0---------|
|-----------3---|---------------------|-------------3-|---------------------|
  e e e e e q q   e e e e e e e e e e   e e e e e q q   e e e e e e e e e e
      [ 3 ]           [ 3 ]     [ 3 ]      [ 3 ]           [ 3 ]     [ 3 ]

|---------------|---------------------|--------------------||
|---7-7-7-7-----|---7-7-7-7---7-7-7-7-|---7-7-7-7-7-7-7----||
|-0-----------5-|-0---------0---------|-0---------------7-||
|-----------3---|---------------------|--------------------||
  e e e e e q q   e e e e e e e e e e   e e e e e e e e q
      [ 3 ]           [ 3 ]     [ 3 ]       [ 3 ] [ 3 ]

Bridge 1
   fig.4
||-----------------------|-----------------|---------------------|
||-o---------------------|-----------------|---------------------|
||-o-7---------7---------|-7-----------5---|-7---------7---------|
||-----0-0-0-0---0-0-0-0-|---0-0-0-0-0-----|---0-0-0-0---0-0-0-0-|
     e e e e e e e e e e   e e e e e e e+q   e e e e e e e e e e
         [ 3 ]     [ 3 ]       [ 3 ]             [ 3 ]     [ 3 ]

                        Chorus II
          end fig.4  4 times
|-------------------||                                |--------------------|
|-----------------o-|| play fig.3, fig.3 first 3 bars |---7-7-7-7-7-7-7----|
|-7-----------5-5-o-||                                |-0---------------7-|
|---0-0-0-0-0-------||                                |--------------------|
  e e e e e q q q                                       e e e e e e e e q
      [ 3 ] [ 3 ]                                           [ 3 ] [ 3 ]


Bridge 2  :  play fig.4  4 times, play fig.3  2 times

                 Guitar solo                                  6 times
|---|-----|-----||-----------------------|-----------------------||
|---|-----|-----||-o---------------------|---------------------o-||
|---|-----|---0-||-o-2-2-2-2-2-2-2-2-2-2-|-2-2-2-2-2-2-2-2-2-2-o-||
|-0-|-(0)-|-3---||-----------------------|-----------------------||
  w   (w)   h h      e e e e e e e e e e   e e e e e e e e e e
                         [ 3 ]     [ 3 ]       [ 3 ]     [ 3 ]

                                              2 times
||-----------------------|-----------------------||
||-o---------------------|---------------------o-||
||-o-7---------7---------|-7---------7---------o-||
||-----0-0-0-0---0-0-0-0-|---0-0-0-0---0-0-0-0---||
     e e e e e e e e e e   e e e e e e e e e e
         [ 3 ]     [ 3 ]       [ 3 ]     [ 3 ]

                                              5 times
||-----------------------|-----------------------||---------------------|
||-o---------------------|---------------------o-||---------------------|
||-o-2-2-2-2-2-2-2-2-2-2-|-2-2-2-2-2-2-2-2-2-2-o-||-0-0-0-0-0-0-0-0-0-0-|
||-----------------------|-----------------------||---------------------|
     e e e e e e e e e e   e e e e e e e e e e      e e e e e e e e e e
         [ 3 ]     [ 3 ]       [ 3 ]     [ 3 ]          [ 3 ]     [ 3 ]

|---------------------|---------------------|---------------------|
|---------------------|---------------------|---------------------|
|-0-0-0-0-0-0-0-0-0-0-|---------------------|---------------------|
|---------------------|-1-1-1-1-1-1-1-1-1-1-|-1-1-1-1-1-1-1-1-1-1-|
  e e e e e e e e e e   e e e e e e e e e e   e e e e e e e e e e
      [ 3 ]     [ 3 ]       [ 3 ]     [ 3 ]       [ 3 ]     [ 3 ]

|---------------------|---------------------|---------------------|
|---------------------|---------------------|---------------------|
|-1-1-1-1-1-1-1-1-1-1-|-1-1-1-1-1-1-1-1-1-1-|---------------------|
|---------------------|---------------------|-2-2-2-2-2-2-2-2-2-2-|
  e e e e e e e e e e   e e e e e e e e e e   e e e e e e e e e e
      [ 3 ]     [ 3 ]       [ 3 ]     [ 3 ]       [ 3 ]     [ 3 ]

                                                                  5 times
|---------------------||-----------------------|-----------------------||
|---------------------||-o---------------------|---------------------o-||
|---------------------||-o-2-2-2-2-2-2-2-2-2-2-|-2-2-2-2-2-2-2-2-2-2-o-||
|-2-2-2-2-2-2-2-2-2-2-||-----------------------|-----------------------||
  e e e e e e e e e e      e e e e e e e e e e   e e e e e e e e e e
      [ 3 ]     [ 3 ]          [ 3 ]     [ 3 ]       [ 3 ]     [ 3 ]

|---------------------|---------------------|---------------------|
|---------------------|---------------------|---------------------|
|-7---------7---------|-7---------7---------|-7---------7---------|
|---0-0-0-0---0-0-0-0-|---0-0-0-0---0-0-0-0-|---0-0-0-0---0-0-0-0-|
  e e e e e e e e e e   e e e e e e e e e e   e e e e e e e e e e
      [ 3 ]     [ 3 ]       [ 3 ]     [ 3 ]       [ 3 ]     [ 3 ]

                                                             2 times
|---------------||-----------------------|-----------------------||
|---------------||-o---------------------|---------------------o-||
|-7-------------||-o-2-2-2-2-2-2-2-2-2-2-|-2-2-2-2-2-2-2-2-2-2-o-||
|---0-0-0-0-0-3-||-----------------------|-----------------------||
  e e e e e q h      e e e e e e e e e e   e e e e e e e e e e
      [ 3 ] [3]          [ 3 ]     [ 3 ]       [ 3 ]     [ 3 ]


play fig.3, play fig.3 first 2 bars

|-----------------14-|-14-14-14-14-14-14-14-14-14-12----||
|---7-7-7-7---7-7----|-------------------------------14-||
|-0---------0--------|----------------------------------||
|--------------------|----------------------------------||
  e e e e e e e e e    e  e  e  e  e  e  e  e  e  e  e
      [ 3 ]                  [  3  ]  [  3  ]  [  3  ]

Bridge 3 : play fig.4  4 times, play fig.3  4 times

                                         3 times                      rit.
||-------------------|-----------------------||---------------|-----------||
||-o-----------------|---------------------o-||-------------R-|-----R-----||
||-o-----7p0-5-5-5---|-5-5-5-------5-7p5---o-||-----7p0-5-5---|-5-5---5---||
||---0-0-----------0-|-------0-5h7-------7---||-0-0-----------|---------5-||
     e e e e e e e e   e e e e e e e e e e      e e e e e q e   e q e q q
                               [ 3 ] [ 3 ]

160 bpm, straight eight feel
|------|---|--------|----------------||-------------------|
|------|---|--------|----------------||-o-----------------|
|---R--|-R-|----5h7-|-7-7-7-7-7-7-7-||-o-----------------|
|-0----|---|-0------|----------------||---0-0-0-0-3-0-0-5-|
  q h.   w   h..  e   e e e e e e q       e e e e e e e e

             4 times
|--------------||-------||
|------------o-||-------||
|------------o-||-R-----||
|-0-0-0-6--5---||---3-0-||
  e e e q. q      h q q
whiplash

Intro

168 bpm         3 times 3/4   4/4 160 bpm                        23 times
-------||---------------||-----||-------------------------------------||
-------||-o---R-------o-||---R-||-o---------------------------------o-||
-7-7-7-||-o-7---7-7-7-o-||-7---||-o-7-7-7-7-7-7-7-7-7-7-7-7-7-7-7-7-o-||
-------||---------------||-----||-------------------------------------||
 e e e      q h e e e      q h      s s s s s s s s s s s s s s s s
 [ 3 ]          [ 3 ]

                           fig.1
|-------------------------||-----------------------------------|
|-------------------------||-o---------------------------------|
|-7-7-7-7-7-7-7-7---------||-o---------------------------------|
|-----------------5--4--3-||---0-0-0-0-0-0-0-0-0-0-0-0-0-0-0-0-|
  s s s s s s s s e. e. e      s s s s s s s s s s s s s s s s

              end fig.1  4 times  fig.2
|---------------------------|||-----------------------------------|
|-------------------------o-|||-o---------------------------------|
|-------------------------o-|||-o---------------------------------|
|-0-0-0-0-0-0-0-0-5--4--3---|||---0-0-0-0-0-0-0-0-0-0-0-0-0-0-0-0-|
  s s s s s s s s e. e. e         s s s s s s s s s s s s s s s s

                      end fig.2  4 times
|---------------------------------||
|-------------------------------o-||
|-------------------------------o-||
|-0-0-0-0-0-0-0-0-0-0-0-0-0-0-3---||
  s s s s s s s s s s s s s s e

Verse 1,2,3

||--                           ||
||-o  play fig.2   4 times     ||
||-o                           ||
||--                           ||

Chorus
  fig.3                            end fig.3  3 times
||-------------------|-------------------------||
||-o-----------------|-----------------------o-||
||-o-3-3-3-3-3-3-2-0-|-----------------------o-||
||-------------------|-0h2-2-2-2-2-2-2-2-2-0---||
     e e s s e q q q   s s s s e s s e s s q
               [ 3 ]

|1,2.                          |
|---||                       --||
|---||  play fig.1  4 times  o-||
|-R-||                       o-||
|---||                       --||
  w

|3.                   Interlude & Guitar solo                     12 times
|---|---|-------------||-----------------------|-----------------------||
|---|---|-------------||-o---------------------|---------------------o-||
|-R-|-R-|-5-4-3-------||-o-7p5---5---5---------|-7p5---5---5---------o-||
|---|---|-------5-4-3-||-------7---7---0-0-0-0-|-----7---7---0-0-0-0---||
  w   w   q q q q q q      s s s e s e e e e e   s s s e s e e e e e
          [ 3 ] [ 3 ]

    7/8     4/4
|---|-------|                      ||
|---|-------| play fig.1  4 times  ||
|---|----R--|                      ||
|-0-|-0-----|                      ||
  w   q  h+e

Verse 4 : play fig.2  4 times, play fig.3  3 times

|-----------------|-------------------|-------------------|
|-----------------|-------------------|-------------------|
|-3-3-3-3-3-3-2-0-|-----------------R-|-----------------R-|
|-----------------|-0-2-2-2-2-0-2-0---|-0-2-2-2-2-0-2-0---|
  e e s s e q q q   e s s s s e e e q   e s s s s e e e q
            [ 3 ]

|-------------------|-------------------|--------|-----------------||
|-------------------|-------------------|--------|-----------------||
|-----------------R-|-------------------|--------|---------------R-||
|-0-2-2-2-2-0-2-0---|-0-2-2-2-2-0-2-0---|-(0)----|-0-2-2-2-0-2-2---||
  e s s s s e e e q   e s s s s e e q.    (l)      e s s e e e e q

breadfan

Intro: This riff is played after the guitar plays it 4x

G-------------------------------------------|
D--02202202202222222022022022222------------|
A--------------------------------020--------|
E------------------------------------^3-0---|

Verse:

G----------------------------------------|
D----------------------------------------|
A---7-7---7---7-7---7-----75-5-5-567----|
E-------0---0-----0----00----------------|

Guitar Solo Backing: These notes are strongly accented

G----------------------------------------------|
D----------------------------------------------|
A----------------------------------------------|
E-3-23---345---35-355555-23333-233333-355555---|

Post solo Riff: 

G-------------------------------------------------------|
D-------5--------3--------------------------------------|
A--57-7----35-5-----5-----------------------------------|
E------------------------57-------2223/5----------------|

Note: after playing that 4x play:

E-5-3-5-3-53-0---------------------------------------------|

The guys who made the tabs
Black- keith rogers
Bellz- eros fratini
Sanitarium- maf
Harvester- keith rogers
Horse- steve gorenberg
Thingy- maf
Puppetz- maf
Fade- brad larsen
Seek- steve gorenberg
Justice- anonomys
One- taz
Creep- eros fratini
Battery- maf
Caress- eros fratini
Evil- anonomys
Whip- steve gorenberg
Bread- peter klein

The guy who once aagain put all this shit together
The one
The only
BIG TOMMY P
comments
print report bad tab
3 comments total.
0 reply
saturns_bassman wrote on November 29 2005, 09:10 am

dude wheres the bass solo - you suck

0 reply
VANHALENSMASTER wrote on March 25 2006, 06:04 pm

yeah where is it phuk head?

0 reply
AshI_234 wrote on December 31 2006, 01:57 pm

i want the bass solo at the end of master of puppets please:D:D

I want to post or [tab]
guest
You may want to rate the tab now too:
select rating
Please do not post tabs as comments. Select "correction" instead!