Oops, an error
Loading. Please wait.

Live Shit Binge And Purge Seattle Tab

7,389 views 3 this week
5 commentsread comments
1 2 3 4 5
excellent!
x 4
add to favorites launch autoscroll
font size
0
reset
Autoscroll
+/-
esc
set tempo
stop
Contributor
WARNING: You are trying to view
                                    content from Ultimate-Guitar.com
                                    in an unauthorized application,
                                    which is prohibited.

                                    Please use an official Ultimate
                                    Guitar Tabs application for iPhone,
                                    iPad or Android to access legitimate
                                    chords, guitar, bass, and drum tabs
                                    from Ultimate-Guitar.com database.

                                    Type "ultimate guitar tabs" in Apple
                                    App Store's or Android Market's
                                    search to find the application.
Band- Metallica
Album- Live Shit Binge And Purge Seattle

1.BLACKENED

E|--------------------------------------------|
B|--------------------------------------------|
G|--------------------------------------------|
D|-3-----------------------2-------------x----|
A|-1-----------2---3-3-----2-------------x----|
E|-----2---3-----------1-----------------x----|
!      .   .   .   . . .

E||-----------------------------------------------------------|
B||-----------------------------------------------------------|
G||*----------------------------------------------------------|
D||*-------------------------------------------------8--------|
A||------7-------7-------7---8---7-------7-------7-------7----|
E||--0-------0-------0---------------0-------0------(6)-------|
!    .       .       .               .       .       ^
!                                                  2nd guitar play this
!                                                    2nd time only

E|----------------------------------------------------------||
B|----------------------------------------------------------||
G|---------------------------------------------------------*|| 3x
D|---------------------------------------------------------*||
A|-----7-------7-------7---8---7---8-----------2---3-3------||
E|-0-------0-------0---------------6---2---3-----------1----||
   .       .       .                   .   .   .   . . .

   4th time
E|--------------------------------------------------------------|
B|--------------------------------------------------------------|
G|--------------------------------------------------------------|
D|-------------------------------------------------8------------|
A|-----7-------7-------7---8---7-------7-------7-------7--------|
E|-0-------0-------0---------------0-------0------(6)------0----|
!  .       .       .               .       .       ^       .
!                                                2nd gtr play this


E|----------------------------------|----------------------------------|

B|----------------------------------|----------------------------------|

G|----------------------------------|----------------------------------|

D|-5---5-5-5-------5---5------------|-5---5-5-5-------4---4------------|

A|-5---5-5-5-------5---5------------|-5---5-5-5-------4---4------------|

E|-3---3-3-3---0---3---3------------|-3---3-3-3---0---2---2------------|

   .   . . .   .   .                  .   . . .   .   .



E||-----------------------------------------------------------|
B||-----------------------------------------------------------|
G||*----------------------------------------------------------|
D||*-------------------------------------------------8--------|
A||------7-------7-------7---8---7-------7-------7-------7----|
E||--0-------0-------0---------------0-------0------(6)-------|
!    .       .       .               .       .       ^
!                                                   2nd gtr play this
!                                                   2nd and 4th time
only

 E|-----------------------------------------------------------||
 B|-----------------------------------------------------------||
 G|----------------------------------------------------------*|| 4x
 D|----------------------------------------------------------*||
 A|------7-------7-------7---8---7---8-----------2---3-3------||
 E|--0-------0-------0---------------6---2---3-----------1----||
!    .       .       .                   .   .   .   . . .



E||---------------------------------------------------||
B||---------------------------------------------------||
G||*-------------------------------------------------*|| 4x
D||*-------------------------3-----------------------*||
A||--2---2---2---2---2---2---1-----------2---1--------||
E||--0---0---0---0---0---0-------2---3-----------3----||
!   (.)  .   .   .   .   .       .   .
!    ^
!    palm mute 1st time only


1st verse

E||---------------------------------------------------|
B||---------------------------------------------------|
G||*--------------------------------------------------|
D||*-------------------------3------------------------|
A||--2---2---2---2---2---2---1-----------2---1--------|
E||--0---0---0---0---0---0-------2---3-----------3----|
!        .   .   .   .   .       .   .

 E|---------------------------------------------------|
 B|---------------------------------------------------|
 G|---------------------------------------------------|
 D|--------------------------3------------------------|
 A|--2---2---2---2---2---2---1-----------2---1--------|
 E|--0---0---0---0---0---0-------2---3-----------3----|
!        .   .   .   .   .       .   .

 E|---------------------------------------------------|
 B|---------------------------------------------------|
 G|---------------------------------------------------|
 D|--------------------------3-----------------s------|
 A|--2---2---2---2---2---2---1-----------1---4-/-5----|
 E|--0---0---0---0---0---0-------2---3-------2-/-3----|
!        .   .   .   .   .       .   .

     1st ending
 E|---------------------------------------------------||
 B|---------------------------------------------------||
 G|--------------------------------------------------*||
 D|--------------------------3-----------------------*||
 A|--5---5---5---5---5---5---1-----------2---1--------||
 E|--3---3---3---3---3---3-------2---3-----------3----||
!    .   .   .   .   .   .       .   .

     2nd ending
 E|----------------------------------------------------||
 B|----------------------------------------------------||
 G|---------------------------------------------------*||
 D|-------------------------3-------------s----s------*||
 A|-5---5---5---5---5---5---1-----------12\--12\-------||
 E|-3---3---3---3---3---3-------2---3---12\--12\-------||
!   .   .   .   .   .   .       .   .   ^    ^this slide done by a 2nd
gtr.
!                                       this slide done by 1st gtr and
!                                       is carried out over the 2nd one.

E|----------------------------------------------------------|
B|----------------------------------------------------------|
G|----------------------------------------------------------|
D|-------------------------------------------------8--------|
A|-----7-------7-------7---8---7-------7-------7-------7----|
E|-0-------0-------0---------------0-------0----------------|
!  .       .       .               .       .

E|----------------------------------------------------------|
B|----------------------------------------------------------|
G|----------------------------------------------------------|
D|----------------------------------------------------------|
A|-----7-------7-------7---8---7---8-----------2---3-3------|
E|-0-------0-------0---------------6---2---3-----------1----|
!  .       .       .                   .   .   .   . . .

E|----------------------------------------------------------|
B|----------------------------------------------------------|
G|----------------------------------------------------------|
D|-------------------------------------------------8--------|
A|-----7-------7-------7---8---7-------7-------7-------7----|
E|-0-------0-------0---------------0-------0------(6)-------|
!  .       .       .               .       .       ^
!                                                  2nd gtr

E|------------------|
B|------------------|
G|------------------|
D|------------------|
A|-2---2---2---2----|
E|-0---0---0---0----|
!  .   .   .   .


  1st Chorus
E|----------------------------------|----------------------------------|

B|----------------------------------|----------------------------------|

G|-9--------------------------------|-7---------------5----------------|

D|-9-----------------------7---7----|-7-------5---5---5-------5---5----|

A|-7-----------------------7---7----|-5-------5---5---3-------5---5----|

E|-------------------------5---5----|---------3---3-----------3---3----|

!                          .   .              .   .           .   .

E|----------------------------------|----------------------------------|

B|----------------------------------|----------------------------------|

G|----------------------------------|----------------------------------|

D|-4--------------------------------|-5-5-5-----------5-5-5------------|

A|-4--------------------------------|-5-5-5-----------5-5-5------------|

E|-2--------------------------------|-3-3-3-----------3-3-3------------|

!                                     . . .           . . .

E|----------------------------------|----------------------------------|

B|----------------------------------|----------------------------------|

G|----------------------------------|-7---------------5----5-----------|

D|-2-----------------------7---7----|-7-------5---5---5----5----5------|

A|-2-----------------------7---7----|-5-------5---5---3----3----5------|

E|-0-----------------------5---5----|---------3---3-------------3------|

!                          .   .              .   .   .    .    .

E|----------------------------------|----------------------------------|

B|----------------------------------|----------------------------------|

G|----------------------------------|----------------------------------|

D|-4--------------------------------|-5---5-5-5-------4---4------------|

A|-4--------------------------------|-5---5-5-5-------4---4------------|

E|-2--------------------------------|-3---3-3-3---0---2---2------------|

!                                     .   . . .   .   .


E|----------------------------------------------------------|
B|----------------------------------------------------------|
G|----------------------------------------------------------|
D|-------------------------------------------------8--------|
A|-----7-------7-------7---8---7-------7-------7-------7----|
E|-0-------0-------0---------------0-------0----------------|
!  .       .       .               .       .

E|-----------------------------------------------------------|
B|-----------------------------------------------------------|
G|-----------------------------------------------------------|
D|-----------------------------------------------------------|
A|------7-------7-------7---8---7---8-----------2---3-3------|
E|--0-------0-------0---------------6---2---3-----------1----|
!   .       .       .                   .   .   .   . . .


2nd verse

(same as 1st verse)


2nd Chorus

(same as 1st chorus)

E|----------------------------------|----------------------------------|

B|----(last-line-of-the-chorus)-----|----------------------------------|

G|----------------------------------|----------------------------------|

D|-4--------------------------------|-5---5-5-5-------4---4------------|

A|-4--------------------------------|-5---5-5-5-------4---4------------|

E|-2--------------------------------|-3---3-3-3---0---2---2------------|

!                                     .   . . .   .   .

E|------------------|--------------|----------------------------------|
B|------------------|--------------|----------------------------------|
G|------------------|--------------|-----Gtr1-------------------------|
D|-3---3------------|-2-----------^|(2)--let-ring-for-the-------------|
A|-3---3------------|-2-----------^|(2)--next-8-measures--------------|
E|-1---1------------|-0-----------^|(0)----------------------0---5----|
!  .                  1  2  3  4                             ^
!                                                            2nd Guitar

E|----------------------------------|----------------------------------|

B|----------------------------------|----------------------------------|

G|----------------------------------|----------------------------------|

D|----------------------------------|----------------------------------|

A|-----7----------------------------|-8---7----------------------------|

E|-6-------0---0---0---0---5---6----|---------0---0---0---0---0---5----|

!          .   .   .   .                      .   .   .   .

E|----------------------------------|----------------------------------|

B|----------------------------------|----------------------------------|

G|----------------------------------|-3--------------------------------|

D|----------------------------------|-1--------------------------------|

A|-----7------------------s----1---^|(1)-------------------------------|

E|-6-------0---0---0---0--/6--------|-------------------------0---5----|

!          .   .   .   .

E|----------------------------------|----------------------------------|

B|----------------------------------|----------------------------------|

G|----------------------------------|----------------------------------|

D|------------------------s---------|-8--------------------------------|

A|-----7------------------/7--------|-----7----------------------------|

E|-6-------0---0---0---0-------6----|---------0---0---0---0---0---5----|

!          .   .   .   .                      .   .   .   .

E|----------------------------------|--------------------------------------|

B|----------------------------------|--------------------------------------|

G|----------------------------------|-3------*-----------------------------|

D|----------------------------------|-1-----s----s----s----s---------------|

A|-----7------------------s----1---^|(1)--12\--12\--12\--12\---------------|

E|-6-------0---0---0---0--/6--------|-----12---12---12---12-------0---5----|

!          .   .   .   .                       2         3        4
!                                         * slides actually done by
!                                         4 different guitars



E||-----------------------------------|----------------------------------|

B||-----------------------------------|----------------------------------|

G||*----------------------------------|----------------------------------|

D||*----------------------------------|----------------------------------|

A||------7----------------------------|-8---7----------------------------|

E||--6-------0---0---0---0---5---6----|---------0---0---0---0---0---5----|

!            .   .   .   .                      .   .   .   .

 E|----------------------------------|----------------------------------|

 B|----------------------------------|----------------------------------|

 G|----------------------------------|-3--------------------------------|

 D|----------------------------------|-1--------------------------------|

 A|-----7------------------s----1---^|(1)-------------------------------|

 E|-6-------0---0---0---0--/6--------|-------------------------0---5----|

!           .   .   .   .

 E|----------------------------------|----------------------------------|

 B|----------------------------------|----------------------------------|

 G|----------------------------------|----------------------------------|

 D|------------------------s---------|-8--------------------------------|

 A|-----7------------------/7--------|-----7----------------------------|

 E|-6-------0---0---0---0-------6----|---------0---0---0---0---0---5----|

!           .   .   .   .                      .   .   .   .

 E|----------------------------------|----------------------------------|

 B|----------------------------------|----------------------------------|

 G|----------------------------------|-3--------------------------------|

 D|----------------------------------|-1--------------------------------|

 A|-----7------------------s----1---^|(1)-----------------s-------s-----|

 E|-6-------0---0---0---0--/6--------|--------------------/6---0--/6----|

!           .   .   .   .

 E|----------------------------------|----------------------------------|

 B|----------------------------------|----------------------------------|

 G|----------------------------------|----------------------------------|

 D|----------------------------------|----------------------------------|

 A|-2-------2---2---2---2-----------^|(2)------2---2---2---2-----------^|

 E|-0-------0---0---0---0-----------^|(0)------0---0---0---0-----------^|

!           .   .   .                          .   .   .

 E|----------------------------------|----------------------------------|

 B|----------------------------------|----------------------------------|

 G|----------------------------------|----------------------------------|

 D|----------------------------------|-8--------------------------------|

 A|(2)------2---2---2---2------s-----|-6--------------------------s-----|

 E|(0)------0---0---0---0------/6---^|(6)----------------------0--/6----|

!           .   .   .

 E|----------------------------------|----------------------------------|

 B|----------------------------------|----------------------------------|

 G|----------------------------------|----------------------------------|

 D|----------------------------------|----------------------------------|

 A|-2-------2---2---2---2-----------^|(2)------2---2---2---2-----------^|

 E|-0-------0---0---0---0-----------^|(0)------0---0---0---0-----------^|

!           .   .   .                          .   .   .

 E|----------------------------------|----------------------------------|

 B|----------------------------------|----------------------------------|

 G|----------------------------------|----------------------------------|

 D|----------------------------------|-8--------------------------------|

 A|(2)------2---2---2---2------s-----|-6--------------------------s-----|

 E|(0)------0---0---0---0------/6---^|(6)----------------------0--/6----|

!           .   .   .

 E|----------------------------------|----------------------------------|

 B|----------------------------------|----------------------------------|

 G|----------------------------------|----------------------------------|

 D|----------------------------------|----------------------------------|

 A|-4-------4---4---4---4-----------^|(4)------4---4---4---4-----------^|

 E|-2-------2---2---2---2-----------^|(2)------2---2---2---2-----------^|

!           .   .   .                          .   .   .

 E|----------------------------------|-----------------------------------||

 B|----------------------------------|-----------------------------------||

 G|----------------------------------|----------------------------------*||

 D|----------------------------------|-10-------------------------------*||

 A|(2)------4---4---4---4------s-----|-8------------------s--------------||

 E|(0)------2---2---2---2------/8---^|(8)---------------12\-----0---5----||

!           .   .   .
!                             play this second time--->
12\-----12\------||
!                                                         s       s

   1st time
E|----------------------------------|------------------|
B|----------------------------------|------------------|
G|-9-----------7-----------5-------^|(5)--4------------|
D|-9-----------7-----------5-------^|(5)--4------------|
A|-7-----------5-----------3-------^|(3)--2------------|
E|----------------------------------|---------3---2----|
!                                             .   .

E|----------------------------------|--------------------------|
B|----------------------------------|--------------------------|
G|-------------7-----------5-------^|(5)--4--------------------|
D|-2-----------7-----------5-------^|(5)--4--------------------|
A|-2-----------5-----------3-------^|(3)--2--------------------|
E|-0--------------------------------|-----------------3---2----|
!                                                     .   .

     2nd, 3rd and 4th times
E||-----------------------------------|------------------|
B||-----------------------------------|------------------|
G||*-------------7-----------5-------^|(5)--4------------|
D||*-2-----------7-----------5-------^|(5)--4------------|
A||--2-----------5-----------3-------^|(3)--2------------|
E||--0--------------------------------|---------3---2----|
!                                               .   .

 E|----------------------------------|--------------------------||
 B|----------------------------------|--------------------------||
 G|-------------7-----------5-------^|(5)--4-------------------*||
 D|-2-----------7-----------5-------^|(5)--4-------------------*||
 A|-2-----------5-----------3-------^|(3)--2--------------------||
 E|-0--------------------------------|-----------------3---2----||
!                                                      .   .



     Solo                                                          6x
E||-----------------------------------|----------------------------------||

B||-----------------------------------|----------------------------------||

G||*----------------------------------|---------------------------------*||

D||*----------------------------------|----------------------------s----*||

A||--2---2---2---2---2---2---2---2----|-2---2---2---2---2---2---2--/3----||

E||--0---3---0---2---0---3---0---2----|-0---3---0---2---0---3------------||

     .   .   .   .   .   .   .   .      .   .   .   .   .   .

E|----------------------------------|----------------------------------------|

B|----------------------------------|----------------------------------------|

G|----------------------------------|----------------------------------------|

D|----------------------------------|-------------------------4---5----------|

A|-2---2---2---2---2---2---2---2----|-2---2---2---2---2---2---2---3----------|

E|-0---3---0---2---0---3---0---2----|-0---3---0---2---0---3------------------|

   .   .   .   .   .   .   .   .      .   .   .   .   .   .

E|----------------------------------|----------------------------------|

B|----------------------------------|----------------------------------|

G|----------------------------------|----------------------------------|

D|-5---5-5-5-------4---4------------|-5---5-5-5-------4---4------------|

A|-5---5-5-5-------4---4------------|-5---5-5-5-------4---4------------|

E|-3---3-3-3---0---2---2------------|-3---3-3-3---0---2---2------------|

   .   . . .   .   .                  .   . . .   .   .

E|------------------|
B|------------------|
G|------------------|
D|-3---3------------|
A|-3---3------------|
E|-1---1------------|
   .


E||-----------------------------------|----------------------------------|

B||-----------------------------------|----------------------------------|

G||*----------------------------------|----------------------------------|

D||*----------------------------------|----------------------------------|

A||------7-------7-------7-------7----|-----5-------5-------5-------5----|

E||--0-------0-------0-------0--------|-0-------0-------0-------0--------|

     .       .       .       .          .       .       .       .

 E|----------------------------------|----------------------------------||

 B|----------------------------------|----------------------------------||

 G|----------------------------------|---------------------------------*||

 D|----------------------------------|---------------------------h-----*||

 A|-----8-------8-------8-------8----|-----7-------7-------7---5-^-7----||

 E|-0-------0-------0-------0--------|-0-------0-------0----------------||

    .       .       .       .          .       .       .


E|----------------------------------|
B|----------------------------------|
G|----------------------------------|
D|----------------------------------|
A|-2---2---2---2---2---2---2---2----|
E|-0---0---0---0---0---0---0---0----|
   .   .   .   .   .   .   .   .



E|----------------------------------|----------------------------------|

B|----------------------------------|----------------------------------|

G|-9--------------------------------|-7---------------5----------------|

D|-9-----------------------7---7----|-7-------5---5---5-------5---5----|

A|-7-----------------------7---7----|-5-------5---5---3-------5---5----|

E|-------------------------5---5----|---------3---3-----------3---3----|

!                          .   .              .   .           .   .

E|----------------------------------|----------------------------------|

B|----------------------------------|----------------------------------|

G|----------------------------------|----------------------------------|

D|-4--------------------------------|-5-5-5-----------5-5-5------------|

A|-4--------------------------------|-5-5-5-----------5-5-5------------|

E|-2--------------------------------|-3-3-3-----------3-3-3------------|

!                                     . . .           . . .

E|----------------------------------|----------------------------------|

B|----------------------------------|----------------------------------|

G|----------------------------------|-7---------------5----------------|

D|-2-----------------------7---7----|-7-------5---5---5-------5---5----|

A|-2-----------------------7---7----|-5-------5---5---3-------5---5----|

E|-0-----------------------5---5----|---------3---3-----------3---3----|

!                          .   .              .   .           .   .

E|----------------------------------|----------------------|
B|----------------------------------|----------------------|
G|----------------------------------|----------------------|
D|-4--------------------------------|-5---5-5-5-------4----|
A|-4--------------------------------|-5---5-5-5-------4----|
E|-2--------------------------------|-3---3-3-3---0---2----|
!                                     .   . . .   .   .


E|----------------------------------|----------------------------------|

B|----------------------------------|----------------------------------|

G|----------------------------------|----------------------------------|

D|----------------------------------|----------------------------------|

A|-----7-------7-------7-------7----|-----7-------7-------7-------7----|

E|-0-------0-------0-------6--------|-5-------5-------5-------5--------|

   .       .       .       .          .       .       .       .

E|----------------------------------|----------------------------------|

B|----------------------------------|----------------------------------|

G|----------------------------------|----------------------------------|

D|----------------------------------|-----5-------5--------------------|

A|-----5-------5-------5-------5----|-3-------3-----------5-------5----|

E|-3-------3-------3-------3--------|-----------------3-------3--------|

   .       .       .       .          .       .       .       .


E|----------------------------------|----------------------------------|

B|----------------------------------|----------------------------------|

G|----------------------------------|----------------------------------|

D|----------------------------------|----------------------------------|

A|-----7-------7-------7-------7----|-----7-------7-------7-------7----|

E|-0-------0-------0-------6--------|-5-------5-------5-------5--------|

   .       .       .       .          .       .       .       .




         (note the extra 1/8 note in this meas.)
E|----------------------------------|--------------------------------------|

B|----------------------------------|--------------------------------------|

G|----------------------------------|--------------------------------------|

D|-5---5---5---5---5---5---5---5----|-5---5---5---5---5---5---5---5---5----|

A|-5---5---5---5---5---5---5---5----|-3---3---3---3---5---5---5---5---5----|

E|-3---3---3---3---3---3---3---3----|-----------------3---3---3---3---3----|

!  .   .   .   .   .   .   .   .      .   .   .   .   .   .   .   .   .
!                It's easier to play this last note as an muted low-E ^

E|----------------------------------------------------------|
B|----------------------------------------------------------|
G|----------------------------------------------------------|
D|---------------------------------------------8------------|
A|-7-------7-------7---8---7-------7-------7-------7--------|
E|-----0-------0---------------0-------0---------------0----|
       .       .               .       .               .

E|----------------------------------------------------------|
B|----------------------------------------------------------|
G|----------------------------------------------------------|
D|----------------------------------------------------------|
A|-7-------7-------7---8---7---8-----------2---3-3----------|
E|-----0-------0---------------6---2---3-----------1---0----|
       .       .                   .   .   .   . . .   .

E|----------------------------------------------------------|
B|----------------------------------------------------------|
G|----------------------------------------------------------|
D|---------------------------------------------8------------|
A|-7-------7-------7---8---7-------7-------7-------7--------|
E|-----0-------0---------------0-------0------(6)------0----|
       .       .               .       .               .

    (note this meas. is an 1/8 note short)
E|------------------------------------------------------|
B|------------------------------------------------------|
G|------------------------------------------------------|
D|------------------------------------------------------|
A|-7-------7-------7---8---7---8-----------2---3-3------|
E|-----0-------0---------------6---2---3-----------1----|
       .       .                   .   .   .   . . .

E||-----------------------------------------------------------|
B||-----------------------------------------------------------|
G||*----------------------------------------------------------|
D||*-------------------------------------------------8--------|
A||------7-------7-------7---8---7-------7-------7-------7----|
E||--0-------0-------0---------------0-------0------(6)-------|
!    .       .       .               .       .       ^
!                                                2nd guitar play this
!                                                  2nd time only

 E|----------------------------------------------------------||
 B|----------------------------------------------------------||
 G|---------------------------------------------------------*||
 D|---------------------------------------------------------*||
 A|-----7-------7-------7---8---7---8-----------2---3-3------||
 E|-0-------0-------0---------------6---2---3-----------1----||
!   .       .       .                   .   .   .   . . .

3rd verse

(same as first)

3rd Chorus

E|----------------------------------|----------------------------------|

B|----------------------------------|----------------------------------|

G|-9--------------------------------|-7---------------5----------------|

D|-9-----------------------7---7----|-7-------5---5---5-------5---5----|

A|-7-----------------------7---7----|-5-------5---5---3-------5---5----|

E|-------------------------5---5----|---------3---3-----------3---3----|

!                          .   .              .   .           .   .

E|----------------------------------|----------------------------------|

B|----------------------------------|----------------------------------|

G|----------------------------------|----------------------------------|

D|-4--------------------------------|-5-5-5-----------5-5-5------------|

A|-4--------------------------------|-5-5-5-----------5-5-5------------|

E|-2--------------------------------|-3-3-3-----------3-3-3------------|

!                                     . . .           . . .

E|----------------------------------|----------------------------------|

B|----------------------------------|----------------------------------|

G|----------------------------------|-7---------------5----5-----------|

D|-2-----------------------7---7----|-7-------5---5---5----5----5------|

A|-2-----------------------7---7----|-5-------5---5---3----3----5------|

E|-0-----------------------5---5----|---------3---3-------------3------|

!                          .   .              .   .   .    .    .

E|----------------------------------|----------------------|
B|----------------------------------|----------------------|
G|----------------------------------|----------------------|
D|-4--------------------------------|----------------------|
A|-4--------------------------------|-5---5-5-5-------4----|
E|-2--------------------------------|-3---3-3-3---0---2----|
!                                     .   . . .   .   .

E|----------------------------------|----------------------------------|

B|----------------------------------|----------------------------------|

G|----------------------------------|-7---------------5----------------|

D|-2-----------------------7---7----|-7-------5---5---5-------5---5----|

A|-2-----------------------7---7----|-5-------5---5---3-------5---5----|

E|-0-----------------------5---5----|---------3---3-----------3---3----|

!                          .   .              .   .           .   .

E|----------------------------------|----------------------------------|

B|----------------------------------|----------------------------------|

G|----------------------------------|----------------------------------|

D|-4--------------------------------|-5-5-5-----------5-5-5------------|

A|-4--------------------------------|-5-5-5-----------5-5-5------------|

E|-2--------------------------------|-3-3-3-----------3-3-3------------|

!                                     . . .           . . .

E|----------------------------------|----------------------------------|

B|----------------------------------|----------------------------------|

G|----------------------------------|-7---------------5----5-----------|

D|-2-----------------------5---5----|-7-------5---5---5----5----5------|

A|-2-----------------------5---5----|-5-------5---5---3----3----5------|

E|-0-----------------------3---3----|---------3---3-------------3------|

!                          .   .              .   .   .    .    .

E|----------------------------------|--------------------------|
B|----------------------------------|--------------------------|
G|----------------------------------|--------------------------|
D|-4--------------------------------|-5---5-5-5-------4---4----|
A|-4--------------------------------|-5---5-5-5-------4---4----|
E|-2--------------------------------|-3---3-3-3---0---2---2----|
!                                     .   . . .   .   .

E|----------------------------------|------------------|
B|----------------------------------|------------------|
G|----------------------------------|------------------|
D|-5---5-5-5-------4---4------------|-3---3------------|
A|-5---5-5-5-------4---4------------|-3---3------------|
E|-3---3-3-3---0---2---2------------|-1---1------------|
   .   . . .   .   .                  .

E|----------------------------------------------------------|
B|----------------------------------------------------------|
G|----------------------------------------------------------|
D|-------------------------------------------------8---2----|
A|-----7-------7-------7---8---7-------7-------7-------2----|
E|-0-------0-------0---------------0-------0-----------0----|

2.FOR WHOM THE BELL TOLLS

Guitar 1 (Hetfield)
|-----------------------|
|-----------------------|
|-----------------------|
|---5-5----5-5----2-----|
|---5-5----5-5----2-----|     x8
|---3-3----3-3----0-----|

Guitar 2 (Hammet)
|---------------------------------|
|---------------------------------|
|---------------------------------|
|--12-11-10-9-------12------------|
|--------------10-9---------------|  x8
|-----------------------10-9------|

Both
|-------------------------|
|-------------------------|
|-------------------------|
|---5-5----5-5----2~------|
|---5-5----5-5----2~------|     x4
|---3-3----3-3----0~------|

|--------------------------------------|
|--------------------------------------|
|--------------------------------------|
|-------------------------------3------|
|---5-4-3-2-5-4-3-2-5-4-3-2-3-4-1------|     x4
|---3-2-1-0-3-2-1-0-3-2-1-0-1-2--------| 

Guitar 1 (Hetfield)
|-----------------------------------------------------------------|
|-----------------------------------------------------------------|
|----------------------5---------------------------5~-------------|
|---2~-------5~--------5---2~-----------5~---------5~--------7~---|
|---2~-------5~--------3---2~-----------5~---------3~--------7~---|  x2
|---0~-------3~------------0~-----------3~-------------------5~---|

Guitar 2 (Hammet)
|------------------------|
|------------------------|
|---12-9-11-----9-11-----|
|------------12----------|
|------------------------|     x30
|------------------------|



Both
|--------------------------------------------------------------|
|--------------------------------------------------------------|
|-----------------------------------------------------3--------|
|-2---5~--2---7~--2---5/8/4~--2---5~--2---7~--2---5---3--4--3--|
|-2---5~--2---7~--2---5/8/4~--2---5~--2---7~--2---5---1--4--3--| x2
|-000-3~--000-5~--000-3/6/2~--000-3~--000-5~--0-003-00---2--1--|

|-----------------------------------------------------------------|
|-----------------------------------------------------------------|
|----------------------5---------------------------5~-------------|
|---2~-------5~--------5---2~-----------5~---------5~--------7~---|
|---2~-------5~--------3---2~-----------5~---------3~--------7~---|  x2
|---0~-------3~------------0~-----------3~-------------------5~---|

|--------------------------------------------------------------|
|--------------------------------------------------------------|
|-----------------------------------------------------3--------|
|-2---5~--2---7~--2---5/8/4~--2---5~--2---7~--2---5---3--4--3--|
|-2---5~--2---7~--2---5/8/4~--2---5~--2---7~--2---5---1--4--3--| x2
|-000-3~--000-5~--000-3/6/2~--000-3~--000-5~--0-003-00---2--1--|


Guitar 1 (Hetfield)
|--------------------------------------|
|--------------------------------------|
|--12-9-11----9------------------------|
|----------12---11-12--9-11----9-10----|
|---------------------------12---------|     x3
|--------------------------------------|   

|------------------------------------------|
|------------------------------------------|
|--12-9-11----9-----------------------12~--|
|----------12---11-12--9-11----9-10--------|
|---------------------------12-------------|   x2
|------------------------------------------|  

|-----------------------------------------------|
|----------------------------------------12~----|
|--12-9-11----9---------------------------------|
|----------12---11-12--9-11----9-10-------------|
|---------------------------12------------------|
|-----------------------------------------------|  

Guitar 2 (Hammet)

|------------------------------------------------|
|------------------------------------------------|
|------------------------------------------------|
|--2~-------------------------------------2~-----|
|--2~-------------------------------------2~-----|
|--0~-------------------------------------0~-----|

|-------------------------------------------------------------------------|
|-------------------------------------------------------------------------|
|-------------------------------------------------------------------------|
|--2~------------------------------------5------5-5-5-5------5-5-5--------|
|--2~------------------------------------5------5-5-5-5------5-5-5--------|
|--0~------------------------------------3------3-3-3-3------3-3-3--------|

|------------------------------------------------|
|------------------------------------------------|
|----------------------------------------4~------|
|--2~------------------------------------4~------|
|--2~------------------------------------2~------|
|--0~--------------------------------------------|

|----------------------------------------------|
|----------------------------------------------|
|----------------------------------------------|
|--2~-------------------------------------2~---|
|--2~-------------------------------------2~---|
|--0~-------------------------------------0~---|

|--------------------------------------------------------------------|
|--------------------------------------------------------------------|
|--------------------------------------------------------------------|
|--2~------------------------------------5------5-5-5-5------5-5-5---|
|--2~------------------------------------5------5-5-5-5------5-5-5---|
|--0~------------------------------------3------3-3-3-3------3-3-3---|

|------------------------------------------------|
|------------------------------------------------|
|-----------------------------------------4~-----|
|--2~-------------------------------------4~-----|
|--2~-------------------------------------2~-----|
|--0~--------------------------------------------|

Both
|-----------------------------------------------------------------|
|-----------------------------------------------------------------|
|----------------------5---------------------------5~-------------|
|---2~-------5~--------5---2~-----------5~---------5~--------7~---|
|---2~-------5~--------3---2~-----------5~---------3~--------7~---|  x2
|---0~-------3~------------0~-----------3~-------------------5~---|

|--------------------------------------------------------------|
|--------------------------------------------------------------|
|-----------------------------------------------------3--------|
|-2---5~--2---7~--2---5/8/4~--2---5~--2---7~--2---5---3--4--3--|
|-2---5~--2---7~--2---5/8/4~--2---5~--2---7~--2---5---1--4--3--| x2
|-000-3~--000-5~--000-3/6/2~--000-3~--000-5~--0-003-00---2--1--|

|----------------------------------------------|
|----------------------------------------------|
|----------------------------------------------|
|---2~--------4-4----2~------4-4---5-5---------|
|---2~--------4-4----2~------4-4---5-5---------| x8 fading...
|---0~--------2-2----0~------2-2---3-3---------|

3.WELCOME HOME(SANITARIUM)

-------<12>---------3---353-2---|-------<12>---------2---2-----3-|
-----------<12>-----------------|-----------<12>---------0-------|
--------------------------------|--------------------------------|
--------------------------------|--------------------------------|
--------------------------------|--------------------------------|
0-------------------------------|0-------------------------------|

0------<12>---------------------|-------<12>---------------------|
-----------<12>-----------------|-----------<12>-----------------|
--------------------------------|--------------------------------|
--------------------------------|--------------------------------|
--------------------------------|--------------------------------|
0-------------------------------|0-------------------------------|

-------<12>---------------------|-------<12>---------------------|
-----------<12>-----------------|-----------<12>-----------------|
--------------------------------|---------------<12>-------------|
--------------------------------|--------------------------------|
--------------------------------|--------------------------------|
0-------------------------------|0-------------------------------|

Rhy. Fig. 1 (8th=--)
----------------|----------------|--------|   Repeat this figure 4 times
----------------|----------------|--------|   alone, then 4 times under 
------0-------0-|------0---------|--------|   the solo and 6 times under
----4-------5---|----7-------0---|--0-----|   the verse. The notes with
--2-------3-----|--5-------4-----|2-----0-|   a ~ under them are cue notes.
0-------0-------|0-------5---5s3-|--3s5---|   They hardly take time to sound
                             ~      ~ 

Now comes solo 1. Timing isn't always exact but is close.

------------------------------|--------10-s12--15-s17--17----|----------------|
------------------------------|10-s12------------------------|----------------|
--------11--12--9---------12--|------------------------------|----------------|
----9-------------------------|------------------------------|----------------|
7-----------------------------|------------------------------|----------------|
------------------------------|------------------------------|----------------|

--15--15--12--12s14---12^-r---|---12---------------__3___----|----------------|
------------------------------|15-----15--13--13---121312----|----------------|
------------------------------|--------------------------14--|12-s11----------|
------------------------------|------------------------------|--------12------|
------------------------------|------------------------------|------------14--|
------------------------------|------------------------------|----------------|

------------------------------|----19-----19-------------17--|171514----------|
------------------------------|--17---------17---------------|------171514----|
12s14-------------------------|16-------------16-s14-14------|------------1614|
------------------------------|------------------------------|----------------|
------------------------------|------------------------------|----------------|
------------------------------|------------------------------|----------------|

                               __3___
----------------------------12|101210----------------5-------|----3-----------|
--------------------------13--|------13--12------------------|----------------|
12^-----r---------------14----|------------------6-----------|4-----------6---|
----------------------14------|-------------/7----------/5---|-------/7-------|
------------------------------|------------------------------|----------------|
------------------------------|------------------------------|----------------|

Verses:  (with Rhy. Fig. 1)
1. Welcome to where time stands still, noone lives and noone will
Moon is full never seems to change, just labeled mentally deranged
Dream the sane thing every night, I see our freedom in my sight
No locked doors, no windows barred , no things to make my brain seem scared

2. Build my fear of what's out there, cannot breath the open air
Whisper things into my brain, assuring me that I'm insane
They think our heads are in their hands, but violent use brings violent plans
Keep him tied, it makes him well, he's getting better can't you tell?

1.Sleep my friend and you will see that dream is my reality
2.No more can they keep us in, listen *** it we will win
----------------|----------------|--------|
----------------|----------------|--------|
----------------|----------------|--------| 8th=--
----------------|----------------|--------|
----2-2-----3-3-|----5-5---------|--------|
0-0-----0-0-----|0-0-----5-5-5-3-|3-3-5-3-|

1.Keep me locked up in this cage, can't they see it's why my brain says rage?
2.They see it right, they see it well, but they think this saves from our hell
----------------|----------------|--------|
----------------|----------------|--------|
----------------|----------------|--------|8th=--
----------------|----------------|--------|
----2-2-----3-3-|----5-5---------|--------|
0-0-----0-0-----|0-0-----5-5-5-3-|3-3-5-3-|

CHORUS
                                                 Sa   -    na   -
--------------------------------|--------------------------------|
--------------------------------|--------------------------------|
--------------------5s4-----5s4-|----------------_3_-------------|
------------5s4-----5s4-----5s4-|----------------020-------------|
------------5s4-----3s2-----3s2-|--------------------3-2---------|
0-------x-x-3s2-x-x-----x-x-----|------------------------5-3-2-3-|

tarium                                           leave   me
--------------------------------|--------------------------------|
--------------------------------|--------------------------------|
--------------------5s4-----5s4-|--------------------------------|
------------5s4-----5s4-----5s4-|--------------------------------|
------------5s4-----3s2-----3s2-|----2-2-2-2-2-2-3-2-------x-3---|
0-------x-x-3s2-x-x-----x-x-----|--------------------3-----x-1---|

be                                               Sa   -   ni    -
--------------------------------|--------------------------------|
--------------------------------|--------------------------------|
--------------------5s4-----5s4-|----------------_3_-------------|
------------5s4-----5s4-----5s4-|----------------020-------------|
------------5s4-----3s2-----3s2-|--------------------3-2---------|
0-------x-x-3s2-x-x-----x-x-----|------------------------5-3-2-3-|

tarium                                  just leave me alone
--------------------------------|--------------------------------| 1st time
--------------------------------|--------------------------------| go on with
--------------------5s4-----5---|4-------------------------------| the solo
------------5s4-----5s4-----5---|4-------------------------------| 2nd time
------------5s4-----3s2-----3---|2-------------------------------| skip to
0-------x-x-3s2-x-x-----x-x-----|--------------------------------| CODA

Now comes the second solo. The backing guitar plays a B chord for
the next line and then goes on 4 times with the backing rhythm 
of solo 1.


 ----------------------------------------------------------------|
 --------------------------------------------------------10------|
 ----------------------------------------7---7---9--s11----------|
 ------------------------7---7--s9-------------------------------|
 --------5---5---7--s9-------------------------------------------|
/7---------------------------------------------------------------|

For the next two lines we have two guitars soloing together.
For two notes they play on the same string (high E). In this
case the highest note is indicated above the tablature.

                22      22
--------15--17--19------19------19------------------------------|
17--19--------------------------17------------------------------|
----------------------------------------------------------------|
----------------------------------------------------------------|
----------------------------------------------------------------|
----------------------------------------------------------------|


                     
17-h19-p17------15------17-h19--17--------------17--19p17 17------|
19-h20-p19------17------19-h20--19------19------19--20p19 17------|
----------------------------------------19------------ -- --------|
------------------------------------------------------ -- --------|
------------------------------------------------------ -- --------|
------------------------------------------------------ -- --------|


15------------------------------|
--------------------------------|
16------------------------------|
--------------------------------|
--------------------------------|
--------------------------------|

14^---------------------r-------------------------------14--15--|
15^---------------------r-------15------------------------------|
----------------------------------------------------------------|
----------------------------------------------------------------|
----------------------------------------------------------------|
----------------------------------------------------------------|
                ___3____
17--15--14--15--14h15p14  ----14---------------- -- --------------------|
--------------------      17------17--17--14--15p14 16--14--------------|
--------------------      ---------------------- -- --------16--14-s12--|
--------------------      ---------------------- -- --------------------|
--------------------      ---------------------- -- --------------------|
--------------------      ---------------------- -- --------------------|

--------------------------------|
--------------------------------|
14-p12------12------------------|
--------16------16--14--12------|
----------------------------16--|
--------------------------------|

--------------------------------------------------------17------|
------------------------------------------------17-s15------15-s|
----------------------------------------------------------------|
12-h14----------------------------------------------------------|
----------------------------------------------------------------|
----------------------------------------------------------------|

----15----------14----------12----------10----------7-----------|
14------14-s12------12-s10------10-s8-------8-s-7-------7-------|
------------------------------------------------------------7---|
----------------------------------------------------------------|
----------------------------------------------------------------|
----------------------------------------------------------------|

--------------------------------|
--------------------------------|
----7---9-----9s11------9-------|
9-------------~-----------------|
--------------------------------|
--------------------------------|

----------------------------------------------------------------|
----------------------------------------------------------------|
9---------------------------------------9---9---9-------9-------|
----------------------------------------------------------------|
----------------------------------------------------------------|
----------------------------------------------------------------|

------------------------------------------------5---------------|
----------------------------------------------------------------|
9-------7-------------------------------6-----------------------|
----------------5--------------/7----------------------/5-------|
----------------------------------------------------------------|
----------------------------------------------------------------|

--------3-----------------------|
--------------------------------|
4-----------------------6-------| Now go back and play verse 2.
---------------/7---------------|
--------------------------------|
--------------------------------|

CODA

----------------|--------------------------------|
----------------|--------------------------------|
_3_-------------|--------------------5s4-----5---|
020-------------|------------5s4-----5s4-----5---|
----3-2---------|------------5s4-----3s2-----3---|
--------5-3-2-3-|0-------x-x-3s2-x-x-----x-x-----|


--------------------------------|----------------|----------
--------------------------------|----------------|----------
4-------------------------------|_3_-------------|----------
4-------------------------------|020-------------|2---------
2-------------------------------|----3-2---------|2---------
--------------------------------|--------5-3-2-3-|0---------

This last E chord lasts rather long for Metallica, while the song
doubles its tempo and the lyrics go "Just leave me alone".
Then you make a pick slide down the neck and you go:

----------------|----------------|----------------|----------------|
----------------|----------------|----------------|----------------|
----------------|----------------|----------------|----------------|
----------------|----------------|----------------|----------------|
----------------|----------------|----------------|----------------|
0-0-0-0-0-0-0-0-|0-0-0-0-0-0-0-0-|0-0-0-0-0-0-0-0-|0-0-0-0-0-0-0-0-|

----------------|----------------|----------------|----------------|
----------------|----------------|----------------|----------------|
----------------|----------------|----------------|----------------|
0h2---0h2-------|----------------|0h1---0h1---0h1-|--0h2-----------|
0h2---0h2-------|----------------|0h1---0h1---0h1-|--0h2-----------|
----------0-0-0-|0-0-0-0-0-0-0-0-|----------------|------0-0-0-0-0-|

Rhy. Fig. 2                                         (end Rhy.Fig. 2)
----------------|----------------|----------------|----------------| 
----------------|----------------|----------------|----------------| Repeat
----------------|----------------|----------------|----------------| this
0h1---0h1-------|----------------|0h1---0h1---0h1-|--0h2-----------| line
0h1---0h1-------|----------------|0h1---0h1---0h1-|--0h2-----------| 3 times
----------0-0-0-|0-0-0-0-0-0-0-0-|----------------|------0-0-0-0-0-|




             Fear of living on               Natives getting rest-
--------------------------------|--------------------------------|
--------------------------------|--------------------------------|
--------------------------------|------7-7-----------------------|
0-2---2-2-----------------------|0-2---7-7-----------------------|
0-2---2-2-----------------------|0-2---5-5-----------------------|
------0-0-----------------------|--------------------------------|

less now       mutiny in the air              got some death to do
--------------------------------|--------------------------------|
--------------------------------|--------------------------------|
--------------------------------|------5-5-------------4-4-------|
0-2---3-3-----------------------|0-2---5-5-------5-4---4-4-------|
0-2---3-3-----------------------|0-2---3-3-------3-2---2-2-------|
------1-1-----------------------|--------------------------------|

         Mirror stares back hard        "Kill" it's such a friend-
--------------------------------|--------------------------------|
--------------------------------|--------------------------------|
--------------------------------|------7-7-----------------------|
0-2---2-2-----------------------|0-2---7-7-----------------------|
0-2---2-2-----------------------|0-2---5-5-----------------------|
------0-0-----------------------|--------------------------------|

ly word       Seems the only way            for reaching out again
--------------------------------|--------------------------------|
--------------------------------|--------------------------------|
--------------------------------|------5-5-------------4-4-------|
0-2---3-3-----------------------|0-2---5-5-------5-4---4-4-------|
0-2---3-3-----------------------|0-2---3-3-------3-2---2-2-------|
------1-1-----------------------|--------------------------------|

--------------------------------|
--------------------------------|
--------------------------------|
--------------------------------|
--------------------------------|
0-0-0-0-0-0-0-0-0-0-0-0-12\-----|

Now we have another solo played over Rhy. Fig. 2 (4 times)

----------------------------------------------------------------|
----------------------------------------------------------------|
12--12--12--12--12--12--12--12--12--12--12--12--12--12--12--12--|
----------------------------------------------------------------|
----------------------------------------------------------------|
----------------------------------------------------------------|

----------------------------------------------------------------|
----------------------------------------------------------------|
16--12--12--12--12--12--12--12--12--12--12--12--12--12--12--12--|
----------------------------------------------------------------|
----------------------------------------------------------------|
----------------------------------------------------------------|

------------------------------------------------------------12--|
--------------------------------13--12--12--12--15--12--12------|
14--12--12--12--16--12--12--12----------------------------------|
----------------------------------------------------------------|
----------------------------------------------------------------|
----------------------------------------------------------------|

                ______3_______
13--12--12--12--15----12----12--17\---------------------12------|
-----------------------------------------------/12--------------|
----------------------------------------------------------------|
----------------------------------------------------------------|
----------------------------------------------------------------|
----------------------------------------------------------------|

17-p15-p12--------------12------17-p15-p12----------------------|
----------------17-p15--------------------------17-p15-p12------|
----------------------------------------------------------------|
----------------------------------------------------------------|
----------------------------------------------------------------|
----------------------------------------------------------------|

17-p15-p12--------------12------17-p15-p12--------------12------|
----------------17-p15--------------------------15-p12----------|
----------------------------------------------------------------|
----------------------------------------------------------------|
----------------------------------------------------------------|
----------------------------------------------------------------|

                                                ______3_______
17^---------------------r-------^---------------------17----15--|
------------------------------------------------17--------------|
----------------------------------------------------------------|
----------------------------------------------------------------|
----------------------------------------------------------------|
----------------------------------------------------------------|

14--------------14----------------------------------------------|
--------15--------------15--------------------------------------|
------------------------------------------------2---------------|
--------------------------------------------------------4-------|
----------------------------------------------------------------|
----------------------------------------------------------------|

----------------------------------------------------------------|
----------------------------------------------------------------|
----------------4-------2---------------2-------4---2-----------|
4^------------------------------4-----------------------4-------|
----------------------------------------------------------------|
----------------------------------------------------------------|

----------------------------------------------------------------|
----------------------------------------------------------------|
--------------------------------------------------------4-------|
3-------2---------------2^--------------------------------------|
----------------5-----------------------------------------------|
----------------------------------------------------------------|

----------------------------------------------------------------|
----------------5-----------------------5---------------5-------|
7^----------------------7^----------------------7^--------------|
----------------------------------------------------------------|
----------------------------------------------------------------|
----------------------------------------------------------------|

----------------------------------------------------------------|
--------5---------------5-------------------------------12------|
7^--------------7^--------------7\--------------14--------------|
----------------------------------------------------------------|
----------------------------------------------------------------|
----------------------------------------------------------------|

____________3__________         ___________3___________
--------------------------------15^--------15--------14---------|
15^--------15--------12-----------------------------------------|
----------------------------------------------------------------|
----------------------------------------------------------------|
----------------------------------------------------------------|
----------------------------------------------------------------|

____________3__________
12-------------------12-----------------------------------------|
-----------15-------------------15^---------------------17--17--|
----------------------------------------------------------------|
----------------------------------------------------------------|
----------------------------------------------------------------|
----------------------------------------------------------------|

15----------15--17--15------15--19--17-(15)--s--21------19--22--|
----17--18--------------19--------------------------------------|
----------------------------------------------------------------|
----------------------------------------------------------------|
----------------------------------------------------------------|
----------------------------------------------------------------|

22--19------22--22^-------------22^-----------------------------|
--------x-------------------------------------------------------|
-------------------------------------------End of solo 3--------|
----------------------------------------------------------------|
----------------------------------------------------------------|
----------------------------------------------------------------|


--------------------------------|--------------------------------|
--------------------------------|--------------------------------|
--------------------R-----------|------7-7-------7---R-----------|
0-2---2-2-------2---E-----------|0-2---7-7-------7---E-----------|
0-2---2-2-------2---S-----------|0-2---5-5-------5---S-----------|
------0-0-------0---T-----------|--------------------T-----------|


For the next part of the song there are 4 guitars playing from time
to time. We are going to use the following:

Rhy. Fig. 3
--------------------------------|--------------------------------|
--------------------------------|--------------------------------|
--------------------------------|------7-7-----------------------|
0-2---2-2-----------------------|0-2---7-7-----------------------|
0-2---2-2-----------------------|0-2---5-5-----------------------|
------0-0-----------------------|--------------------------------|

                                                 (end Rhy. Fig. 3)
--------------------------------|--------------------------------|
--------------------------------|--------------------------------|
--------------------------------|------5-5-------------4-4-------|
0-2---3-3-----------------------|0-2---5-5-------5-4---4-4-------|
0-2---3-3-----------------------|0-2---3-3-------3-2---2-2-------|
------1-1-----------------------|--------------------------------|

Riff 1
--------------------------------|--------------------------------|
--------------------------------|--------------------------------|
--------------------------------|2---------------2-2-2-----2-----|
(5)-------------5-5-5-4---5-----|----------------------5---------|
(7)-------------7-7-7-6---7-----|9---------------9-9-9-7---9-----|
--------------------------------|--------------------------------|

                                                      (end Riff 1)
--------------------------------|--------------------------------|
--------------------------+-----|--------------------------------|
----4-5---------5-5-5-7---5-----|--------------------------4-----|
5-----------------------------5-|----------------4-4-4-5-------5-|
10--9-8---------8-8-8-10--8---7-|----------------6-6-6-7---9---7-|
--------------------------+-----|--------------------------------|

Until the end of solo 4 one guitar plays Rhy. Fig. 3, another one
plays the following line...

--------------------------------|--------------------------------|
--------------------------------|--------------------------------|
--------------------------------|--------------------------------|
--------------------------------|--------------------------------|
------------5-s-7-7-7-5---7-----|9---------------9-9-9-7---9-----|
--------------------------------|--------------------------------|

--------------------------------|--------------------------------|
--------------------------------|--------------------------------|
--------------------------------|--------------------------------|
--------------------------------|--------------------------------|
10--9-8---------8-8-8-10--8---7-|----------------6-6-6-7---9-----|
--------------------------+-----|--------------------------------|

--------------------------------|--------------------------------|
--------------------------------|--------------------------------|
--------------------------------|--------------------------------|
--------------------------------|--------------------------------|
7---------------7-7-7-5---7-----|9---------------9-9-9-7---9---9-|
--------------------------------|--------------------------------|

--------------------------------|--------------------------------|
--------------------------------|--------------------------------|
--------------------------------|--------------------------------|
--------------------------------|------------------------------5-|
10--9-8---------8-8-8-10--8---7-|----------------6-6-6-7---9---7-|
--------------------------+-----|--------------------------------|

This last note on 5th fret of D string belongs to another guitar
whose line is tabbed in the upper part of Riff 1. All three
guitars play together Rhy. Fig. 3 and Riff 1 for 2 times, and then
continue for 2 times under the following solo 4.

 ----------------------------------------------------------------|
 ----------------------------------------------------------------|
 ----------------------------------------------------------------|
 ----------------------------------------------------------------|
 -------------------------------7---7---7---6-------7------------|
/7---------------------------------------------------------------|

----------------------------------------------------------------|
----------------------------------------------------------------|
----------------------------------------------------------------|
----------------------------------------------------------------|
9-------10--12------------------12--12--12--10------12----------|
----------------------------------------------------------------|

----------------------------------------------------------------|
----------------------------------------------------------------|
--------12--------------12------14^---------14^---------14^-----|
------------14------14------------------------------------------|
12-s14----------------------------------------------------------|
----------------------------------------------------------------|

----------------------------------------------------------------|
--------------------------------12----------12------------------|
12------------------------------12----------12------------------|
----14------------------14--14------14--14--------------14--14--|
----------------------------------------------------------------|
----------------------------------------------------------------|

----------------------------------------------------------------|
12----------12------------------__3___------------------12------|
12----------12----------12--14--14^r12--14--14------14----------|
----14--14----------14------------------------------------------|
----------------------------------------------------------------|
----------------------------------------------------------------|

                                                        ___3____
----12----------------------12--15^---------r-----------12h15p12|
--------12--15^---------15--------------------------------------|
14^-------------------------------------------------------------|
----------------------------------------------------------------|
----------------------------------------------------------------|
----------------------------------------------------------------|

___3____
15p12h15-------------------------------- ------------ ------------|
--------12------------------------------ ------------ ------------|
------------14--12------12--14^-r----p12 14--14^-rp12 14--14^-rp12|
--------------------14------------------ ------------ ------------|
---------------------------------------- ------------ ------------|
---------------------------------------- ------------ ------------|

----------------------------------------------------------------|
----------------------------------------------------------------|
14--14^-rp1214--14^-------------11--11--11--12------14---s--16--|
----------------------------------------------------------------|
----------------------------------------------------------------|
----------------------------------------------------------------|

----------------------------------------------------------------|
12-----s----17--17----------------------------------------------|
----------------------------------------------------------------|
------------------------------------End of solo 4---------------|
----------------------------------------------------------------|
----------------------------------------------------------------|

Together with the note on 12th fret of B string the backing guitars
go as follows until the end of the song.

--------------------------------|--------------------------------|
--------------------------------|--------------------------------|
--------------------------------|------7-7-----------------------|
0-2---2-2-----------------------|0-2---7-7-----------------------|
0-2---2-2--------------(8)\-----|0-2---5-5--------------(8)\-----|
------0-0--------------(6)\-----|-----------------------(6)\-----|

--------------------------------|--------------------------------|
--------------------------------|--------------------------------|
--------------------------------|------5-5-------------4-4-------|
0-2---3-3-----------------------|0-2---5-5-------5-4---4-4-------|
0-2---3-3--------------(8)\-----|0-2---3-3-------3-2---2-2-------|
------1-1--------------(6)\-----|--------------------------------|

--------------------------------|--------------------------------|
--------------------------------|----------------___3___---------|
----------------___3___---------|------7-7-------7--7--7-7-------|
0-2---2-2-------2--2--2-2-------|0-2---7-7-------7--7--7-7-------|
0-2---2-2-------2--2--2-2-------|0-2---5-5-------5--5--5-5-------|
------0-0-------0--0--0-0-------|--------------------------------|

--------------------------------|--------------------------------|
--------------------------------|----------------___3___---------|
----------------___3___---------|------5-5-------4--4--4-4-------|
0-2---3-3-------3--3--3-3-------|0-2---5-5-------4--4--4-4-------|
0-2---3-3-------3--3--3-3-------|0-2---3-3-------2--2--2-2-------|
------1-1-------1--1--1-1-------|--------------------------------|

--------------------------------|--------------------------------|
___3___---------___3___---------|--------------------------------|
4--4--4-4-------4--4--4-4-------|4-------2-----------------------|
4--4--4-4-------4--4--4-4-------|4-------2-------5-------4-------|
2--2--2-2-------2--2--2-2-------|2-------0-------5-------4-------|
--------------------------------|----------------3-------2-------|

--------------------------------|--------------------------------|----
--------------------------------|--------------------------------|----
--------------------------------|--------------------------------|----
2-------------------------------|--------------------------------|2\--
2-------------------------------|--------------------------------|2\--
0-------------------------------|--------------------------------|0\

4.HARVESTER OF SORROW

intro    both guitars 
|-------------------|------------------------|
|-------------------|------------------------|
|-------------------|------------------------|
|-------4-3-2-------|-2---------4-3-2--------|
|5-4-2--2-1-0--5-2--|-2----5-4-2--2-1-0-5-2--|
|3-2-0---------3-4--|-0----3-2-0--------3-4--|

  guitar 2
|-----------------------------|--------------------|
|-----------------------------|--------------------|
|-----------------------------|--------------------|X2
|--------3--2--------5--3--2--|-----3--0----0---0--|
|-----2----------2------------|---2--------0-------|
|--0----------0---------------|0----------3---1----|


   guitar 2
|-----------------------------|--------------------|
|-----------------------------|--------------------|
|-----------------------------|--------------------|
|--------3--2-------5--3--2---|------3--0---0---0--|
|-----2----------2------------|---2--------0-------|
|--0----------0---------------|0----------3---1----|
|  guitar 1                                        |X2
|--------------------------------------------------|
|--------------------------------------------------|
|--------------------------------------------------|
|-2------------------------------------------------|
|-2-LET-RING-~~------------------------------------|
|-0------------------------------------------------|





3 times      both guitars 
|-----------------------------|---------------------|
|-----------------------------|---------------------|
|-----------------------------|---------------------|
|--------3--2--------5--3--2--|--------3--0----0--0-|
|-----2-----------2-----------|-----2---------0-----|
|--0-----------0--------------|--0-----------3---1--|
PM...........................|


|-------------------------------|
|-------------------------------|
|-------------------------------|
|--------3--2--------4-3-2------|
|-----2--------5-4-2-2-1-0-5-4--|
|--0-----------3-2-0-------3-2--|
 PM....|


Rhy Fig 1 end Rhy Fig 1
|--------------------------------|--------------------------------|
|--------------------------------|--------------------------------|
|--------------------------------|--------------------------------|
|----------------------4\3-------|---------------------4\3--------|
|--2--2-2-2--2-2-5\4---2\1---5\3-|-3--3-3-3--3---5\4---2\1---5\4--|
|--0--0-0-0--0-0-3\2-0-----0-3\2-|-1--1-1-1--1-0-3\2-0-----0-3\2--|
 PM......................................|


Rhy Fig 1A end Rhy Fig 1A
|--------------------------------|---------------------------------|
|--------------------------------|---------------------------------|
|--------------------------------|---------------------------------|
|----------------------4\3-------|---------------------3-3-3-3-----|
|--2--2-2-2--2-2-5\4---2\1---5\3-|-3--3-3-3--3---5-4---1-1-1-1-----|
|--0--0-0-0--0-0-3\2-0-----0-3\2-|-1--1-1-1--1-0-3-2-0---------3---|
 PM.................................................|

|------------|------------|------------|----------|----------------|
|------------|------------|------------|----------|----------------|
|------------|------------|------------|----------|----------------|
|-2----------|------------|------------|----------|----------------|
|-2----------|---0--------|---0--------|----------|---1--(1) ~ ----|
|-0------0-1-|-2------0-1-|-2------2-1-|-0----0-1-|-2----------2-1-|



|------------|----------------------|------------------------|
|------------|----------------------|------------------------|
|------------|----4---4---4--4------|----------2---2--2------|
|------------|----2---2---2--2------|----------2---2--2------|
|------------|----2---2---2--2------|----1-----2---2--2------|
|-0------1-1-|--2-0---0---0--0--0-1-|-2-----0--0---0--0--0-1-|
 PM.............|      PM..|


|--------------------------|------------------------|
|--------------------------|------------------------|
|------------2---2--2------|----------2---2--2------|
|------------2---2--2------|----------2---2--2------|
|----1-------2---2--2------|----1-----2---2--2------|
|-2-----0----0---0--0--0-1-|-2-----0--0---0--0--0-1-|
 PM......| PM...........| PM..|


|-----------------------|------------------------|------------------------|
|-----------------------|------------------------|------------------------|
|---------4---4--4------|----------2---2--2------|----------4---4--4------|
|----0----5---5--5------|----------2---2--2------|----0-----5---5--5------|
|------5--5---5--5------|----1-----2---2--2------|-------5--5---5--5------|
|-2----3--3---3--3--0-1-|-2-----0--0---0--0--0-1-|-2-----3--3---3--3--0-1-|
 PM PM PM..........|    PM......| PM    PM..|


Verse

My life suffocates    planting the seeds of hate I've loved, turned to hate
|------------------------|----------------------------|-------------------------|
|------------------------|----------------------------|-------------------------|
|----2----2----2--2------|----2----2----2--2----------|----2----2----2--2-------|
|----2----2----2--2------|----2----2----2--2----------|----2----2----2--2-------|
|----2----2----2--2------|----2----2----2--2----------|----2----2----2--2-------|
|-2--0----0----0--0--0-1-|-2--0----0----0--0--0-1-----|-2--0----0----0--0--0-1--|
 PM PM..|

Trapped far beyond my fate i give, you take this life that i forsake
|------------------------|------------------------|------------------------|
|----3----3----3--3------|------------------------|------------------------|
|----4----4----4--4------|----2-----------2-------|----2----2----2--2------|
|----5----5----5--5------|----2-----------2-------|----2----2----2--2------|
|----5----5----5--5------|----2-----------2-------|----2----2----2--2------|
|-2--3----3----3--3--0-1-|-2--0----0-1-2--0---0-1-|-2--0----0----0--0--0-1-|




Been cheated of my youth you turnd this love to truth
|------------------------|------------------------|--------------------------|
|------------------------|----3----3----3--3------|--------------------------|
|----2----2----2--2------|----4----4----4--4------|--------------------------|
|----2----2----2--2------|----5----5----5--5------|-------3--2-------5--3--2-|
|----2----2----2--2------|----5----5----5--5------|----2----------2----------|
|-2--0----0----0--0--0-1-|-2--3----3----3--3--0-1-|-0-----------0------------|
                    PM......|        PM.|




|---------------------------|
|---------------------------|
|---------------------------|
|-------3--0----0-----------|
|----2---------0------------|
|-0-----------3------1--0-1-|



PRE CHORUS

Rhy Fig 2A

                         E5
Anger,  misery    you'll suffer unto me
|-------------------------|------------------------|---------------------------|
|-------------------------|------------------------|---------------------------|
|----2-----------2--------|----2----2----2--2------|---------------------------|
|----2-----------2--------|----2----2----2--2------|-------3--2--------5--3--2-|
|----2-----------2--------|----2----2----2--2------|----2-----------2----------|
|-2--0----0-1-2--0----0-1-|-2--0----0----0--0--0-1-|-0------------0------------|
PM   PM.....| PM......|         PM.........|     PM..|

E5
   End Rhy Fig 2A
|------------------------|
|------------------------|
|------------------------|
|-------3--0------0----0-|
|----2----------0--------|
|-0-----------3------1---|
 PM............|

|--------------------------------|-------------------------------|
|--------------------------------|-------------------------------|
|--------------------------------|-------------------------------|
|----------------------4\3-------|---------------------4-3-------|
|--2--2-2-2--2-2-5\4---2\1---5\3-|-3--3-3-3--3---5-4---2-1-0-5-4-|
|--0--0-0-0--0-0-3\2-0-----0-3\2-|-1--1-1-1--1-0-3-2-0-------3-2-|
 PM.................................................|




CHORUS
W/Rhy Fig 1

  Harvester of sorrow.     language of the mad.

W/Rhy Fig 1A

  Hayester of sorrow.




|-------------------------|---------------------------|
|-------------------------|---------------------------|
|-------------------------|---------------------------|
|-------3--2------5--3--2-|-------3--0------0---------|
|----2----------2---------|----2----------0----3------|
|-0-----------0-----------|-0-----------3------1--0-1-|
 PM......................................|


|-------------------------|-------------------------|
|-------------------------|-------------------------|
|----------4----4--4------|----------2----2--2------|
|----------2----2--2------|----------2----2--2------|
|----1-----2----2--2------|----1-----2----2--2------|
|-2-----0--0----0--0--0-1-|-2-----0--0----0--0------|



|-------------------------|------------------------|
|-------------------------|------------------------|
|----------2----2--2------|----------4---4--4------|
|----------2----2--2------|----0-----5---5--5------|
|----1-----2----2--2------|-------5--5---5--5------|
|-2-----0--0----0--0--0-1-|-2-----3--3---3--3--0-1-|





2nd Verse
W/Rhy Fig 2


Pure black looking clear. My work is done soon here.
Try getting back to me. Get back what used to be.
Drink up, shoot in.    Let the beatings begin.
Distributor of pain.    Your loss becomes my gain.


 Pre Chorus
 W/Rhy Fig 2A

 Anger, misery,    	you'll suffer onto me.

 Rhy Fig 1

Chorus
 W/Rhy Fig 1

 Harvester of sorrow.    Language of the mad.

 W/Rhy Fig 1a

 Harvester of sorrow.



|-------------------------|-------------------------|
|-------------------------|-------------------------|
|-------------------------|-------------------------|
|-------3--2------5--3--2-|------3----------5--3--2-|
|----2----------2---------|----2----------2---------|
|-0-----------0-----------|-0-----------0-----------|
 PM...|   PM..|     PM...| PM.|


|-------------------------|---------------------------|
|-------------------------|---------------------------|
|-------------------------|---------------------------|
|-------3--2------5--3--2-|-------3--0------0---------|
|----2---------2----------|----2----------0----5------|
|-0----------0------------|-0-----------3------3--0-2-|
 PM...|  PM..|       PM..| PM.|



SOLO:

|-------------------------------------|-------------------------------------|
|--15b17---15b17~---15b17---15b17r15b-|--r15--17b19--15b17---15b17-r15------|
|-------------------------------------|----------------------------------14-|
|-------------------------------------|-------------------------------------|
|-------------------------------------|-------------------------------------|
|-------------------------------------|-------------------------------------|
|
|--------------------------------------|------------------------------------|
|--------------------------------------|------------------------------------|
|-----2-----------------2--------------|----2---------2-----------2---------|
|-----2-----------------2--------------|----2---------2-----------2---------|
|-----2-----------------2--------------|----2---------2-----------2---------|
|--2--0----------0-1-2--0---------0-1--|-2--0---------0-----------0----0-1--|
                   



|--17b19---17b19---15p14----14----------------------------|
|------------------------17----17p15-17-14p14\12-14p12\10-|
|---------------------------------------------------------|
|---------------------------------------------------------|
|---------------------------------------------------------|
|---------------------------------------------------------|
|                                                         |
|---------------------------------------------------------|
|---------------------------------------------------------|
|-------2-------------------2-----------------------------|
|-------2-------------------2-----------------------------|
|-------2-------------------2-----------------------------|
|--2----0----------0--1--2--0-----------------------0--1--|




|---------------------------------------------------------------------|
|--12b14r12p10--12b14r12p10-12b14r12p10-12b14r12p10-12b14-~-~---------|
|-------------------------------------------------------------12--14--|
|---------------------------------------------------------------------|
|---------------------------------------------------------------------|
|---------------------------------------------------------------------|
|								      |
|---------------------------------------------------------------------|
|--------3-----------------3--------------------3-----------3---------|
|--------4-----------------4--------------------4-----------4---------|
|--------5-----------------5--------------------5-----------5---------|
|--------5-----------------5--------------------5-----------5---------|
|--2-----3-----------------3--------------------3-----------3----0--1-|




|--------------------------------------------------|
|--------------------------------------------------|
|--11h12p11----------------------------------------|
|---------------------------/14-~-~------------14--|
|------------14------14h15-------------------------|
|--------------------------------------------------|
|                                                  |
|--------------------------------------------------|
|--------------------------------------------------|
|-------2----------------------2-------------------|
|-------2----------------------2-------------------|
|-------2----------------------2-------------------|
|--2----0-----------0--1--2----0-------------0--1--|




|-----------------14-15/19---------17--15--|--15h17p15p14----14h15p14------|
|--------14-15-17--------------------------|---------------------------15--|
|--14h16-----------------------------------|-------------------------------|
|------------------------------------------|-------------------------------|
|------------------------------------------|-------------------------------|
|------------------------------------------|-------------------------------|
|
|------------------------------------------|-------------------------------|
|------------------------------------------|-------------------------------|
|-------2------------2--------2----2-------|-------------------------------|
|-------2------------2--------2----2-------|-------------------------------|
|-------2------------2--------2----2-------|---------0---------------------|
|-------0------------0--------0----0--0-1--|--2------------------------2-1-|



|----------------|-----------------|
|--17------------|--(17)-----------|
|----------------|-----------------|
|----------------|-----------------|
|----------------|-----------------|
|----------------|-----------------|
|
|----------------|-----------------|
|----------------|-----------------|
|----------------|-----------------|
|----------------|-----------------|
|-----1----------|-----1-----------|
|--2---------0-1-|--2----------0-1-|









|------------------------|----------------------------|-----------------------------
|----0----0----0--0------|----------------------------|-----------------------------
|----1----1----1--1------|------------------------2-3-|-----------------------------
|----2----2----2--2------|-2----------0--2--3-3-5-----|---------------------4\3-----
|----2----2----2--2------|-2--0h1p0-3-----------------|-2--2-2-2--2-2-5\4---2\1---3\
|-2--0----0----0--0--0-2-|-0--------------------------|-0--0-0-0--0-0-3\2-0-----0-5\
                   


|----------------------------|-------------------------------|
|----------------------------|-------------------------------|
|------------------------2---|-------------------------------|
|-2----------0--2--3-3-5---3-|---------------------4\3-------|
|-2--0h1p0-3-----------------|-3--3-3-3--3---5\4---2\1---3\1-|
|-0--------------------------|-1--1-1-1--1-0-3\2-0-----0-5\3-|
       

          
|------------------------------------|------------------------------------|
|------------------------------------|------------------------------------|
|--3p2p0-2-3-2-0---------------------|-3p2p0-2-3-5-3-3p2p0----------------|
|--3p2p0-2-3-2-0-3p2p0---------------|-3p2p0-2-3-5-3-3p2p0----------------|
|----------------3p2p0-2--2-2-2--2-2-|---------------------3--3-3-3--3----|
|----------------------0--0-0-0--0-0-|---------------------1--1-1-1--1-0--|



|-----------------------------------|
|-----------------------------------|
|-3p2p0-2-3-5-3-3p2p0---------------|
|-3p2p0-2-3-5-3-3p2p0----3-----3----|
|------------------------3-----3----|
|---------------------1--1-1-1-1----|

5.THE FOUR HORSEMEN

1) 
D--5---7-5 
A--3-5-5-3 
E----3---- 
intro 

2a) 
D-----------------------------------------5h7p5---- 
A--7-5-7-5-7-5-7-5---5-7-5-7-5-7-5----5h7-------7p5 
E--0-0-0-0-0-0-0-0-6---0-0-0-0-0-0--7-------------- 
pm........................................... 

2b) continued 
D--------------------------------------5---7-5 
A--7-5-7-5-7-5-7-5---5-7-5-7-5-7-5---5-3-5-5-3 
E--0-0-0-0-0-0-0-0-6---0-0-0-0-0-0-6-----3---- 
pm........................................... 
galloping 


3)                           1st   2nd   3rd 
D--------9-------9-------9-|-7-7-|-5-7-|-12-9-5---7-5 repeat. 
A--------7-------7-------7-|-5-5-|-3-5-|-10-7-3-5-5-3 
E--0-0-0---0-0-0---0-0-0---|-----|-----|--------3---- 
pm......   .....   ..... 
main 


4) 
D--9--9-7--7-5--5-4-*-9--9-7--7-5--4-5-4-- 
A--7--7-5--5-3--3-2-*-7--7-5--5-3--2-3-2-5 
E-------------------*--------------------3 
pm                                 ....... 
The horsemen are drawing nearer. 
*=slide pick 


5) 
D----------------------------------9-9-----------10-10 
A----------------------------------7-7-----------8--8- 
E--0-0-0-0-0--0-0-0-0-0--0-0-0-0-0-----0-0-0-0-0------ 
pm................................     ......... 


6) 
D------------------------------------------- 
A--7-5----5-------------------7-5----5------ 
E------7----7-6-5-3-5--0-3-5------7----7-6-5 


7) 
D--5-6-7----------3-2-0-2-------5-6-7 
A--3-4-5------0-3---------------3-4-5 
E---------0-0-------------0-0-0------ 
pm        ...             ..... 
Time... 


8) 
D--------------------------5-6-7 
A--------------------------3-4-5 
E--0-0-0-0-0-0-0-0-0-0-0-0------ 


9) 
G--------------------------4---------2---- 
D------9---------7---------------------2-- 
A--7-7---7---5-5---5---3-3---3---2-2-----2 
E----------7---------5---------3---------- 
Not often played live (although I have heard it) 


-------------------------------------------------------------------- 

solo 1 
|-----------------------------------------|--15b--12--15--14b~~~----| 
|--15b--15b--15b~~~--(15)p12--15--15b~~~--|-------------------------| 
|-----------------------------------------|---------------------\9--| 
|-----------------------------------------|-------------------------| 
|-----------------------------------------|-------------------------| 
|-----------------------------------------|-------------------------| 
                                                                                 

                                                                                 
7---------9--7------------10--9--7----------| 
---10--7--------10--8--7------------7h10p7--| 
--------------------------------------------| 
--------------------------------------------| 
--------------------------------------------| 
--------------------------------------------| 
                                                                                 

                                                                                 
---------------------------------|-------------------------------------| 
7--10p7--------------------------|-----12--12--12----12----12--12--12--| 
---------9--7--6h7--6------------|--9--11--11--11/11-11/11-11--11--11--| 
-----------------------7---------|-------------------------------------| 
--------------------------7--(7)\|-------------------------------------| 
---------------------------------|-------------------------------------| 
                                                                                 

                                                                                 
---------------------------------------------------------------------| 
---------------------------------------------------------------------| 
14b~~~--(14)--14p11--------------------------------------------------| 
--------------------14--12------12--14b--(14)p12------12~~~--12--12--| 
----------------------------14-------------------14------------------| 
---------------------------------------------------------------------| 
                                                                                 

                                                                                 
------------------------------------------------------------------------| 
-------------------------------------------------12--13p12------12--13--| 
11h12--11------11--12--11h12p11------11--12--14-------------14----------| 
-----------14--------------------14-------------------------------------| 
------------------------------------------------------------------------| 
------------------------------------------------------------------------| 
                                                                                 

                                                                                 
---------------------------------20--------| 
13/15--15/17--17/19--19/20--20~~~-----(20)\| 
-------------------------------------------| 
-------------------------------------------| 
-------------------------------------------| 
-------------------------------------------| 
                                                                                 

Gtr.2                                                                                 
17b--17b--15--17p15--14--15p14\12--14p12---------------------| 
----------------------------------------15--15--14--12--14\--| 
-------------------------------------------------------------| 
-------------------------------------------------------------| 
-------------------------------------------------------------| 
-------------------------------------------------------------| 
                                                                                 

                                                            
-------------------------------------------------------------------| 
12--10--12--10--8--10--8-----8-------------------------------------| 
--------------------------9-----9--7--9--7-------------------------| 
--------------------------------------------9--7-------------------| 
--------------------------------------------------10--7------------| 
---------------------------------------------------------10--7--7--| 
                                                         P.M.----|                      

Gtr.3                                                                                 
17b--17b--15--17p15--14--15p14--12--14p12--10--12p10--8--| 
---------------------------------------------------------| 
---------------------------------------------------------| 
---------------------------------------------------------| 
---------------------------------------------------------| 
---------------------------------------------------------| 
                                                                                 

                                                                                 
10p8--7--8p7--5--7--5-----5--------------------------------------| 
-----------------------8-----8--7--8p7--5--7--5--7---------------| 
----------------------------------------------------7--6---------| 
----------------------------------------------------------7--(7)/| 
-----------------------------------------------------------------| 
-----------------------------------------------------------------| 
                                                                                 

Gtrs.2&3                                                                                 
---------------------------------------------------------------12------12--| 
---------------------------8-----8--10--8--10--12--10--12--15------15------| 
---------7-----7--9--7--9-----9--------------------------------------------| 
9--7--9-----9--------------------------------------------------------------| 
---------------------------------------------------------------------------| 
---------------------------------------------------------------------------| 
P.M.------------------------------|                                                                                 

                                                                                 
15p12--12--12--15p12--12--12--12--15p12--12--12--12--12--12--12--12--15p12------ 
-------------------------------------------------------------------------------- 
-------------------------------------------------------------------------------- 
-------------------------------------------------------------------------------- 
-------------------------------------------------------------------------------- 
-------------------------------------------------------------------------------- 
                                                                                 

                                                                                 
12--12--12--12--12--15b--15b--| 
------------------------------| 
------------------------------| 
------------------------------| 
------------------------------| 
------------------------------| 
                                                                                 

                                                                                 
15b--15--12--15p12--15p12--15--12--12h15p12------12--15p12--12h15p12------12---- 
--------------------------------------------15-----------------------15--------- 
-------------------------------------------------------------------------------- 
-------------------------------------------------------------------------------- 
-------------------------------------------------------------------------------- 
-------------------------------------------------------------------------------- 
                                                                                 

                                                                                 
15p12--12h15p12------12--15p12--12--| 
-----------------15-----------------| 
------------------------------------| 
------------------------------------| 
------------------------------------| 
------------------------------------| 
                                                                                 

Gtr.2                                                                                 
15p12------12--15p12--12h15p12------12--15p12--15p12------12--15b--15b--15b--15\ 
-------15-----------------------15--------------------15------------------------ 
-------------------------------------------------------------------------------- 
-------------------------------------------------------------------------------- 
-------------------------------------------------------------------------------- 
-------------------------------------------------------------------------------- 
        
                                                                          
Gtr.3                                                                              
17p12--12h15p12------12--15p12--17p12--1h15p12------12--15p12--15--12----------- 
-----------------15-----------------------------15---------------------15------- 
-------------------------------------------------------------------------------- 
-------------------------------------------------------------------------------- 
-------------------------------------------------------------------------------- 
-------------------------------------------------------------------------------- 
                                                                                 

                                                                                 
-------------------|------------------------------------------------------| 
12-----------------|------------------------------------------------------| 
----14--12---------|--12h14--12p11h12p11------11--------------------------| 
------------14--12\|----------------------14------14--12p11h12p11\9--11p9\| 
-------------------|------------------------------------------------------| 
-------------------|------------------------------------------------------| 
                                                                                 

                                                                                 
---------------------------------------| 
---------------------------------------| 
---------------------------------------| 
7~~~-----------------------------------| 
---------------------------------------| 
---------------------------------------| 
                                                                                 

                                                                                 
-------------------------------------------------------|-----------------------| 
----------------------------------10--8--7h8p7---------|-----------------------| 
---7--9--7--9b--(9)p7-----7--9--7----------------7-----|-----------------------| 
9---------------------9----------------------------9---|--7~~~-----------------| 
-------------------------------------------------------|-----------------------| 
-------------------------------------------------------|-----------------------| 


solo 2 the faster one 
*There is a lot of riff repetition in this solo, for space sake I'll write the riff 
once and then repeat* 


1) 
e-----------------------------------14 
B--------------------------14----14--- 
G-----------------14----13----12------ 
D--------14----13----12--------------- 
A-----13----12------------------------ 
E--12--------------------------------- 


2)                                 ^   ^   ^  ^  ^ 
e-----12-15-12----12-17-12---    ----------------- 
B--15----------15----------15 8x -15--15--15-15-15 
G----------------------------    ----------------- 
D----------------------------    ----------------- 
A----------------------------    ----------------- 
E----------------------------    ----------------- 


3) 
e-------------    ------------------------------------------------ 
B--15p14p12--- 8x -15p14p12----12--------------------------------- 
G-----------14    ----------14----14-12-14-12----12--------------- 
D-------------    ----------------------------14----14-12-14-12--- 
A-------------    ----------------------------------------------14 
E-------------    ------------------------------------------------ 
                    (or something close) 

4)                            AH 
e------------------------------- 
B-----------------------12-12-12 
G-----------------------12------ 
D-----------------12-14--------- 
A-----------12-14--------------- 
E--12-14-15--------------------- 


5) **************************     ^   ^ 
e--19-19-19-19-19-19-19h22p19    -22--22 
B---------------------------- 6x ------- 
G----------------------------    ------- 
D----------------------------    ------- 
A----------------------------    ------- 
E----------------------------    ------- 
The 19's are picked as fast as possible, probably more than I have written, 
but I couldn't count them. 


6)                                            ^  ^  ^ 
e--19-21-22-21-19----19------------------    --------- 
B-----------------22----22-21-22-21-19--- 3x --------- 
G--------------------------------------21    -21-21-21 
D----------------------------------------    --------- 
A----------------------------------------    --------- 
E----------------------------------------    --------- 


7a)              7b)        7c)        7d)        ^   ^ 
e-----12-15-12  -19p15---  -17p14---  -21p17---  -22--22 
B--15---------  -------17  -------15  -------17  ------- 
G-------------  ---------  ---------  ---------  ------- 
D-------------  ---------  ---------  ---------  ------- 
A-------------  ---------  ---------  ---------  ------- 
E-------------  ---------  ---------  ---------  ------- 

6.THE THING THAT SHOULD NOT BE

tuning: D A D G B E

intro: (clean)
E|-----------------------------------------|
B|-----------------------------------------|
G|-----------------------------------------|
D|-----------------------------------------|
A|-0---2---------------0---2---------------|
D|-0---2---------------0---2---------------|

E|---------------------------------------------|
B|---------------------------------------------|
G|---------------------------------------------|
D|---------------------------------------------|
A|---------1----2----3-----------1----2----3---|
D|-0---2------2----2-----0---2------2----2-----|

riff 1
part 1:
E|------------------------------------|
B|------------------------------------|
G|------------------------------------|
D|----------3-3------4-4------5-5-----|
A|-0--0-1-2-1-1------2-2------3-3-----|
D|-0--0-1-2--------2--------2---------|  
    |__PM__|   |_PM_|   |_PM_|

part 2:
E|----------------------------------------|
B|----------------------------------------|
G|----------------------------------------|
D|-----------3-3--------4-4--------5-5----|
A|-0-0-0-1-2-1-1--------2-2--------3-3----|
D|-0-0-0-1-2--------2-2--------2-2--------|
  |___PM____|     |_PM_|     |_PM_|
         

riff 2
part 1:
E|-------------------------------------------------------------|
B|-------------------------------------------------------------|
G|-------------------------------------------------------------|
D|-------------------------------------------------------------|
A|10-7-7-7-10--10-10-6-3-3-3-6--6-6-7-4-4-4--7-7-1-1-1-1-1-1-1-|
D|10-7-7-7-10--10-10-6-3-3-3-6--6-6-7-4-4-4--7-7-1-1-1-1-1-1-1-|
     |_PM_|            |_PM_|         |_PM_|      |_____PM____|

part 2:
E|----------------------------------------------------------|
B|----------------------------------------------------------|
G|----------------------------------------------------------|
D|----------------------------------------------------------|
A|-0--2-----------------------------------------------------|
D|-0--2-----------------------------------------------------|

riff 3: (clean)
E|---------------------------|
B|---------------------------|
G|---------------------------|
D|---------------------------|
A|-0---2---------------------| 
D|-0---2---------------------|

E|-----------------------|
B|-----------------------|
G|-----------------------|
D|-----------------------|
A|---------1----2----3---|
D|-0---2------2----2-----|

riff 4:
E|-------------------|
B|-------------------|
G|-------------------|
D|-2--------3--------|
A|-0--------1--------|
D|-------------------|
                       
E|------------------------------------|
B|------------------------------------|
G|------------------------------------|
D|------------------------------------|
A|-0-5-6-5--6-5-0-0-0-0-0-0-0-0-0-0-0-|
D|-0-5-6-5--6-5-0-0-0-0-0-0-0-0-0-0-0-|
               |__________PM_________|

E|----------------------------|
B|----------------------------|
G|----------------------------|
D|----------2--------3--------|
A|-0-5-6-5�-0--------1--------|
D|-0-5-6-5�-------------------|

E|------------------------------------|
B|------------------------------------|
G|------------------------------------|
D|------------------------------------|
A|-0-5-6-5--6-5-0-0-0-0-0-0-0-0-0-0-0-|
D|-0-5-6-5--6-5-0-0-0-0-0-0-0-0-0-0-0-|
               |__________PM_________|

E|----------------------------------------|
B|----------------------------------------|
G|----------------------------------------|
D|----------2--------3--------------------|
A|-0-5-6-5�-0--------1--------5-----7-----|
D|-0-5-6-5�-------------------5-----7-----|

solo
rhythm guitar:
E|-------------------------|
B|-------------------------|
G|-------------------------|
D|-------------------------|
A|-5-6-5-6-0-0-0-0-0-0-0-0-|
D|-5-6-5-6-0-0-0-0-0-0-0-0-|

lead guitar: 
E|-7-h10p7-h10-p7-h10-p7-h10-p7-h10-p7-h10-p7-h10-p7-h10-p7-h10-p7-h10-p7-h10-|
B|----------------------------------------------------------------------------|
G|----------------------------------------------------------------------------|
D|----------------------------------------------------------------------------|
A|----------------------------------------------------------------------------|
E|----------------------------------------------------------------------------|
  |______________________________whammy pedal________________________________|


E|-p7-h10-p7-h10-p7-h10-p7-h10-p7-h10-p7-h10|
B|------------------------------------------|
G|------------------------------------------|
D|------------------------------------------|
A|------------------------------------------|
E|------------------------------------------|
  |_____________whammy pedal_______________|

E|-p7-h10-p7-h10-------------------------------10-10-10-10-|
B|---------------/17-b19-~---------------------------------|
G|---------------------------------------------------------|
D|---------------------------------------------------------|
A|---------------------------------------------------------|
E|---------------------------------------------------------|

E|14-p11-p10-14-p11-p10-14-p11-p10-14-p11-p10-14-p11-p10-14-p11-p10-14-p11-|
B|-------------------------------------------------------------------------|
G|-------------------------------------------------------------------------|
D|-------------------------------------------------------------------------|
A|-------------------------------------------------------------------------|
E|-------------------------------------------------------------------------|
  |________________________________wah____________________________________|

E|-p10-14-p11-p10-14-p11-p10-14-p11-p10-14-p11-p10------------------|
B|-------------------------------------------------13-b16-----/19---|
G|------------------------------------------------------------------|
D|------------------------------------------------------------------|
A|------------------------------------------------------------------|
E|------------------------------------------------------------------|
  |______________________wah______________________|

E|--------------9-10--9-h10-p-9-------------------------|
B|--------9-10------------------10--9-------------------|
G|-9-h10------------------------------11-10-------------|
D|------------------------------------------12-11--8�7--|
A|------------------------------------------------------|
E|------------------------------------------------------|

E|-----------------------|
B|-----------------------|
G|-----------------------|
D|8-h9---8~--------/3----|
A|-----------------------|
E|-----------------------|

E|----------14-p11-p10-14-p11-p10-14-p11-p10-14-p11-p10-|
B|------------------------------------------------------|
G|-0/9--------------------------------------------------|
D|------------------------------------------------------|
A|------------------------------------------------------|
E|------------------------------------------------------|
           |________________whammy pedal_______________|

E|-14-p11-p10-14-p11-p10-14-p11-p10---------------|
B|------------------------------------------------|
G|-------------------------------------12---12~---|
D|------------------------------------------------|
A|------------------------------------------------|
E|------------------------------------------------|
  |___________whammy pedal__________|

riff 5:
E|---------------------------------|
B|---------------------------------|
G|---------------------------------|
D|-----------------------------6-7-|
A|-5-6-5-0-----0-11-----0-22-5-4-3-|
D|-5-6-5---3-5------3-5------5-----|

E|-------------------|
B|-------------------|
G|-------------------|
D|-2--------3--------|
A|-0--------1--------|
D|-------------------|

E|---------------------------------|
B|---------------------------------|
G|---------------------------------|
D|-----------------------------6-7-|
A|-5-6-5-0-----0-11-----0-22-5-4-3-|
D|-5-6-5---3-5------3-5------5-----|

E|-------------------------------------|
B|-------------------------------------|
G|-------------------------------------|
D|-2--------3--------------------------|
A|-0--------1--------5--------7--------|
D|-------------------5--------7--------|

outro
part 1:
E|------------------|
B|------------------|
G|------------------|
D|------------------|
A|-5-6-5-0-----0-11-|
D|-5-6-5---3-5------|

part 2:
E|-------------------------|
B|-------------------------|
G|-------------------------|
D|-------------------------|
A|-5-6-5-6-0-0-0-0-0-0-0-0-|
D|-5-6-5-6-0-0-0-0-0-0-0-0-|

7.MASTER OF PUPPETS

Intro

|---|---------------------|
|---|---------------------|
|-9-|---------------------|
|-9-|----12---11---(10)---|
|-7-|----12---11---(10)---|
|-0-|----10---9----(8)----|


|------------------------------------------------------------------|
|------------------------------------------------------------------|
|------------------------------------------------------------------|
|----------------------12--11--10----------------------------------| x4
|----------------------12--11--10----------------------------------|
|-0-0-12-0-0-11-0-0----10--9---8----0-0-7-0-0-6-0-0-5-0-4-0-3-0-2--|
  .................                 .............................

|--------------------------------------------------------------------|
|--------------------------------------------------------------------|
|--------------------------------------------------------------------|
|--------------------------------------------------------------------| x2
|-----2-----3-----4-----3-----2-2-----2-----3------5\4---5\4---5\4---|
|-0-1---0-1---0-1---0-1---0-1-----0-1---0-1---0-0--3\2-0-3\2-0-3\2---|
  ...............................................

|--------------------------------------------------------------------|
|--------------------------------------------------------------------|
|-------------------------------------------------------------4------|
|-------------------------------------------------------------4------| 
|-----2-----3-----4-----3-----2-2-----2-----3-----4-----3-----2------| \
|-0-1---0-1---0-1---0-1---0-1-----0-1---0-1---0-1---0-1---0-1--------|  |
  ...........................................................           | x2
|--------------------------------------------------------------------|  |
|--------------------------------------------------------------------| /
|--------------------------------------------------------------------| 
|--------------------------------------------------------------------|
|-----2-----3-----4-----3-----2-2-----2-----3------5\4---5\4---5\4---|
|-0-1---0-1---0-1---0-1---0-1-----0-1---0-1---0-0--3\2-0-3\2-0-3\2---|
  ...............................................

|--------------------------------------------------------------------|
|--------------------------------------------------------------------|
|--------------------------------------------------------------------|
|------------------2------8------8------8------8------8b-------------|
|-5\4---5\4---5\4--2----7------7------7------7------7----------------|
|-3\2-0-3\2-0-3\2--0--0------0------0------0------0------------------|


|--------------------------------------------------------------------|
|--------------------------------------------------------------------|
|--------------------------------------------------------------------|
|--------------------------------------------------------------------| x6
|-----------------5/7--8\7--5/7------------------5/7--5/7------------|
|-0-0-0-0-0-0-0-0-3/5--6\5--3/5--0-0-0-0-0-0-0-0-3/5--3/5------------|
  ...............                ...............

|--------------------------------------------------------------------|
|--------------------------------------------------------------------|
|--------------------------------------------------------------------|
|------------------4-4--5\4-4-4-------------------4---4--------------| x2
|------------------0-2--3\2-0-2-------------------0h2-0h2------------|
|-2-2-2-2-2-2-2-2----------------2-2-2-2-2-2-2-2---------------------|
  ...............                ...............

|-------------------|
|-------------------|
|-4-4-4-4-4-4-4-4---|
|-4-4-4-4-4-4-4-4---|
|-2-2-2-2-2-2-2-2---|
|-------------------|

|--------------------------------------------------------------------|
|--------------------------------------------------------------------|
|-9-------7--9------------------------------------------8------------|
|-9-------7--9------9------------------10--9------------8--9---------| x3
|-7-------5--7--7-9---10-9h10----------10--9------------6--9---------|
|-0-0-0-0----------------------8-8-8-8-8---7----8-8-8-8----7---------|
    .....                      .......          .......

|--------------------------------------------------------------------|
|--------------------------------------------------------------------|
|-9-------7--9-------------------------------------------------------|
|-9-------7--9------9------------------10--9----------------2-2---3-3|
|-7-------5--7--7-9---10-9h10----------10--9--9-7-6--6------2-2---1-1|
|-0-0-0-0----------------------8-8-8-8-8---7-----------8-7--0-0---1-1|
    .....                      .......

|--------------------------------------------------------------------|
|--------------------------------------------------------------------|
|------------------------------------------------------------------5-|
|-------------------5------4-----2---7------5-----4----------9-----5-|
|-2------4------5---3--0-0-2-0-0-0---5------3-----2---2------7-----3-|
|-0--0-0-2--0-0-3-----------------------0-0---0-0-----0--0-0---0-0---|
     ...    ...        ...   ...        ...   ...        ...   ...

|--------------------------------------------------------------------|
|--------------------------------------------------------------------|
|----------------------------------5---------------------------------|
|-2--2----3--3---------------7-----5--------2--2----3--3-------------|
|-2--2----3--3--------2------5-----3--------2--2----3--3-------------|
|-0--0----1--1--------0--0-0---0-0----------0--0----1--1-------------|
                         ...   ...
                              
|--------------------------------------------------------------------|
|--------------------------------------------------------------------|
|-------------------------------------------------------------4------|
|-------------------------------------------------------------4------|
|-----2-----3-----4-----3-----2-2-----2-----3-----4-----3-----2------|
|-0-1---0-1---0-1---0-1---0-1-----0-1---0-1---0-1---0-1---0-1--------|
  ...........................................................

|--------------------------------------------------------------------|
|--------------------------------------------------------------------|
|--------------------------------------------------------------------|
|--------------------------------------------------------------------|
|-----2-----3-----4-----3-----2-2-----2-----3------5\4---5\4---5\4---|
|-0-1---0-1---0-1---0-1---0-1-----0-1---0-1---0-0--3\2-0-3\2-0-3\2---|
  ...............................................

|-------------------|
|-------------------|
|-------------------|
|-------------------|
|-5\4---5\4---5\4---|
|-3\2-0-3\2-0-3\2---|

|--------------------------------------------------------------------|
|--------------------------------------------------------------------|
|--------------------------------------------------------------------|
|--------------------------------------------------------------------| x6
|-----------------5/7--8\7--5/7------------------5/7--5/7------------|
|-0-0-0-0-0-0-0-0-3/5--6\5--3/5--0-0-0-0-0-0-0-0-3/5--3/5------------|
  ...............                ...............

|--------------------------------------------------------------------|
|--------------------------------------------------------------------|
|--------------------------------------------------------------------|
|------------------4-4--5\4-4-4-------------------4---4--------------| x2
|------------------0-2--3\2-0-2-------------------0h2-0h2------------|
|-2-2-2-2-2-2-2-2----------------2-2-2-2-2-2-2-2---------------------|
  ...............                ...............

|-------------------|
|-------------------|
|-4-4-4-4-4-4-4-4---|
|-4-4-4-4-4-4-4-4---|
|-2-2-2-2-2-2-2-2---|
|-------------------|

|--------------------------------------------------------------------|
|--------------------------------------------------------------------|
|-9-------7--9------------------------------------------8------------|
|-9-------7--9------9------------------10--9------------8--9---------| x3
|-7-------5--7--7-9---10-9h10----------10--9------------6--9---------|
|-0-0-0-0----------------------8-8-8-8-8---7----8-8-8-8----7---------|
    .....                      .......          .......

|--------------------------------------------------------------------|
|--------------------------------------------------------------------|
|-9-------7--9-------------------------------------------------------|
|-9-------7--9------9------------------10--9----------------2-2---3-3|
|-7-------5--7--7-9---10-9h10----------10--9--9-7-6--6------2-2---1-1|
|-0-0-0-0----------------------8-8-8-8-8---7-----------8-7--0-0---1-1|
    .....                      .......

|--------------------------------------------------------------------|
|--------------------------------------------------------------------|
|------------------------------------------------------------------5-|
|-------------------5------4-----2---7------5-----4----------9-----5-|
|-2------4------5---3--0-0-2-0-0-0---5------3-----2---2------7-----3-|
|-0--0-0-2--0-0-3-----------------------0-0---0-0-----0--0-0---0-0---|
     ...    ...        ...   ...        ...   ...        ...   ...

|--------------------------------------------------------------------|
|--------------------------------------------------------------------|
|----------------------------------5---------------------------------|
|-2--2----3--3---------------7-----5--------2--2----3--3-------------|
|-2--2----3--3--------2------5-----3--------2--2----3--3-------------|
|-0--0----1--1--------0--0-0---0-0----------0--0----1--1-------------|
                         ...   ...

 Clean\Acoustic Strum Riff:
|----------------0h2p0-----3------------------------------------------|
|-------------3--------3-----------3---3-----0-----0-------0-------0--|
|------0----2---2--------2-------0---0---0-------2-------2-------2----|
|----2----0--------------------------------2-----------------0-1------| x2
|--2---------------------------3---------------0-----0-2-------------2|
|0--------------------------------------------------------------------|

 Pre-Solo Riff:
|----19-15----17-14-------------17-14----15-12------------------|
|-17-------17-------15-15-15-15-------15-------13-13-13-13------|
|---------------------------------------------------------------|
|---------------------------------------------------------------|
|---------------------------------------------------------------|
|---------------------------------------------------------------| \
                                                                   | x2
|-15-12----14-12h14p12-11-------------------11-12-14------------| /
|-------13----------------13-12-13-15-13-15---------------------|
|---------------------------------------------------------------|
|---------------------------------------------------------------|
|---------------------------------------------------------------|
|---------------------------------------------------------------|

 Solo 1:
|----------------15----15-17----19-15-12-----------------------------|
|-17-17-17-17-19----19-------19----------13~~------------------------|
|--------------------------------------------------------------------|
|--------------------------------------------------------------------|
|--------------------------------------------------------------------|
|--------------------------------------------------------------------|

|---------15-14----15-14---------------------------------------------|
|-15b-15b-------12-------12----------15------------------------------|
|---------------------------12-14-12-14b-14-12-----------------------|
|----------------------------------------------14~~------------------|
|--------------------------------------------------------------------|
|--------------------------------------------------------------------|

|--------------------------------------------------------------------|
|--------------------------------------------------------------------|
|-12-------12-12h14p12-11----14-12-11--------------------------------|
|----14-12----------------12----------10~~---------------------------|
|--------------------------------------------------------------------|
|--------------------------------------------------------------------|

|----------------------------15-11/12-11-------12//19----------------|
|----------------------------------------12-11-11//17----------------|
|--------------------9-10-12-----------------------------------------|
|-7-9-10~~-7-9-10-12-------------------------------------------------|
|--------------------------------------------------------------------|
|--------------------------------------------------------------------|

 
|----19-15----17-14-------------17-14----15-12------------------|
|-17-------17-------15-15-15-15-------15-------13-13-13-13------|
|---------------------------------------------------------------|
|---------------------------------------------------------------|
|---------------------------------------------------------------|
|---------------------------------------------------------------| \
                                                                   | x2
|-15-12----14-12h14p12-11-------------------11-12-(14)~~--------| /
|-------13----------------13-12-13-15-13-15---------------------|
|---------------------------------------------------------------|
|---------------------------------------------------------------|
|---------------------------------------------------------------|
|---------------------------------------------------------------|

 Acoustic Strum riff distorted:
|----------------0h2p0-----3------------------------------------------|
|-------------3--------3-----------3---3-----0-----0-------0-------0--|
|------0----2---2--------2-------0---0---0-------2-------2-------2----|
|----2----0--------------------------------2-----------------0-1------| x2
|--2---------------------------3---------------0-----0-2-------------2|
|0--------------------------------------------------------------------|

|--------------------------------------------------------------------|
|--------------------------------------------------------------------|
|--------------------------------------------------------------------|
|--------------------------------------------------------------------|
|-2--2--2--2--2--2--2--2--2--2--2--2--2--2--2--2---------------------|
|-0--0--0--0--0--0--0--0--0--0--0--0--0--0--0--0---------------------|

|---------------------------------------------------------------------|
|---------------------------------------------------------------------|
|---------------------------------------------------------------------|
|---------------6-6---------------6---------------6-6---------------6-| x2
|-4-4-5-4-4-4-5-4-4-4-4-5-4-4-4-5-4-4-4-5-4-4-4-5-4-4-4-4-5-4-4-4-5-4-|
|-2-2-3-2-2-2-3-----2-2-3-2-2-2-3---2-2-3-2-2-2-3-----2-2-3-2-2-2-3---|

(let ring)
|--------------------------------------------------------------------|
|--------------------------------------------------------------------|
|--------------------------------------------------------------------|
|--------------------------------------------------------------------|
|-5--------4--------2------------------------------------------------|
|-3--------2--------0------------------------------------------------|

 Solo 2 (double fast):
|-17p12----------12-17p12----------12-17p12----------12-15p12----------12-|
|-------13-12-13----------13-12-13----------13-12-13----------13-12-13----|
|-------------------------------------------------------------------------|
|-------------------------------------------------------------------------|
|-------------------------------------------------------------------------|
|-------------------------------------------------------------------------|

|-17p12----------12-17p12----------12-17p12----------12-15p12----------12-|
|-------13-12-13----------13-12-13----------13-12-13----------13-12-13----|
|-------------------------------------------------------------------------|
|-------------------------------------------------------------------------|
|-------------------------------------------------------------------------|
|-------------------------------------------------------------------------|

|-19-19-19-17-17-17-15-15-15-14-14-14-17-17-17-15-15-15-14-14-14----------|
|----------------------------------------------------------------15-15-15-|
|-------------------------------------------------------------------------|
|-------------------------------------------------------------------------|
|-------------------------------------------------------------------------|
|-------------------------------------------------------------------------|

|---------------17p15-----------------23b-23b-23b--24b-24b-24b------------|
|-17bb-17p15p14-------15p14-----------------------------------------------|
|---------------------------16-14~----------------------------------------|
|-------------------------------------------------------------------------|
|-------------------------------------------------------------------------|
|-------------------------------------------------------------------------|

|---------------------------10-8-7----8-7------7~~------------------------|
|----------------------------------10-----10-8----------------------------|
|-2-4-2b-4-3-2-2h4p2------------------------------------------------------|
|--------------------2-2h4~-----------------------------------------------|
|-------------------------------------------------------------------------|
|-------------------------------------------------------------------------|

|-10p8p7-10p8p7-12p10p9-12p10p9-14p12p11-14p12p11-------------------------|
|-------------------------------------------------------------------------|
|-------------------------------------------------------------------------|
|-------------------------------------------------------------------------|
|-------------------------------------------------------------------------|
|-------------------------------------------------------------------------|

|-17p15-14-19p17-14-17p15-14-19p17-14-17p15-14-19p17-14-17p15-14-19p17-14-|
|-------------------------------------------------------------------------|
|-------------------------------------------------------------------------|
|-------------------------------------------------------------------------|
|-------------------------------------------------------------------------|
|-------------------------------------------------------------------------|

|-----14-----14-----14-----14-19p14----14-19p14----14-19p14----14---------|
|-17b----17b----17b----17b----------17----------17----------17------------|
|-------------------------------------------------------------------------|
|-------------------------------------------------------------------------|
|-------------------------------------------------------------------------|
|-------------------------------------------------------------------------|

|-----14-----14-----14-----14-----15-----15-----15-----15-----------------|
|-17b----17b----17b----17b----18b----18b----18b----18b--------------------|
|-------------------------------------------------------------------------|
|-------------------------------------------------------------------------|
|-------------------------------------------------------------------------|
|-------------------------------------------------------------------------|

|-----16-----16-----17----17-----18-----18--22/\/\/\/\/\/\----------------|
|-19b----19b----20b----20----21b----21b-----------------------------------|
|-------------------------------------------------------------------------|
|-------------------------------------------------------------------------|
|-------------------------------------------------------------------------|
|-------------------------------------------------------------------------|
                                     *end of solo 2, tremolo vib*

|-------------------------------------------------------------------------|
|-------------------------------------------------------------------------|
|-------------------------------------------------------------------------|
|-----------------------------4-4-----------------------------4-----------| x2
|-----4-----5-----4-----5-----2-2-----4-----5-----4-----5-----2-----------|
|-0-0-2-0-0-3-0-0-2-0-0-3-0-0-----0-0-2-0-0-3-0-0-2-0-0-3-0-0-------------|
  ...   ...   ...   ...   ...     ...   ...   ...   ...   ...

|-------------------------------------------------------------------------|
|-------------------------------------------------------------------------|
|-------------------------------------------------------------------------|
|-------------------------------2-4-5-5-----------------------------------| x3
|-------------------------2-3-5-------3--333-2-3-5-3-2--------------------|
|-0-0-0-0-0-0-0-000-2-3-5------------------------------3-2----------------|
  .................

|------------------------------------------------------------------------------|
|------------------------------------------------------------------------------|
|------------------------------------------------------------------------------|
|-------------------------------2-4-5-5----------------------------------------|
|-------------------------2-3-5-------3--333-2-3-5-3-2-----2--333-2-3-5-3-2----|
|-0-0-0-0-0-0-0-000-2-3-5------------------------------3-2-0----------------3-2|
  .................

|--------------------------------------------------------------------|
|--------------------------------------------------------------------|
|-------------------------------------------------------------4------|
|-------------------------------------------------------------4------|
|-----2-----3-----4-----3-----2-2-----2-----3-----4-----3-----2------|
|-0-1---0-1---0-1---0-1---0-1-----0-1---0-1---0-1---0-1---0-1--------|
  ...........................................................

|--------------------------------------------------------------------|
|--------------------------------------------------------------------|
|--------------------------------------------------------------------|
|--------------------------------------------------------------------|
|-----2-----3-----4-----3-----2-2-----2-----3------5\4---5\4---5\4---|
|-0-1---0-1---0-1---0-1---0-1-----0-1---0-1---0-0--3\2-0-3\2-0-3\2---|
  ...............................................

|-------------------|
|-------------------|
|-------------------|
|-------------------|
|-5\4---5\4---5\4---|
|-3\2-0-3\2-0-3\2---|

|--------------------------------------------------------------------|
|--------------------------------------------------------------------|
|--------------------------------------------------------------------|
|--------------------------------------------------------------------| x6
|-----------------5/7--8\7--5/7------------------5/7--5/7------------|
|-0-0-0-0-0-0-0-0-3/5--6\5--3/5--0-0-0-0-0-0-0-0-3/5--3/5------------|
  ...............                ...............

|--------------------------------------------------------------------|
|--------------------------------------------------------------------|
|--------------------------------------------------------------------|
|------------------4-4--5\4-4-4-------------------4---4--------------| x2
|------------------0-2--3\2-0-2-------------------0h2-0h2------------|
|-2-2-2-2-2-2-2-2----------------2-2-2-2-2-2-2-2---------------------|
  ...............                ...............

|-------------------|
|-------------------|
|-4-4-4-4-4-4-4-4---|
|-4-4-4-4-4-4-4-4---|
|-2-2-2-2-2-2-2-2---|
|-------------------|

|--------------------------------------------------------------------|
|--------------------------------------------------------------------|
|-9-------7--9------------------------------------------8------------|
|-9-------7--9------9------------------10--9------------8--9---------| x3
|-7-------5--7--7-9---10-9h10----------10--9------------6--9---------|
|-0-0-0-0----------------------8-8-8-8-8---7----8-8-8-8----7---------|
    .....                      .......          .......

|--------------------------------------------------------------------|
|--------------------------------------------------------------------|
|-9-------7--9-------------------------------------------------------|
|-9-------7--9------9------------------10--9----------------2-2---3-3|
|-7-------5--7--7-9---10-9h10----------10--9--9-7-6--6------2-2---1-1|
|-0-0-0-0----------------------8-8-8-8-8---7-----------8-7--0-0---1-1|
    .....                      .......

|--------------------------------------------------------------------|
|--------------------------------------------------------------------|
|------------------------------------------------------------------5-|
|-------------------5------4-----2---7------5-----4----------9-----5-|
|-2------4------5---3--0-0-2-0-0-0---5------3-----2---2------7-----3-|
|-0--0-0-2--0-0-3-----------------------0-0---0-0-----0--0-0---0-0---|
     ...    ...        ...   ...        ...   ...        ...   ...

|--------------------------------------------------------------------|
|--------------------------------------------------------------------|
|----------------------------------5---------------------------------|
|-2--2----3--3---------------7-----5--------2--2----3--3-------------|
|-2--2----3--3--------2------5-----3--------2--2----3--3-------------|
|-0--0----1--1--------0--0-0---0-0----------0--0----1--1-------------|
                         ...   ...

|--------------------------------------------------------------------|
|--------------------------------------------------------------------|
|--------------------------------------------------------------------|
|--------------------------------------------------------------------| x4
|-----------------5/7--8\7--5/7------------------5/7--5/7------------|
|-0-0-0-0-0-0-0-0-3/5--6\5--3/5--0-0-0-0-0-0-0-0-3/5--3/5------------|
  ...............                ...............

*pause ("Ha Ha Ha Ha")*

|--------------------------------------------------------------------|
|--------------------------------------------------------------------|
|--------------------------------------------------------------------|
|----------------------(*maniac laughter*)---------------------------|
|-5\4---5\4---5\4-2--------------------------------------------------|
|-3\2-0-3\2-0-3\2-0--------------------------------------------------|

8.FADE TO BLACK

Acoustic gtr.
|------------------------|------------------------|
|------------------------|------------------------|
|-------0----------------|-------0----------------|
|----4-----4-----4-----4-|----4-----4-----4-----4-|
|-2-----------2-----5----|-0-----------0-----5----|
|------------------------|------------------------|

|------------------------|------------------------|
|------------------------|------------------------|
|-------0----------------|-------2----------------|
|----4-----4-----4-----4-|----2-----2-----2-----2-|
|-2-----------2-----5----|-4-----------4-----0----|
|------------------------|------------------------|

w/Flanger or chorus
|----------------------------------------------------------|
|-----------------------------------------------7----------|
|--------------------------------------------7-(7)---------|
|--------------------------------------/-9-----------9-----|
|----------------------------------------------------------|
|----------------------------------------------------------|

|--------------------------|-----------------------|
|-----7--8-/-10------8--10-|-12---10---8---10------|
|--------------------------|-----------------------|
|--------------------------|-----------------------|
|--------------------------|-----------------------|
|--------------------------|-----------------------|

           p  p sl  h p           h
|------------------------------|---------------------|
|-(10)---12^10^8-\-7^8^7-----7-|-7^8--7-----7--------|
|-------------------------9----|---------9-----9---7-|
|------------------------------|---------------------|
|------------------------------|---------------------|
|------------------------------|---------------------|

                    sl  sl               p
|----------------------------|-----------------|-----|
|----------------------------|---------------8-|-7---|
|----------------------7-\-6-|----------7^6----|-----|
|-7---9----------(9)-\-------|-----------------|-----|
|----------------------------|-----------------|-----|
|----------------------------|-----------------|-----|

   sl   ~~~~~~~~~~~~~~
|---------------------|
|-8-/-10--------------|
|---------------------|
|---------------------|                   
|---------------------|                     
|---------------------|                     
                                           full  
                   p                        )\ ~~~~~~~~~~~~~
|---14-19-14-----15^14---------------------/--\------------|
|-15--------15--------15---17-15-14-------/----\-----------|
|-------------16--------14---------16-14-/----(14)---------|
|----------------------------------------------------------|
|----------------------------------------------------------|
|----------------------------------------------------------|

    h     ~~~~~~~~~~   h                  h  p
|---------------------------------------------------------|
|---------------------------------14-15-14^15^14----14^15-|
|-14^16---------------------14-16----------------16-------|
|--------14----------14^16--------------------------------|
|---------------------------------------------------------|
|---------------------------------------------------------|

                                         ~~~~~~~~~~~~~~~~~
|----19--17--15----------15--17-|-14----------------------|
|-14----------------------------|----15-------------------|
|-------------------------------|-------16----------------|
|-------------------------------|-------------------------|
|-------------------------------|-------------------------|
|-------------------------------|-------------------------|

|-14--15--14--------------14--15--14------17----15--14-----|
|---------------15--------------------15-------------------|
|------------------14--------------------------------------|
|----------------------------------------------------------|
|----------------------------------------------------------|
|----------------------------------------------------------|

                                              h  h
|------------------------|---------12-13-15-12^13^15---17--|
|------------------------|-12-13-15------------------15----|
|------------------12-14-|---------------------------------|
|----------12-14-15------|---------------------------------|
|-12-14-15---------------|---------------------------------|
|------------------------|---------------------------------|

Acoustic gtr.
|------------------------|---------------------------|
|------------------------|-------------------0----3--|
|------------------------|-------1--------1----------|
|-------0-----------2----|----2--------2-------------|
|----3-----------2-----2-|-2--------2----------------|
|-1--------1--4----------|---------------------------|

   h             h
|----------0----------|------------0----------|
|-0^1---------------1-|-(1)---1-------------0-|
|-2---2---------0^2---|--0--------------0^2---|
|-2-----2-----2-------|--2------2-----2-------|
|-0-------------------|--3--------------------|
|---------------------|-----------------------|

                                        sl
|------------3-----3--3-|---------------------|
|-(0)---3---------------|---------0--(1)-/-3--|
|--0---------------2--0-|-0-------0--(2)-/-4--|
|---------0-----0-------|-----2---------------|
|-----------------------|-------2-------------|
|--3--------------------|-0-------------------|

   h              h                       h
|----------0-----------|------------0----------|
|-0^1----------------1-|-(1)---1-------------0-|
|-2---2----------0^2---|--0--------------0^2---|
|-2-----2-----2--------|--2------2-----2-------|
|-0--------------------|--3--------------------|
|----------------------|-----------------------|

                     h p                        sl
|-------------3-------------|-0------------------------|
|-(0)---3-------------------|-0----------0---(1)-/-3---|
|--0----------------0^2^0-0-|-0----------0---(2)-/-4---|
|----------0-----0----------|-2----2-------------------|
|---------------------------|---------2----------------|
|--3------------------------|----0---------------------|

P.M.--------------------|               P.M.-------|
|------------------------|--------------------------|
|-5--5--5--5--5--5--5--5-|-0-------2--2-------------|
|-5--5--5--5--5--5--5--5-|-2-------2--2-------------|
|-2--2--2--2--2--2--2--2-|-2-------2--2-------------|
|------------------------|-0-------0--0-----------5-|
|-0--0--0--0--0--0--0--0-|---------------0--0--3----|

               P.M.-------|
|--------------------------|
|-5-------5--5-------------|
|-5-------5--5-------------|
|-5-------5--5-------------|
|-3-------3--3-----------5-|
|---------------0--0--3----|
                                 P.M.--------|
|---------------------------------------------|
|-2-------2--2-----7---9-----9--9-------------|
|-2-------2--2-----7---9-----9--9-------------|
|-2-------2--2-----7---9-----9--9--------5--5-|
|-0-------0--0-----5---7-----7--7--------3--2-|
|----------------------------------0--0-------|

               P.M.------|                P.M.-------|
|--------------------------|--------------------------|
|-0-------2--2-------------|-5-------5--5-------------|
|-2-------2--2-------------|-5-------5--5-------------|
|-2-------2--2-------------|-5-------5--5-------------|
|-0-------0--0-----------5-|-3-------3--3-----------5-|
|---------------0--0--3----|---------------0--0--3----|

               P.M.--|
|---------------------|------------|
|-2-------2--2--------|------------|
|-2-------2--2--------|-1----------|
|-2-------2--2--------|-2----------|
|-0-------0--0--5--5--|-2----------|
|---------------3--2--|-0----------|

    ~~~~~~~~~~~           ~~~~~    sl
|---------------------|--------------------------|
|-10-----------10--12-|-13------13-/-15--13--12--|
|--9------------9--11-|-12------12-/-14--12--11--|
|---------------------|--------------------------|
|---------------------|--------------------------|
|---------------------|--------------------------|

  ~~~~~~~~~~~~~~~~   sl       ~~~~~~~~~~~  sl        sl
|--------------------------|------------------------------|
|--------------------------|------------------------------|
|-12---------------12-/-14-|-9-----------9-/-11---11-/-12-|
|-12---------------12-/-14-|-9-----------9-/-11---11-/-12-|
|--------------------------|------------------------------|
|--------------------------|------------------------------|
                                            
                                            full
                                             /\  
    sl   ~~~~~~~~~~~~~~           ~~~~~~     ) )\
|-----------------------------|-------------/-/--\---------|
|--------------------------12-|-13------15-/-/------13-----|
|-12-/-14--------------14--11-|-12------14--/-------12-----|
|-12-/-14--------------14-----|----------------------------|
|-----------------------------|----------------------------|
|-----------------------------|----------------------------|

     full    full    full    full
      /\      /\      /\      /\
      ) )     ) )     ) )     ) )\  ~~~~~~~~~~~~~~~~~~~~~~~
|----/-/-----/-/-----/-/-----/-/|-\------------------------|
|-15/-/---15/-/---15/-/---15/-/-|(15)----------------------|
|-14-/----14-/----14-/----14-/--|(14)----------------------|
|-------------------------------|--------------------------|
|-------------------------------|--------------------------|
|-------------------------------|--------------------------|

   sl                    sl          sl
|---------------------|--------------------------|
|---------------------|--------------------------|
|-7-/-9-------9---9---|-7-/-9-------9-/-12--11---|
|-7-/-9-------9---9---|-7-/-9-------9-/-12--11---|
|-5-/-7-------7---7---|-5-/-7-------7-/-10---9---|
|---------------------|--------------------------|

                        P.M.------------------------|
|-----------------------|-------------------------------|
|-----------------------|-------------------------------|
|---7-------7---7-------|-----------------------------4-|
|---7-------7---7-------|-9-9-9--7-7-7--5-5-5--4-4-4----|
|---5-------5---5-------|-------------------------------|
|-----------------------|-------------------------------|

   sl                    sl          sl           
|---------------------|--------------------------|
|---------------------|--------------------------|
|-7-/-9-------9---9---|-7-/-9-------9-/-12--11---|
|-7-/-9-------9---9---|-7-/-9-------9-/-12--11---|
|-5-/-7-------7---7---|-5-/-7-------7-/-10---9---|
|---------------------|--------------------------|

                        P.M.------------------------|
|-----------------------|-------------------------------|
|-----------------------|-------------------------------|
|---7-------7---7-------|-------------------------------|
|---7-------7---7-------|-9-9-9--7-7-7--5-5-5--4-4-4--5-|
|---5-------5---5-------|-------------------------------|
|-----------------------|-------------------------------|

   sl              ~~~~~~~~    sl                  ~~~~~~~
|--------------------------|------------------------------|
|-7-/-8-------8---8--------|-7-/-8-------8---12---10------|
|--------------------------|------------------------------|
|-7-/-9-------9---9--------|-7-/-9-------9---12---11------|
|--------------------------|------------------------------|
|--------------------------|------------------------------|

               ~~~~~~~ P.M.-----------------------------|
|---------------------|------------------------------------|
|-7-------7-----------|-12-12-12--10-10-10--8-8-8--7-7-7---|
|-------------7-------|------------------------------------|
|-7-------7---7-------|-12-12-12--11-11-11--9-9-9--7-7-7-9-|
|---------------------|------------------------------------|
|---------------------|------------------------------------|

    sl             ~~~~~~~                        ~~~~~~~~
|-------------------------|-------------------------------|
|-7-/-8-------8---8-------|-7---8-------8---12---10-------|
|-------------------------|-------------------------------|
|-7-/-9-------9---9-------|-7-/-9-------9---12---11-------|
|-------------------------|-------------------------------|
|-------------------------|-------------------------------|

                ~~~~~~~~~~~ P.M.-----------------------|
|--------------------------|-------------------------------|
|--------------------------|-7-7-7--5-5-5--3-3-3--2-2-2--3-|
|--11------11--11----------|-7-7-7--6-6-6--4-4-4--2-2-2--4-|
|---7-------7---7----------|-------------------------------|
|---9-------9---9----------|-------------------------------|
|--------------------------|-------------------------------|

P.M.--------|          P.M.--------|
|----------------------|------------------------|
|----------------------|------------------------|
|--------------9-----9-|--------------12-11-----|
|--------------9-----9-|--------------12-11-----|
|--------------7-----7-|--------------10--9-----|
|-0--0--0--0-----------|-0--0--0--0-------------|

P.M.--------|        P.M.------------------------|
|--------------------|---------------------------------|
|--------------7-----|---------------------------------|
|--------------7-----|------------------------------4--|
|--------------7-----|-9-9-9--7-7-7--5-5-5--4-4-4--(5)-|
|--------------5-----|---------------------------------|
|-0--0--0--0---------|---------------------------------|

       sl                                      P.M.-|
|-----------------------|--------------------------------|
|-----------------------|--------------------------------|
|-----------------------|--------------------------------|
|-------/-4-------2/5---|-(2/5)--4-------2---------------|
|-*2/5------------------|--------5-------4--2/5--4-------|
|-----------------------|------------------------5---2/5-|
*Gtr. II indicated to left slash in TAB

       sl                                   P.M.-|
|---------------------|------------------------------|
|---------------------|------------------------------|
|---------------------|------------------------------|
|-------/-4-------2/5-|-(2/5)-4-------2--------------|
|-4-------------------|-------5-------4--2/5--4------|
|-5-------------------|-----------------------5--2/5-|

        sl                                     P.M.-|
|------------------------|------------------------------|
|------------------------|------------------------------|
|------------------------|------------------------------|
|--------/-4-------2/5---|-(2/5)-4-------2--------------|
|-2----------------------|-------5-------4--2/5--4------|
|-3----------------------|-----------------------5--2/5-|

         sl                                     P.M.--|
|-------------------------|----------------------------|
|-------------------------|----------------------------|
|-------------------------|----------------------------|
|---------/-4-------2/5---|-(2/5)-7--------5--4--2--4--|
|-4-----------------------|-------5--------4--2--------|
|-5-----------------------|----------------------5--2--|

Guitar Solo:             Full    Full   Full
       sl                  )       )      )
|------------------|------/-------/------/----|
|------------------|-----/-------/------/-----|
|----------------7-|---9/------9/-----9/------|
|-------/-9---9----|--------------------------|
|------------------|--------------------------|
|------------------|--------------------------|

         Full
           )\   p                   
|---------/--\-------------------|
|--------/----\---------------7--|
|-(9)--9/----(9)^7--9---9---9----|
|--------------------------------|
|--------------------------------|
|--------------------------------|


   h     h p        h
|----------------------------------|
|-7^8---7^8^7------7^8-------7-----|
|---------------7----------------7-|
|----------------------------------|
|----------------------------------|
|----------------------------------|

   h                           sl              h
|-----------------------------------|----------------------|
|-7^8---7-----10---10---8---10-/-12-|-10---8--8^10---8---7-|
|----------7------------------------|----------------------|
|-----------------------------------|----------------------|
|-----------------------------------|----------------------|
|-----------------------------------|----------------------|


|-----------------------|----------------------------------|
|---8---10-----8--------|----------------------------------|
|-----------9-----9---7-|----------------------------7---9-|
|-----------------------|-----7-------9---9-------9--------|
|-----------------------|----------------------------------|
|-----------------------|----------------------------------|

    Full
      )\   p                        
|----/--\--------------------------|
|---/----\-------------------------|
|-9/----(9)^7--9---7---7-----7---9-|
|-------------------------9--------|
|----------------------------------|
|----------------------------------|

    Full         Full        Full        Full
      )     p      )    p      )    p      )
|----/--7---------/-7---------/-7---------/---|
|---/-----10^7---/----10^7---/----10^7---/--7-|
|-9/-----------9/----------9/----------9/-----|
|---------------------------------------------|
|---------------------------------------------|
|---------------------------------------------|

         Full       Full        Full        Full
    p      )   p      )    p      )    p      )
|---------/----------/-7---------/-7---------/-7-|
|-10^7---/-7-10^7---/----10^7---/----10^7---/----|
|------9/---------9/----------9/----------9/-----|
|------------------------------------------------|
|------------------------------------------------|
|------------------------------------------------|

    p         p    p         p    p
|-10^7----7-10^7-10^7----7-10^7-10^7----7-|
|------10-------------10-------------10---|
|-----------------------------------------|
|-----------------------------------------|
|-----------------------------------------|
|-----------------------------------------|

    p         p    p         p    p
|-10^7----7-10^7-10^7----7-10^7-10^7----7-|
|------10-------------10-------------10---|
|-----------------------------------------|
|-----------------------------------------|
|-----------------------------------------|
|-----------------------------------------|

    Full    Full
      )       )
     /       /
|-10/-----10/---10-8-7-8-7----|-7-------------------------|
|--------------------------10-|---10-8-10-8-7-8-7---7-----|
|-----------------------------|-------------------9---9-7-|
|-----------------------------|---------------------------|
|-----------------------------|---------------------------|
|-----------------------------|---------------------------|

                p
|----------------------|------7------------|
|--------------8^7---7-|-8-10---10-8-7-----|
|------------------9---|---------------9-7-|
|-7-----9---9----------|-------------------|
|----------------------|-------------------|
|----------------------|-------------------|

             p                    ~~~~~~
|-------------------|------7--8--7------7--8-|
|-----------8^7---7-|-8-10-------------------|
|---------------9---|------------------------|
|-7---9--9----------|------------------------|
|-------------------|------------------------|
|-------------------|------------------------|

|-10-8-7-8-7----7-------------|-------------------------|
|------------10---10-8-10-8-7-|-8-7---7-----------------|
|-----------------------------|-----9---9-7-9-7-6-7-6---|
|-----------------------------|-----------------------9-|
|-----------------------------|-------------------------|
|-----------------------------|-------------------------|

|------------------7--------|--------------7--------------|
|-----------7-8-10---10-8-7-|-8-7---7-8-10---10-8-7-8^7---|
|-----6-7-9-----------------|-----9---------------------9-|
|-7-9-----------------------|-----------------------------|
|---------------------------|-----------------------------|
|---------------------------|-----------------------------|
                              
                            Full
                              _____Grad. Release
                              \    \3/4   
   Full  Full  Full  Full      \            \1/2
      )     )     )     )       )                    \ 1/4
|----/-----/-----/-----/---|---/---------------------------|
|---/-----/-----/-----/----|--/----------------------------|
|-9/----9/----9/----9/-----|-9-9-9-9-9-9-9-9-9-9-9-9-9-9-9-|
|--------------------------|-------------------------------|
|--------------------------|-------------------------------|
|--------------------------|-------------------------------|

   p
|--------------10-10-10-------10-10-10-----10-10-10-|
|---------------7--7--7-------10-10-10-----10-10-10-|
|-9^7---7-------7--7--7--------7--7--7------7--7--7-|
|-----9----x-x----------x-x-x----------x-x----------|
|----------x-x----------x-x-x----------x-x----------|
|---------------------------------------------------|

    Full    Full    Full
      )       )       )~~~~~~   p
|----/-------/-------/-------------------|
|-10/-----10/-----10/---------10^7---7-8-|
|----------------------------------9-----|
|----------------------------------------|
|----------------------------------------|
|----------------------------------------|

   h p         ~~~~~~
|------------------------|-------------------------|
|-7^8^7------------------|-------------------------|
|-------9-7---7--------7-|-9-7---7-----------------|
|-----------9--------9---|-----9---9-7-9-7---7-----|
|------------------------|-----------------9---9-7-|
|------------------------|-------------------------|

                       sl.
|-------------------------12-|
|----------------------------|
|----------------------------|
|----------------------------|
|-9-7-5-7-5---5-5-5-5-7-/----|
|-----------7----------------|

    p         p     p         p     p
|-15^12--12-15^12-14^12--12-15^12-14^12--12-|
|------12--------------12--------------12---|
|-------------------------------------------|
|-------------------------------------------|
|-------------------------------------------|
|-------------------------------------------|

    p         p     p         p     p
|-15^12--12-15^12-14^12--12-15^12-14^12--12-|
|------12--------------12--------------12---|
|-------------------------------------------|
|-------------------------------------------|
|-------------------------------------------|
|-------------------------------------------|

              p         p         p        
|-17-14--14-17^14--14-17^14--14-17^14--14-|\
|------15--------15--------15--------15---| \
|-----------------------------------------|  \
|-----------------------------------------|  /-repeat
|-----------------------------------------| /
|-----------------------------------------|/

    p         p     p         p     p  
|-19^15--15-19^15-17^15--15-19^15-17^15--15-| \
|------17--------------17--------------17---|  
|-------------------------------------------|   
|-------------------------------------------|    
|-------------------------------------------|     
|-------------------------------------------|      
                                                   
    p         p     p         p     p              
|-19^15--15-19^15-17^15--15-19^15-17^15--15-|      
|------17--------------17--------------17---|      
|-------------------------------------------|      
|-------------------------------------------|     
|-------------------------------------------|              
|-------------------------------------------|    
                                                     
    p         p         p         p                 
|-21^17--17-21^17--17-21^17--17-21^17--17-|       
|------19--------19--------19--------19---|     
|-----------------------------------------|                
|-----------------------------------------| repeat  
|-----------------------------------------| 
|-----------------------------------------|

   Full  Full  Full  Full    Full  Full  Full  Full
     )     )     )     )       )     )     )     )~~~~~
|-22/---22/---22/---22/---|-22/---22/---22/---22/------|
|-------------------------|----------------------------|
|-------------------------|----------------------------|
|-------------------------|----------------------------|
|-------------------------|----------------------------|
|-------------------------|----------------------------|

   Full 
     )\
|-22/(22)-19-22-20-19-20-19-17-19-17-15-17-15-14-|
|------------------------------------------------|
|------------------------------------------------|
|------------------------------------------------|
|------------------------------------------------|
|------------------------------------------------|

|-15-14-12-14-12-10-12-10-9-10-9-7-|
|----------------------------------|
|----------------------------------|
|----------------------------------|
|----------------------------------|
|----------------------------------|

BEGIN FADE

|-9-7--7---7----------------|------------------------|
|----10--10--8-10-8-7-8-7---|-7----------------------|
|-------------------------9-|---9-7-9-7---7--7--7--7-|
|---------------------------|-----------9------------|
|---------------------------|------------------------|
|---------------------------|------------------------|

         trem. pick
    Full  Full                               Full
      )     )- - - - - - - - - - - - -(        )
|----/-----/----------------|----------\------/-----------|
|---/-----/-----------------|-----------\----/------7---7-|
|-9/-----9------------------|-(9)------(9)-9/-------------|
|-------//------------------|-//--------------------------|
|---------------------------|-----------------------------|
|---------------------------|-----------------------------|

    Full      Full
      )        )\   p
|----/---7----/--\-----|
|-10/------10/--(10)^7-|
|----------------------|
|----------------------| repeat 2x
|----------------------|
|----------------------|

    Full          Full         Full       Full
      )\   p        )\  p        )          )
|----/--\----------/--\---------/----------/-------|
|-10/--(10)^7---10/-(10)^7---10/---10---10/---10---|
|--------------------------------------------------|
|--------------------------------------------------|
|--------------------------------------------------|
|--------------------------------------------------|

    p              p                   
|-10^7--------------------------------|
|------10^7----7-10^7-----------------|
|-----------10--------9-7---7-9-7-----|
|-------------------------9-------9-7-|
|-------------------------------------|
|-------------------------------------|

       p                    sl.
|------------------------------------|
|------------------------------------|
|------------------------------------|
|-7-7-9^7------------------------7-9-|
|---------9-8-7-5-7-5---5--7-/-9-----|
|---------------------7--------------|

        sl.           p                    
|------------------------------------12-15-|
|-------------11-12-13^12----12-x-15-------|
|-7-9-11-/-14-------------14---------------|
|------------------------------------------|
|------------------------------------------|
|------------------------------------------|


|-(15)^12----12-15^12-15^12----12-15^12-15^12----12-|
|---------15----------------15----------------15----|
|---------------------------------------------------|
|---------------------------------------------------|
|---------------------------------------------------|
|---------------------------------------------------|

     Full         Full         Full         Full
       )            )            )            )
|-----/------------/------------/------------/--------|
|-15-/---------15-/---------15-/---------15-/---------|
|-14/----------14/----------14/----------14/----------|
|-----------------------------------------------------|
|-----------------------------------------------------|
|-----------------------------------------------------|

9.SEEK AND DESTROY

 Intro
    Q=140
   4/4
    Gtrs I, II
    PM|           PM            PM--|     PM
    E E S S E +E  E S S E   +E  E E E E E E E  8x E E E E E E E E
||------------------------|--------------------||-----------------||
||o-----------------------|-------------------o||-----------------||
||------7h8p7-(7)---------|---------------5----||-9-7---7---------||
||------------------7h8p7-|-(7)-------5-----7--||-----9---9-8-7s5-||
||o-0-0-----------0-------|-----0-8-7---7-----o||-----------------||
||------------------------|--------------------||-----------------||
 |-Riff A                                              end Riff A-|

    Gtr I
    PM----|
    E E E E E E E E   E E E E E E E E
||------------------|------------------||
||o-----------------|-----------------o||
||------------------|------------------||
||----------5-7-5-7-|------------------||
||o---------5-7-5-7-|---------7-5-----o||
||--0-0-0-0---------|-0-0-0-0-----7-6--||
 |-Rhy Fig 1             end Rhy Fig 1-|

        Gtrs I, II
      PM----|
      E E E E E E E E   E E E E E E E E  6x
|-||------------------|------------------||
|-||o-----------------|-----------------o||
|-||------------------|------------------||
|-||----------5-7-5-7-|------------------||
|-||o---------5-7-5-7-|---------7-5-----o||
|-||--0-0-0-0---------|-0-0-0-0-----7-6--||


   Verse
    E E E E E E E E   E E E E E E E E   E E E E E E E E   E E E E E E E E   4x
||------------------|-----------------|-----------------|-------------------||
||o-----------------|-----------------|-----------------|------------------o||
||------------------|-----------------|-----------------|-------------------||
||------------------|-------------5---|-----------------|-------------5-----||
||o-----------------|---------------7-|-----------------|---------------7--o||
||--0-0-0-0-0-0-0-0-|-0-0-0-0-7-6-----|-0-0-0-0-0-0-0-0-|-0-0-0-0-7-6-------||
 |-Rhy Fig 2                                                  end Rhy Fig 2-|

   Pre-Chorus                                        1.

      PM--|            PM--|            PM--|
    E E E E E E Q    E E E E E E Q    E E E E E E Q    E E E E E E E E
||-----------------|----------------|----------------|-------------------||
||o----------------|----------------|----------------|------------------o||
||--5-------5-7-5--|-5-------5-7-5--|-5-------5-7-5--|-7-5---------------||
||--5-------5-7-5--|-5-------5-7-5--|-5-------5-7-5--|-----7-6-5---------||
||o---0-0-0--------|---0-0-0--------|---0-0-0--------|-----------7-6-5--o||
||-----------------|----------------|----------------|-------------------||
 |-Rhy Fig 3

  2.
  E E E E E E E E   E E E E E E E E
|-----------------|-----------------||
|-----------------|-----------------||
|-9-7---7---------|-9-7---7---------||
|-----9---9-8-7-5-|-----9---9-8-7-5-||
|-----------------|-----------------||
|-----------------|-----------------||
                     end Rhy Fig 3-|

   Chorus
                             1.,2.,3.

     W           H     H      E E E E E E E E   E E E E E E E E   3x
||------------|-------------|-----------------|-------------------||
||o-----------|-------------|-----------------|------------------o||
||--12--------|-11----10----|-9---------------|-------------------||
||--12--------|-11----10----|-9---------------|-------------------||
||o-10--------|--9-----8----|-7---------------|------------------o||
||------------|-------------|---0-0-0-0-0-0-0-|-0-0-0-0-0-0-0-0---||
 |-Rhy Fig 4                                        end Rhy Fig 4-|

  4.
  PM----|                               PM----|
  E E E E E E E E   E E E E E E E E     E E E E E E E E   E E E E E E E E  3x
|-----------------|-----------------||------------------|------------------||
|-----------------|-----------------||o-----------------|-----------------o||
|-9---------------|-----------------||------------------|------------------||
|-9-------5-7-5-7-|-----------------||----------5-7-5-7-|------------------||
|-7-------5-7-5-7-|---------7-5-----||o---------5-7-5-7-|---------7-5-----o||
|-0-0-0-0---------|-0-0-0-0-----7-6-||--0-0-0-0---------|-0-0-0-0-----7-6--||


Verse
Rhy Fig 2 x2

Pre - Chorus
Rhy Fig 3

Chorus
Rhy Fig 4 x3

                                     Faster Q=208

   W           H     H      W          Q  Q  H      Wx3
|-----------|-------------|----------|------------|--------||
|-----------|-------------|----------|------------|--------||
|-12--------|-11----10----|-9--------|-9----------|--------||
|-12--------|-11----10----|-9--------|-9----------|--------||
|-10--------|--9-----8----|-7--------|-7----------|--------||
|-----------|-------------|----------|------------|--------||


          PM  PM|         PM|   PM|   PM    PM|   PM|       PM--|
     E  E E E E E E E   E E E E E E E E   E E E E E E Q     E E E E E E E E   4x
||--------------------|-----------------|-----------------|-------------------||
||o-------------------|-----------------|-----------------|------------------o||
||----------------2---|-5---------------|-4---------------|-------------------||
||---5--7---7---------|-5-----7-----7---|-4-----7-----7\--|-------3-2-0-------||
||o-(0)-0-0---0-0---0-|---0-0---0-0---0-|---0-0---0-0-----|-3-2-0-------3-2--o||
||--------------------|-----------------|-----------------|-------------------||


 Guitar Solo
 Gtrs I, II play Rhy Fig 4 x3
  Gtr III
   W           H     E  E  S  E.    S  S  S  S  S  S  S  S  S  S  S  S  S  S  S  S
|-----------|----------------12--|-15p12----12-15p12-17p12-15p12----12-15p12-17p12-|
|-----------|----------12s15-----|-------12----------------------15----------------|
|-----------|--------------------|-------------------------------------------------|
|-----------|--------------------|-------------------------------------------------|
|-----------|--------------------|-------------------------------------------------|
|-----------|--------------------|-------------------------------------------------|



   S  S  E  E  E  E  a      +Q.
|-15p12----12----12-------------------|
|-------15----15----15b17==(15)-------|
|-------------------------------------|
|-------------------------------------|
|-------------------------------------|
|-------------------------------------|



    ~~~~~~~~~~~~
   +H      +Q    Q     W
|-------------------|-------------|
|-(15)----(15)\-----|-------------|
|-------------------|-------------|
|-------------------|-------------|
|-------------------|-------------|
|-------------------|-------------|



                                                            ~~~
  E.   S  S S  S S E  S S  S S E   E E E a     +E  +S  S E +Q
|-7----7-10p7----7-7-------------|---------------------------------|
|-------------10-----10p7-10p7---|---------------------------------|
|------------------------------9-|-7---7-9b11==(9)r(9)p7-----------|
|--------------------------------|---9-------------------9-(9)-----|
|--------------------------------|---------------------------------|
|--------------------------------|---------------------------------|



   ~~~~~~~~~~~~~~~~
  +W           +Q   Q   H       a      +Q.       S  S  E  E  E  E
|------------|---------------|-17b19==(17)r-----------16-15-14----|
|------------|---------------|---------------------15----------15-|
|------------|---------------|------------------15----------------|
|-(9)--------|-(9)-----------|------------------------------------|
|------------|---------------|------------------------------------|
|------------|---------------|------------------------------------|



                                  ~~~~
   E  E  E  a      +E   +E       +Q.
|-----------------------------------------|
|-14-------15b17==(15)r(15)b17==(15)------|
|----16-----------------------------------|
|-------17--------------------------------|
|-----------------------------------------|
|-----------------------------------------|


w/Rhy Fig 4 - 1st 2 bars
    ~~~~
   +H      +E    E Q     H     Q    E  S  S
|---------------------|---------------20-20-|
|-(15)----(15)r\------|-----------/23-------|
|---------------------|---------------------|
|---------------------|---------------------|
|---------------------|---------------------|
|---------------------|---------------------|



                                             |--3--|
   S  S  S  S  S  S  S  S  S  S  S  S  S  S  S  S  S
|-23-20-18-23-19-19-21-21-18-15-19-16-14-14-17-14-12-|
|----------------------------------------------------|
|----------------------------------------------------|
|----------------------------------------------------|
|----------------------------------------------------|
|----------------------------------------------------|
|
|              PM          PM---|            PM
|  E     E     E     E     E     E     E     E
|----------------------------------------------------|
|----------------------------------------------------|
|----------------------------------------------------|
|----------------------------------------------------|
|--5h====7-----------7-----------------7-------------|
|--------------0-----------0-----0-----------0-------|
|-Rhy Fig 5

   S  S  S  S  S  S S S  S S  S S  S S  S S
|-16-12-11-14-12s11-9s7-10p7----7-10p7------|
|----------------------------10--------10-7-|
|-------------------------------------------|
|-------------------------------------------|
|-------------------------------------------|
|-------------------------------------------|
|
|        PM---|          PM--|          PM
|  E     E     E    E    E    E    E    E
|-------------------------------------------|
|-------------------------------------------|
|-------------------------------------------|
|--5----------------------------------------|
|--5----------------7--------------7--------|
|--------0-----0---------0----0---------0---|


             PM                             ~~~
   S S E E E E E a     +E  +S  S   E E E E +Q    E E
|--------------------------------|---------------------|
|-10p7-------7-5-----------------|-5-------------------|
|------9-7-9-----9b11==(9)r(9)p7-|---7---7-(7)---------|
|--------------------------------|-----9---------------|
|--------------------------------|---------------------|
|--------------------------------|---------------5-5---|
|
|      PM|   PM|                   PM--|
|  E   E E E E E        Q          E E E E  E  E E E
|--------------------------------|---------------------|
|--------------------------------|---------------------|
|--------------------------------|---------------------|
|--4-----------------------------|---------------------|
|--4-------7------------7--------|-------3--2--0-------|
|------0-0---0-0-----------------|-3-2-0---------3-0---|
                                         end Rhy Fig 5-|

w/Rhy Fig 5 x2
  E  E  E E S S E S S E   E E a     +E  +S  S E E a    +S  +S  E
|-----------------------|----------------------------------------|
|-----------------------|----------------------------------------|
|-----------------------|-7-9-9b11==(9)r(9)p7-9-7-7b9==(7)r(7)---|
|---------7-9p7---7h9-9-|--------------------------------------9-|
|------/9-------9-------|----------------------------------------|
|-7-10------------------|----------------------------------------|



  E E a     +E   E  S S E E E
|------------------------------|
|----------------7-10p7--------|
|-7-9-9b11==(9)r--------9-7----|
|---------------------------9--|
|------------------------------|
|------------------------------|


               |---3----|
  E a     +E  +E  +E    E a     +Q       E  E
|---------------------------------------------|
|------------------------------------------12-|
|-7-9b11==(9)-(9)r(9)p==7-9b11==(9)r\---14----|
|---------------------------------------------|
|---------------------------------------------|
|---------------------------------------------|


  a      +E    E  S  S  S  S  a      +E    E  S  S  S  S
|--------------12--------------------------12-------------|
|-15b17==(15)r----15p12----12-15b17==(15)r----15p12-12-15-|
|-----------------------14--------------------------------|
|---------------------------------------------------------|
|---------------------------------------------------------|
|---------------------------------------------------------|



   a      +E    E  S  S  E  a      +E    E  E  E
|--------------12-----------------------12----12-|
|-15b17==(15)r----15p12-15-15b17==(15)r----15----|
|------------------------------------------------|
|------------------------------------------------|
|------------------------------------------------|
|------------------------------------------------|



                                                                     ~~      PM-
   |---3---|  |---3---|  |---3---|  |--3--|    |---3---|  |---3---|
   E  E    E  E  E    E  E  E    E  E  E  E    E  E    E  E  E    E  Q    E  E
|-15p12-------------------------------------|----------------------------------|
|---------15-12------12-15p12---------------|----------------------------------|
|---------------14--------------14-12----12-|-14p12----------------------------|
|-------------------------------------14----|---------14-12--------------------|
|-------------------------------------------|---------------14---12---------12-|
|-------------------------------------------|-----------------------15---15----|


w/Rhy Fig 4 - 1st 3 bars
 ------------------------------------------|
   |---3---|  |---3---|  |---3---|  |---3---|    |---3---|  |---3---|  |---3---|  |---3---|
   E  E    E  E  E    E  E  E    E  E  E    E    E  E    E  E  E    E  E  E    E  E  E    E
|---------------------------------------------|----------------------------------12------12---|
|---------------------------------------------|------------12------12-15-12---15----15--------|
|----------------------------------12------12-|-14-12---14----14------------------------------|
|------------12------12-14-12---14----14------|-----------------------------------------------|
|-14-12---14----14----------------------------|-----------------------------------------------|
|---------------------------------------------|-----------------------------------------------|


   |---3---|  |---3---|  |---3---|
   E  E    E  E  E    E  E  E    E  E  +E
|-15p12------------------------------------|
|---------15-12s11---12-15p12--------------|
|-------------------------------14-12-(12)s|
|------------------------------------------|
|------------------------------------------|
|------------------------------------------|



                                      6/4
  Q    Q   H         W                 W
|------------------|-----------------|-------||
|------------------|-----------------|-------||
|-x\---------------|-----------------|-------||
|------------------|-----------------|-------||
|------------------|-----------------|-------||
|------------------|-----------------|-------||
|
| PM---|       PM--------|       PM|
| E  E E E E E E E   E E E E E E E E   W.
|------------------|-----------------|-------||
|------------------|-----------------|-------||
|------------------|-----------------|-2-----||
|------------------|-----------------|-2-----||
|--------3-2-0-----|-------3-2-0-----|-0-----||
|-3--2-0-------3-2-|-3-2-0-------3-2-|-------||


   Re - Intro
    Q=140
   4/4
    Gtrs I, II play Riff A -> Rhy Fig 1 x4


    Verse
    Rhy Fig 2 x4


   Pre-Chorus
   Rhy Fig 3


   Chorus
   Rhy Fig 4 x4


   Outro
     E E E  E  E E E  E   E E E E E E E  E
||----------------------|------------------|
||o---------------------|------------------|
||--11-----11-10-----10-|-9-------------12-|
||--11-----11-10-----10-|-9-------------12-|
||o--9------9--8------8-|-7-------------10-|
||-----0-0-------0-0----|---0-0-0-0-0-0----|


                     1.,2.,3.
   E E E  E E E E E   E E E E E E E  E
|-------------------|--------------------||
|-------------------|-------------------o||
|-11-----11-7-----7-|-9-------------12---||
|-11-----11-7-----7-|-9-------------12---||
|--9------9-5-----5-|-7-------------10--o||
|----0-0------0-0---|---0-0-0-0-0-0------||


  4.                                    1.,2.,3.,4.,5.,6.,7.
    PM------|
  E E E E E E  Q       E E E E E E E E   E E E E E E E E
|------------------||------------------|------------------||
|------------------||o-----------------|-----------------o||
|-9----------------||------------------|------------------||
|-9----------------||------------------|------------------||
|-7----------------||o-----2-----5-----|-4-----5-----7-5-o||
|---0-0-0-0-0-12\--||--0-0-0-0-0-3-0-0-|-2-0-0-3-0-0-5-3--||


  8.
                                              E5     G5
 5/4                     4/4
                                          Gtr II
  W                       W                   E E E E Q  Q
                                              | | | | |
                                              / / / / /

                                          Gtr I
  E E E E E E E E E E     E E E E E E E E  3x E E E E Q  Q
|---------------------||-------------------||---------------*|
|---------------------||o-----------------o||---------------*|
|---------------------||--9-7---7----------||---------9-----*|
|---------------------||------9---9-8-7-5--||---------9-----*|
|-4-----5-----7s5-----||o-----------------o||-7-7-7-7-7-----*|
|-2-0-0-3-0-0-5s3-0-0-||-------------------||-0-0-0-0-0-----*|

10.AND JUSTICE FOR ALL

Intro: (clean)
|----------------------------------------------|
|----------------------------------------------|
|.---------------------------------------------|
|.-6-7-9---7-6h7p6-4-5-5-4-7-4-2-3-5---3-2h3p2-|
|--7-----7---------5-----5---5-3-----3---------|
|--0-------------------------------------------|

                        (x 5)
|----------------------------|
|----------------------------| 3rd and 4th times
|-----------------------2---.|     play this with distortion
|-0-2-2-0-2-0-0-2-2-0-2---3-.| I can't remember how Gtr. 2 goes
|-2-----2---2-1-----1-----1--| 5th time play all distorted
|----------------------------|

 Riff 1:
|------------------------------|--------------------------|
|-.----------------------------|--------------------------|
|-3----.-.----.-.-.----.-.-.-.-|-5-3-2---3-2-----2--------|
|-3----8-7----8-7-6----8-7-6-5-|-5-3-2-5-3-2-5-3-2-5-3-2--|
|-1----8-7----8-7-6----8-7-6-5-|-------5-----5-3---5-3-2--|
|------6-5----6-5-4----6-5-4-3-|--------------------------|

|---------------------------------|
|---------------------------------|
|--2------------------------------|
|--2--5--3--2----5-3-2---2--------|
|-----5--3--2----5-3-2-5-2-5-3-2--|
|----------------------5---5-3-2--|

 Riff 2                                                         (x 4)
|--------------------------------|-----------------------------------|
|--------------------------------|-----------------------------------|
|--------------------------------|.---------------------------------.|
|-2------------------------(2)---|.-(2)-------------------------(2)-.|
|-2------------------------(2)---|--(2)-------------------------(2)--|
|-0------------------------(0)---|--(0)-------------------------(0)--|

 Riff 3: (x 4)
|------------------------------------------------|
|------------------------------------------------|
|-.-.----.-.------------------.-.----------------|
|-8-8-7--8-8-7---------------8-8-7---------------|
|-8-8-7--8-8-7----5h7-7-5----8-8-7----5h7-7-5----|
|-6-6-5--6-6-5--0---------7--6-6-5--0---------7--|

 Riff 4:
|-------------------------|-----------|-----------|-----------|
|-------------------------|-----------|-----------|-----------|
|-.-.----.-.--------------|-2---------|-----------|-2---------|
|-8-8-7--8-8-7--2---------|-2---------|-2---------|-2---------|
|-8-8-7--8-8-7--2---------|-0---------|-2---------|-0---------|
|-6-6-5--6-6-5--0---------|-----------|-0---------|-----------|

Riff 3 (x 2)

 Riff 5:
|-------------------------------------------------|
|-------------------------------------------------|
|-.-.----.-.------.----.--------------.----.------|
|-8-8-7--5-5-4----2--x-2-2-------3----2--x-2--2---|
|-8-8-7--5-5-4--.-2--x-2-2---.-.-3--.-2--x-2--2---|
|-6-6-5--3-3-2--0-0--x-0-0---0-0-1--0-0--x-0--0---|

|---------------------------------------------------------------|
|---------------------------------------------------------------|
|-.-.----.-.------.----.--------------.----.------.-.----.-.----|
|-8-8-7--8-8-7----2--x-2-2-------3----2--x-2--2---8-8-7--8-8-8\-|
|-8-8-7--8-8-7--.-2--x-2-2---.-.-3--.-2--x-2--2---8-8-7--8-8-8\-|
|-6-6-5--6-6-5--0-0--x-0-0---0-0-1--0-0--x-0--0---6-6-5--6-6-6\-|

Verse 1
=======
 Riff 6: (x 4)
|-------------------------------------------------|
|-------------------------------------------------|
|--------.-------------------.------.-.----.-.----|
|---2--x-2-2-------3----2--x-2--2---8-8-7--8-8-7--|
|-.-2--x-2-2---.-.-3--.-2--x-2--2---8-8-7--8-8-7--|
|-0-0--x-0-0---0-0-1--0-0--x-0--0---6-6-5--6-6-5--|

 Fill 1: ??
|-----------------------------|
|-----------------------------|
|-----------------------------|
|-----------------------------|
|-----------------------------|
|-----------------------------|

 Riff 7:                  (x 3)
|-------------------------------|------------------------------------|
|-------------------------------|------------------------------------|
|.-----------------------------.|--------------0h5h7-----------------|
|.-3-------------4\3---4/5-4/5-.|-3-----------------0h5h7------------|
|--3-------------4\3---4/5-4/5--|-3----------------------0h5h7-0h2h3-|
|--1-1-1-1-1-1-1-2\1-0-2/3-2/3--|-1-1-1-1-1-1-1----------------------|

                          (x 3)
|-------------------------------|------------------------------------|
|-------------------------------|------------------------------------|
|.-----------------------------.|--------------0h5h7-----------------|
|.-3-------------4\3---4/5-4/5-.|-3-----------------0h5h7------------|
|--3-------------4\3---4/5-4/5--|-3----------------------0h5h7-0h2h3-|
|--1-1-1-1-1-1-1-2\1-0-2/3-2/3--|-1-1-1-1-1-1-1----------------------|

|-------------------------------------------------------|
|-------------------------------------------------------|
|-0h5h7-------------------------------------------------|
|------0h5h7------------4-2--------------4\3---4/5-4/5--|
|-----------0h5h7-0h2h3-4-2--------------4\3---4/5-4/5--|
|-----------------------2-0--0-0-0-0-0-0-2\1-0-2/3-2/3--|

Chorus
======
 Riff 8:
|-------------------------------------------------|
|-------------------------------------------------|
|--2----4----5------------------------------------|
|--2----4----5----4-2--------------4\3---4/5-4/5--|
|--0----2----3----4-2--------------4\3---4/5-4/5--|
|-----------------2-0--0-0-0-0-0-0-2\1-0-2/3-2/3--|

|------------------------------------------|-------------------------|
|------------------------------------------|-------------------------|
|-2----4-----------------------------------|-2----4----0----5--------|
|-2----4----4-2--------------4\3---4/5-4/5-|-2----4----0----5----2---|
|-0----2----4-2--------------4\3---4/5-4/5-|-0----2---------3----2---|
|-----------2-0--0-0-0-0-0-0-2\1-0-2/3-2/3-|-----------3---------0---|

Riff 3 (x 2)
Riff 5
Verse
Chorus

Riff 3 (x 2)
Riff 1
Riff 2

Solo
====
Riff 7
Riff 6 (x ?)

Fill 2: ??
|------------------------------------------|
|------------------------------------------|
|------------------------------------------|
|------------------------------------------|
|------------------------------------------|
|------------------------------------------|

Riff 6 (x 3)
|--------------------------------------------------------------------|
|--------------------------------------------------------------------|
|--------------------------------------------------------------------|
|-8-8-7--8-8-7--7-7-6--7-7-6--6-6-5--6-6-5--5-5-4--5-5-4--3-4-4-4-4--|
|-8-8-7--8-8-7--7-7-6--7-7-6--6-6-5--6-6-5--5-5-4--5-5-4--3-4-4-4-4--|
|-6-6-5--6-6-5--5-5-4--5-5-4--4-4-3--4-4-3--3-3-2--3-3-2--1-2-2-2-2--|

Intro (x 5) w/distortion
                                                                (x 3)
|--------------------------------------------------|-----------------|
|--------------------------------------------------|-----------------|
|------.-.---.-----.-.---.-----.-.---.-----.-.---.-|.-----.-.---.---.|
|--6---6-6-6-6-4---4-4-4-4-2---2-2-2-2-0---0-0-0-0-|.-0---0-0-0-0---.|
|--7---7-7-7-7-5---5-5-5-5-3---3-3-3-3-2---2-2-2-2-|--1---1-1-1-1----|
|--------------------------------------------------|-----------------|

                                            (x 2)
|--------------------|---------------------------|
|--------------------|---------------------------|
|--------------------|.-------------------------.|
|--2------------(2)--|.-(2)-----------------(2)-.|
|--2------------(2)--|--(2)-----------------(2)--|
|--0------------(0)--|--(0)-----------------(0)--|

Riff 3 (x 2)

 Fill 3:
|--------------|
|--------------|
|-.-.----.-.---|
|-8-8-7--2-2-3-|
|-8-8-7--2-2-3-|
|-6-6-5--0-0-1-|

Verse
Chorus
Riff 4 (repeat last bar)
Riff 8 (last bar only)
Riff 4

|---------|---------|---------|---------|---------|
|---------|---------|---------|---------|---------|
|-7-------|-5-------|---------|---------|-.-.-.---|
|-7-------|-5-------|-7-------|-5-------|-5-4-2---|
|-5-------|-3-------|-7-------|-5-------|-5-4-2---|
|---------|---------|-5-------|-3-------|-3-2-0---|

|---------|---------|---------|---------|
|---------|---------|---------|---------|
|---------|-5-------|---------|-.-.-.---|
|-5-------|-5-------|-7-------|-5-4-2---|
|-5-------|-3-------|-7-------|-5-4-2---|
|-3-------|---------|-5-------|-3-2-0---|

|---------|---------|---------|---------|
|---------|---------|---------|---------|
|---------|-.-.-.---|---------|-.-.-.---|
|-5-------|-5-4-2---|---------|-5-4-2---|
|-5-------|-5-4-2---|---------|-5-4-2---|
|-3-------|-3-2-0---|---------|-3-2-0---|
--

Here's the interlude to ...And Justice For All, tabbed out by
measures..it's mostly in 4/4 time, but the bars w/a "**" on the low E are
in 2/4. Obviously, i didn't include note values, but this is all pretty
straightforward. 

e-------------------------|---------|--------|------------------|
B-------------------------|-------8-|-7------|------------------|
G-------------------0h5h7-|-----9---|---9--7-|-5-4-4-4-5p4------|
D-------------0h5h7-------|--/9-----|--------|-------------7----|
A-0h2h3-0h5h7-------------|---------|--------|------------------|
E-------------------------|---------|--------|------------------|

e--------------------|--------|--------|------------------|-----|
B--------------------|------8-|-7------|------------------|-----|
G-4------------------|----9---|---9--7-|-5--4-4--4--5p4p0-|-----|
D---7-5--3-3h5p3\2~~-|-/9-----|--------|------------------|-----|
A--------------------|--------|--------|------------------|-----|
E--------------------|--------|--------|------------------|-----|

e-------------|--------|------------|-----------|---------------|
B-------------|------8-|-7--5h7p5\3-|------8h10-|-8-7h8p7\5-----|
G-------------|----9---|------------|----9------|---------------|
D-2/3--rest---|-/9-----|------------|-/9--------|---------------|
A-------------|--------|------------|-----------|---------------|
E-------------|--------|------------|-----------|---------------|

e-----------|---------------------------|-----------------------|
B------/12--|-12p10p8-12p10p8-12p10p8\7-|---(this isn't a rest,
G----9------|---------------------------|-----i couldn't fit ---|
D-/9--------|---------------------------|-----the next measure)-|
A-----------|---------------------------|-----------------------|
E-----------|---------------------------|-----------------------|

e------------------------------|--------------------------------|
B------------------------------|--------------------------------|
G-11p9p7-11p9p7-11p9p7\5-9p7p5-|--0h5h7-------------------------|
D------------------------------|--------0h5h7-------------------|
A------------------------------|--------------0h5h7--0h2h3------|
E------------------------------|------------------------play 2x-|

e---------------|----------------------|-------14-------17fb----|
B---------------|-17----14-------------|----------14------------|
G-5-5--4--5-5-4-|-16fb--14-----14-16fb-|-(16)------------------|
D-5-5--4--5-5-4-|-----------16---------|------------------------|
A-3-3--2--3-3-2-|----------------------|------------------------|
E---------------|----------------------|-**---------------------|
  pm--    pm-

e-(17)r-17-14-17p14-17p14----19p14-|-20p14-20p14----19p14-19p14-17-|
B-------------------------17-------|-------------17----------------|
G----------------------------------|-------------------------------|
D----------------------------------|-------------------------------|
A----------------------------------|-------------------------------|
E----------------------------------|-**----------------------------|

e-17p14-17p14----14-14----------|-------------------------------|
B-------------17----17fb--------|---16hb----16hb----------------|
G----------------------------14-|---16fb----16fb----------------|
D-------------------------16----|-------------------------------|
A-------------------------------|-------------------------------|
E-------------------------------|-**----------------------------|

e--------------------------|----------vib w/bar-----------------|
B-16hbr--14h16-14----16-14-|----14-17~~~~~~~~~~-----------------|
G-16fbr--14----14----16-14-|----14-16fb-------------------------|
D-----------------16-------|-16---------------------------------|
A--------------------------|------------------------------------|
E--------------------------|------------------------------------|

e-----------------------------17p14-----------------------------|
B-14---14-17p14------14-17p14-------17-14------14---------------|
G-16fb----------16fb----------------------16fb------------------|
D---------------------------------------------------------------|
A---------------------------------------------------------------| 
E-(w/wah as filter)---------------------------------------------|

e----------------|---------------------------|------------------|
B-17p14----------|-------14h17-15fbrp14-17fbr|p14h17---17fbrp14h|
G-------16-14----|-14-16---------------------|------------------|
D-------------16-|---------------------------|------------------|
A----------------|---------------------------|------------------|
E-**-------------|---------------------------|-**---------------|

e------------17fb-17hb-|-(17)~~---------|-----------------------|
B17-17fbrp14-----------|-------x--------|-------holdbend________|
G----------------------|------16p14h16--|-16-16fb-16-16-16-16-16|
D----------------------|----------------|-----------------------|
A----------------------|----------------|-----------------------|
E----------------------|-**-------------|-----------------------|

e----------------|-22p19p0-0-0-21p17p0-0-0-18p15p0-0-0-17p14p0-0-0-|
B__------17fb~~~-|-------------------------------------------------|
G16rp14----------|-------------------------------------------------|
D----------------|-------------------------------------------------|
A----------------|-------------------------------------------------|
E----------------|-------------play 2 times------------------------|

e-19p0-17p0-15p0-14p0-17p0-15p0-14p0-12p0-----------------------|
B---------------------------------------------------------------|
G---------------------------------------------------------------|
D---------------------------------------------------------------|
A---------------------------------------------------------------|
E---------------------------------------------------------------|
                                                    harm. 
e-15p0-14p0-12p0-10p0-10p8p7--------10p8p7--------|-*-----------|
B----------------------------10p8p7--------10p8p0-|-5\----------|
G-------------------------------------------------|-5\----------|
D-------------------------------------------------|-trem dive---|
A-------------------------------------------------|-------------|
E-------------------------------------------------|-------------|

11.ONE

Moderately Q=98
Gtr I
    E  E E E +H         E  E E E +H         E  E E E +H
|-------------------|-------------------|-------------------|
|-------------------|-------------------|-------------------|
|-------------------|-------------------|-------------------|
|------4---0-(0)----|------4---0-(0)----|------4---0-(0)----|
|---2----2----------|-------------------|---2----2----------|
|-------------------|---3----3----------|-------------------|


  Gtr I
  E E E E +E  Q.     +W
|------------------|------------------|
|------------------|------------------|
|-------------0----|-(0)--------------|
|---4---0-(0)------|-----4---0-(0)----|
|------------------|--2----2----------|
|-3---3------------|------------------|
                      E  E E E +H


                                   2/4
  E E E E +H       E E E E +H       E S S E S S
|----------------|----------------|--------------|
|----------------|----------------|--------------|
|----------------|----------------|--------------|
|---4---0-(0)----|---4---0-(0)----|--------------|
|-0---0----------|----------------|---2-----2----|
|----------------|-3---3----------|-0-----2------|


 4/4
  Gtr II
  E S S S S E   +H       E S S E E  S  S E E E
|----------------------|-----------------------|
|----------------------|---3p2------3p=2-----3-|
|-------2---4b6r(4)----|-------4---------2-----|
|---2h4----------------|-----------------------|
|----------------------|-----------------------|
|----------------------|-----------------------|
|
| Gtr I
| E E   E   E   +H       E E   E E +H
|----------------------|-----------------------|
|----------------------|-----------------------|
|----------------------|-----------------------|
|---4-------0---(0)----|---4-----0-(0)---------|
|-2-----2--------------|-----------------------|
|----------------------|-3-----3---------------|


                                      |-3--|
  S S Q.     +H       E  S S S S S S  S  S S S  S S S E
|-------------------|-------------------------------------|
|-3p2---------------|-------------------------------------|
|-----4------(4)----|---11p9-0-9p7-0--7p=6p0-2--6p4p0-2---|
|-------------------|-------------------------------------|
|-------------------|-------------------------------------|
|-------------------|-------------------------------------|
|
| E   E  E E +H       E  E   E   E   +E      Q.
|-------------------|-------------------------------------|
|-------------------|-------------------------------------|
|-------------------|------------------------0------------|
|-----4----0-(0)----|----4-------0---(0)------------------|
|-2------2----------|-------------------------------------|
|-------------------|-3------3----------------------------|


                                                                 2/4
                                                 ~~
   H.             E S S   H        E  E S S E    W                E S S E S S
|-----------------------|---------------------|-----------------|--------------|
|-------------------2h3-|-2-----------2-3p2---|-----------------|--------------|
|-/4-------------/4-----|---------/4--------2-|-/4--------------|--------------|
|-----------------------|---------------------|-----------------|--------------|
|-----------------------|---------------------|-----------------|---2-----2----|
|-----------------------|---------------------|-----------------|-0-----2------|
|
|  E  E E E +H            E E E E +H             E E E E +H       E S S E S S
|-----------------------|---------------------|-----------------|--------------|
|-----------------------|---------------------|-----------------|--------------|
|-----------------------|---------------------|-----------------|--------------|
|-----4---0-(0)---------|---4---0-(0)---------|----4---0-(0)----|--------------|
|--2----2---------------|-0---0---------------|-----------------|---2-----2----|
|-----------------------|---------------------|--3---3----------|-0-----2------|


 4/4
                  |--3--|
  Q   E.   E      T  T  T  E  E E    S  S  S  S  H.
|-------------------------14-19---|-17p15-14-15--------------|
|----------------------15---------|-------------15-----------|
|-------------------16------------|--------------------------|
|----------------16---------------|--------------------------|
|---------------------------------|--------------------------|
|---------------------------------|--------------------------|
|
| E E E  E   +H                      E     E     E  E +H
|---------------------------------|--------------------------|
|---------------------------------|--------------------------|
|---------------------------------|--------------------------|
|---4----0---(0)------------------|--------4--------0-(0)----|
|-2---2---------------------------|--------------------------|
|---------------------------------|--3-----------3-----------|


  E S S E E  S  S E E  S S    E E   E  E  H
|--------------------------|-----------------------|
|--------------------------|-----------------------|
|---7p6-7----9p=7-9---11p9-|-11---/12-12-11--------|
|--------------------------|-----------------------|
|--------------------------|-----------------------|
|--------------------------|-----------------------|
|
| E E   E E +H                E E   E  E +E  Q.
|--------------------------|-----------------------|
|--------------------------|-----------------------|
|--------------------------|-----------------0-----|
|---4-----0-(0)------------|----4------0-(0)-------|
|-2-----2------------------|-----------------------|
|--------------------------|--3-----3--------------|


   +S  S S S S S  S S  S  S S S S S S S   S S E T  S.  S  S  E  E E E
|-------------------------------7-------|---7-9-9s10--10s12-10--9-7-9-|
|------------7-8-10---------7-8---------|-7---------------------------|
|-(11)-----7--------------7-----------7-|-----------------------------|
|--------9-------------9------------9---|-----------------------------|
|---------------------------------------|-----------------------------|
|---------------------------------------|-----------------------------|
|
|   E    E   E    E   +H                  E   E E      E    +H
|---------------------------------------|-----------------------------|
|---------------------------------------|-----------------------------|
|---------------------------------------|-----------------------------|
|--------4--------0---(0)---------------|-----4--------0----(0)-------|
|---2--------2--------------------------|-0-----0---------------------|
|---------------------------------------|-----------------------------|


  E.    S H.            E S S E S S E S S a E S S
|-9----10-7-----------|-----------------------------|
|---------------------|-----------------------------|
|---------------------|-----------------------------|
|---------------------|-----------------------------|
|---------------------|---2-----2-----2---2h4-2-----|
|---------------------|-0-----2-----0---------------|
|
| E  E    E  E +H       E S S E S S E S S a E S S
|---------------------|-----------------------------|
|---------------------|-----------------------------|
|---------------------|-----------------------------|
|----5-------0-(0)----|-----------------------------|
|---------------------|---2-----2-----2---2h4-2-----|
|-3-------3-----------|-0-----2-----0---------------|


 3/4
  Gtr I
  E E E S S  E  E   E E E E  S  S E   E E E S S  E  E   E E E E  S  S E
|-----------------|-----------------|-----------------|-----------------|
|-----------------|-----------------|-----------------|-----------------|
|-----------------|-----------------|-----------------|-----------------|
|---4---0-0--4--0-|---4---0--4--4-0-|---4---0-0--4--0-|---4---0--4--4-0-|
|-2---2-----------|-----------------|-2---2-----------|-----------------|
|-----------------|-3---3-----------|-----------------|-3---3-----------|
|
| E E E E   +Q      E E E E +Q        E E E E   +Q      E E E E +Q
|-----------------|-----------------|-----------------|-----------------|
|-----------------|-----------------|-----------------|-----------------|
|-----------------|-----------------|-----------------|-----------------|
|---4---0---(0)---|---4---0-(0)-----|---4---0---(0)---|---4---0-(0)-----|
|-2---2-----------|-----------------|-2---2-----------|-----------------|
|-----------------|-3---3-----------|-----------------|-3---3-----------|


  E E E S  S E E   E E E E  S S E
|----------------|----------------|
|----------------|----------------|
|----------------|--------------0-|
|---4---0--0-4-0-|---4---0--4-4---|
|-2---2----------|-0---0----------|
|----------------|----------------|
|
| E E E Q.         E E E Q.
|----------------|----------------|
|----------------|----------------|
|----------------|----------------|
|---4---0--------|---4---0--------|
|-2---2----------|-0---0----------|
|----------------|----------------|


                         ~~
  +H.                E S E. E E E   E E E E E E
|------------------|--------------|-------------|
|------------------|--------------|-------------|
|-(0)--------------|--------------|-------------|
|-----4---0--0-4-0-|---2h4--2-----|-----0-------|
|------------------|------------4-|---5-------7-|
|--3----3----------|-0--------2---|-3-----3-5---|
|  E  E E S  S E E
|
|                        ~~
|  E  E E Q.         E S E. E E E   E E E E E E
|------------------|--------------|-------------|
|------------------|--------------|-------------|
|------------------|--------------|-------------|
|-----4---0--------|---2h4--2-----|-----0-------|
|------------------|------------4-|---5-------7-|
|--3----3----------|-0--------2---|-3-----3-5---|


                                                            1.
                          |-3-|     |-3-|
    E E E E E E   Q       S S S S S S S S E   E E E Q    E   E E E E E E
||--------------|---------------------------|-----1--------|---------0----||
||o-------------|---------0h3p0---0-0h3p0---|-------1------|-------0---0-o||
||------0-7---0-|---------------4---------0-|---0--------0-|---4-0--------||
||----7-----7---|-5-------------------------|-3------------|-2------------||
||o-5-----------|---------------------------|--------------|-------------o||
||--------------|---------------------------|--------------|--------------||
|
|                   |-3-| |-3-|
|   E E E Q   E   E S S S S S S Q         E   Q   E E  Q     Q   Q   E E

||--------------|---------------------------|--------------|--------------||
||o---3---3---3-|-5-3h5p3S1h3p1-0---------0-|--------------|-------------o||
||------2-------|-5-4h5p4S2h4p2-0---------0-|-2---2-4-/7---|-4-------4----||
||--0-----------|---------------------------|-3---3-5-/5---|-5---5---5-5--||
||o-------------|---------------------------|--------------|-----7-----7-o||
||--------------|---------------------------|--------------|--------------||


  2.
  E E E E  Q       E E E S S  E  E
|--------------||------------------|
|---0----------||o-----------------|
|-----0-4------||------------------|
|-2------------||----4---0-0--4--0-|
|---------/3---||o-2---2-----------|
|--------------||------------------|
|
| Q   E E  E E     E E E E   +Q
|--------------||------------------|
|--------------||o-----------------|
|-2---2-4--5-4-||------------------|
|-3---3-5--7-5-||----4---0---(0)---|
|--------------||o-2---2-----------|
|--------------||------------------|


  E E E E  S S E   E E E S S  E  E   E E E E Q
|----------------|-----------------|------------|
|----------------|-----------------|------------|
|----------------|-----------------|------------|
|---4---0--4-4-0-|---4---0-0--4--0-|---4---0-0--|
|----------------|-2---2-----------|---------0--|
|-3---3----------|-----------------|-3---3------|
|
| E E E Q.         E E E E   +Q      E E E E Q
|----------------|-----------------|------------|
|----------------|-----------------|------------|
|----------------|-----------------|------------|
|---4---0--------|---4---0---(0)---|---4---0----|
|----------------|-2---2-----------|---------5--|
|-3---3----------|-----------------|-3---3---5--|


                                                    2/4
  E E E S  S E E   E E E E  S S E   E E E S  S E E   E S S E S S
|----------------|----------------|----------------|--------------|
|----------------|----------------|----------------|--------------|
|----------------|--------------0-|----------------|--------------|
|---4---0--0-4-0-|---4---0--4-4---|---4---0--0-4-0-|--------------|
|-2---2----------|-0---0----------|----------------|---2-----2----|
|----------------|----------------|-3---3----------|-0-----2------|
|
| E E E Q.         E E E Q.         E E E Q.         E S S E S S
|----------------|----------------|----------------|--------------|
|----------------|----------------|----------------|--------------|
|----------------|----------------|----------------|--------------|
|---4---0--------|---4---0--------|---4---0--------|--------------|
|-2---2----------|-0---0----------|----------------|---2-----2----|
|----------------|----------------|-3---3----------|-0-----2------|


 3/4
  E E E S S  E  E   E E E E  S S E   E E E S S  E  E   E E E E Q
|-----------------|----------------|-----------------|-------------|
|-----------------|----------------|-----------------|-------------|
|-----------------|----------------|-----------------|-------------|
|---4---0-0--4--0-|---4---0--4-4-0-|---4---0-0--4--0-|---4---0-0---|
|-2---2-----------|----------------|-2---2-----------|---------0---|
|-----------------|-3---3----------|-----------------|-3---3-------|
|
| E E E E   +Q      E E E Q.         E E E E   +Q      E E E E Q
|-----------------|----------------|-----------------|-------------|
|-----------------|----------------|-----------------|-------------|
|-----------------|----------------|-----------------|-------------|
|---4---0---(0)---|---4---0--------|---4---0---(0)---|---4---0-----|
|-2---2-----------|----------------|-2---2-----------|---------5---|
|-----------------|-3---3----------|-----------------|-3---3---5---|


                                                    2/4
  E E E S  S E E   E E E E  S S E   E E E S  S E E   E S S E S S
|----------------|----------------|----------------|--------------|
|----------------|----------------|----------------|--------------|
|----------------|--------------0-|----------------|--------------|
|---4---0--0-4-0-|---4---0--4-4---|---4---0--0-4-0-|--------------|
|-2---2----------|-0---0----------|----------------|---2-----2----|
|----------------|----------------|-3---3----------|-0-----2------|
|
| E E E Q.         E E E Q.         E E E Q.         E S S E S S
|----------------|----------------|----------------|--------------|
|----------------|----------------|----------------|--------------|
|----------------|----------------|----------------|--------------|
|---4---0--------|---4---0--------|---4---0--------|--------------|
|-2---2----------|-0---0----------|----------------|---2-----2----|
|----------------|----------------|-3---3----------|-0-----2------|


 6/4                                         3/4
                                              Gtr III
  W                     W                     H.
                                              |
                                              o

  Gtr II
                                      ~
  Q.   E E E Q  Q  Q    Q.   E E E Q  Q  Q    E  E E E E E
|---------------------|---------------------|---------------|
|---------------------|---------------------|---------------|
|-0----2-4-2-0-----4--|-2----4-6-4-2--------|------0-7---0--|
|-0----2-4-2-0--4--4--|-2----4-6-4-2--------|----7-----7----|
|------0-2-0----4--2--|-0----2-4-2-0--3--4--|-5-------------|
|-3----------3--2-----|---------------------|---------------|
|
| Gtr III                                     Gtr I
|                                     ~
| Q.   E E E Q  Q  Q    Q.   E E E Q  Q  Q    E  E E Q   E
|---------------------|---------------------|---------------|
|---------------------|---------------------|----3---3---3--|
|-0----2-4-2-0-----4--|-2----4-6-4-2--------|------2--------|
|-0----2-4-2-0--4--4--|-2----4-6-4-2--------|-0-------------|
|------0-2-0----4--2--|-0----2-4-2-0--3--4--|---------------|
|-3----------3--2-----|---------------------|---------------|


                                                1.
  +H.                           +H.              +H.             W
   |                             |                |
   o                             o                o

      |-3-| |-3-|
   E  S S S S S S Q         E    Q    E E  Q      Q    Q   E E   E E E Q   E
|-----------------------------|----------------|---------------|--------------|
|--5--3s5s3s1s3s1-0---------0-|----------------|---------------|---3---3---3--|
|--5--4s5s4s2s4s2-0---------0-|--2----2-4-/5---|--4--------4---|-----2--------|
|-----------------------------|--3----3-5-/7---|--5----5---5-5-|-0------------|
|-----------------------------|----------------|-------7-----7-|--------------|
|-----------------------------|----------------|---------------|--------------|
|
|           |-3-|     |-3-|
|  Q        S S S S S S S S E    E  E E Q    E    E  E E E E E   E E E E E E
|-----------------------------|-------1--------|-----------0---|--------------|
|-----------0h3p0---0-0h3p0---|---------1------|---------0---0-|--------------|
|-----------------4---------0-|-----0--------0-|-----4-0-------|-----0-7---0--|
|--5--------------------------|--3-------------|--2------------|---7-----7----|
|-----------------------------|----------------|---------------|-5------------|
|-----------------------------|----------------|---------------|--------------|


  W                           W
    |-3-| |-3-|
  E S S S S S S Q         E   Q   E E  Q
|---------------------------|--------------|
|-5-3h5p3S1h3p1-0---------0-|--------------|
|-5-4h5p4S2h4p2-0---------0-|-2---2-4-/7---|
|---------------------------|-3---3-5-/5---|
|---------------------------|--------------|
|---------------------------|--------------|
|
|         |-3-|     |-3-|
| Q       S S S S S S S S E   E E E Q    E
|---------------------------|-----1--------|
|---------0h3p0---0-0h3p0---|-------1------|
|---------------4---------0-|---0--------0-|
|-5-------------------------|-3------------|
|---------------------------|--------------|
|---------------------------|--------------|


                  2.
                   G   Em  G    Em
  W                Q   Q    E    E
                   |   |    |    |
                   /   /    /    /

                   Gtr II
  Q   E E  E E     H        S S  S S
|---------------||--------------------|
|--------------o||---------10-7----7--|
|-2---2-4--5-4--||--------------10----|
|-3---3-5--7-5--||--------------------|
|--------------o||--------------------|
|---------------||--------------------|
|
| E E E E  Q       E E E E  E    E
|---------------||----------0---------|
|---0----------o||-------0-------0----|
|-----0-4-------||---4-0--------------|
|-2-------------||-2------------------|
|---------/3---o||--------------------|
|---------------||--------------------|


   Q    E E E E   E S S H
|---------------|-------------------------|
|-10---10-8-7---|-7h8p7-------------------|
|-------------9-|-------7-----------------|
|---------------|-------------------------|
|---------------|-------------------------|
|---------------|-------------------------|
|
|                       |-3-|     |-3-|
|  E E  E E E E   Q     S S S S S S S S E
|---------------|-------------------------|
|---------------|-------0h3p0---0-0h3p0---|
|-------0-7---0-|-0-----------4---------0-|
|----7------7---|-------------------------|
|--5------------|-------------------------|
|---------------|-------------------------|


                  ~
   E E E  E E E   H        S  S  S  S
|-10-8-7----7-8-|---------17p14----14-|
|--------10-----|-8-------------15----|
|---------------|---------------------|
|---------------|---------------------|
|---------------|---------------------|
|---------------|---------------------|
|
|  E E E  Q   E   E E E E  E     E
|------1--------|----------0----------|
|---------1-----|-------0--------0----|
|----0--------0-|---4-0---------------|
|--3------------|-2-------------------|
|---------------|---------------------|
|---------------|---------------------|


   Q    E  E  E  S  S    Q   E      E    E      E
|-17---17-15-14-15p14-|-----------------15-----17-|
|---------------------|-15--15-----19-------------|
|---------------------|---------------------------|
|---------------------|---------------------------|
|---------------------|---------------------------|
|---------------------|---------------------------|
|
|                            |-3-|       |-3-|
|  E E  E  E  E  E       Q   S S S  S S  S S S  E
|---------------------|---------------------------|
|---------------------|------0h3p0----0--0h3p0----|
|-------0--7-----0----|--0----------4-----------0-|
|----7--------7-------|---------------------------|
|--5------------------|---------------------------|
|---------------------|---------------------------|


   |--3--|  |--3--|  |--3--|
   S  S  S  S  S  S  S  S  S  S  S  S  S  E
|-19-17-15-19-17-15-19-17-15----15-----------|
|----------------------------19----17-19-15--|
|--------------------------------------------|
|--------------------------------------------|
|--------------------------------------------|
|--------------------------------------------|
|
|  E        E        E        Q           E
|--------------------1-----------------------|
|-----------------------------1--------------|
|-----------0-----------------------------0--|
|--3-----------------------------------------|
|--------------------------------------------|
|--------------------------------------------|


   +H         +Q      Q   E E  E  +E      E  E  E      E    E      +E
|-------------------|-----------------|--------------------------------|
|-(15)-------(15)---|-8---8-8S=7--(7)-|-/13-13-13-----13---12-----(12)-|
|-------------------|-7---7-7-(7)-(7)-|-/12-12-12-----12---12-----(12)-|
|-------------------|-----------------|--------------------------------|
|-------------------|-----------------|--------------------------------|
|-------------------|-----------------|--------------------------------|
|
|                                               |-3-|       |-3-|
|   E  E E E   E  E   E E E E  E   E      Q     S S S  S S  S S S   E
|--------------0----|-----------------|--------------------------------|
|----------0------0-|-----------------|---------0h3p0----0--0h3p0------|
|------4-0----------|-----0-7------0--|---0------------4------------0--|
|---2---------------|---7------7------|--------------------------------|
|-------------------|-5---------------|--------------------------------|
|-------------------|-----------------|--------------------------------|


   T        T        T        T        T        T
   |--3--|  |--3--|  |--3--|  |--3--|  |--3--|  |--3--|
   S  S  S  S  S  S  S  S  S  S  S  S  S  S  S  S  S  S
|-20p17p13-20p17p13-20p17p13-20p17p13-20p17p13-20p17p13-|
|-------------------------------------------------------|
|-------------------------------------------------------|
|-------------------------------------------------------|
|-------------------------------------------------------|
|-------------------------------------------------------|
|
|  E        E        E        Q                 E
|--------------------1----------------------------------|
|-----------------------------1-------------------------|
|-----------0-----------------------------------0-------|
|--3----------------------------------------------------|
|-------------------------------------------------------|
|-------------------------------------------------------|


                            6/4
  Gtr I
   E     E  E     E   E  E   W                     H      W
   |     |  |     |   |  |
   o     o  o     o   o  o

  Gtr II                     Gtrs II, III
   S  S  E  S  S  E  +Q      Q.   E E E Q  Q  Q    Q.   E E E Q  Q  Q
|-12h13p12-12h13p12-(12)---|---------------------|---------------------|
|--------------------------|---------------------|---------------------|
|--------------------------|-0----2-4-2-0-----4--|-2----4-6-4-2--4--6--|
|--------------------------|-0----2-4-2-0--4--4--|-2----4-6-4-2--4--6--|
|--------------------------|------0-2-0----4--2--|-0----2-4-2-0--2--4--|
|--------------------------|-3----------3--2-----|---------------------|


  Q.   E E E Q  Q  Q    Q.   E E E Q  Q  Q    Q.   E E E Q  Q  Q
|---------------------|---------------------|----------------------||
|---------------------|---------------------|----------------------||
|-0----2-4-2-0-----4--|-2----4-6-4-2--4--6--|-0----2-4-2-0-----4---||
|-0----2-4-2-0--4--4--|-2----4-6-4-2--4--6--|-0----2-4-2-0--4--4---||
|------0-2-0----4--2--|-0----2-4-2-0--2--4--|------0-2-0----4--2---||
|-3----------3--2-----|---------------------|-3----------3--2------||


   3/4
    Gtr II
                                                 ~~~
    Q.   E E E    H.               H      Q      H.                  4x
||-------------|-----------------|------------|----------------------||
||o-5----3-5h8-|--8--------------|-7------7---|--8------------------o||
||--5----4-5-7-|--7--------------|-8------8---|--9-------------------||
||--7----5-7-9-|--9----9-10-12---|-9------9---|-10-------------------||
||o-7----5-7h9-|-10---10-12-14---|------------|-14p12p10-(10)-------o||
||-------------|-----------------|------------|----------------------||
|   Q.   E E E    Q    E  E  Q     H      Q      S  S  E  +H
|
|   Gtr III
|        PM--|         PM------|        PM  PM                PM  PM
|   Q.   E E E    Q    E  E  E E   Q.   E E E    Q.           E E E  4x
||-------------|-----------------|------------|----------------------||
||o------------|-----------------|------------|---------------------o||
||-------------|-------0--0--0-0-|-4------4---|--5--------------5----||
||--2----0-2-0-|-------0--0--0-0-|-4------4---|--5--------------5----||
||o-3----2-3-0-|--2----5--5--5-5-|-2------2---|--3--------------3---o||
||-------------|--3----3--3--3-3-|------2---2-|---------------3---3--||


    Gtrs II, III
                                        PM  PM
    E E E E E E   E E E E E +E     Q.   E E E
||--------------|----------------|------------|
||o-------------|----------------|------------|
||--------------|----------------|-4------4---|
||--5-5-5-7-5---|-4-4-4-5-4-(4)\-|-4------4---|
||o-7-7-7-7-7-5-|-5-5-5-5-5-(5)\-|-2------2---|
||--------------|----------------|------2---2-|


                Slightly Faster Q=108
                   4/4
    PM|   PM  PM
  E S S E E E E     W          +W
|----------------||----------|--------|
|---------------o||----------|--------|
|-5-----5---5----||-5--------|-(5)----|
|-5-5-5-5---5----||-5--------|-(5)----|
|-3-3-3-3---3---o||-7--------|-(7)----|
|---------3---3--||-0--------|-(0)----|


  |-3-| |-3-|     |-3-| |-3-|       |-3-| |-3-|     |-3-| |-3-|
  S S S S S S E E S S S S S S E E   S S S S S S E E S S S S S S E E
|---------------------------------|---------------------------------|
|---------------------------------|---------------------------------|
|---------------------------------|---------------------------------|
|-------------2---------------2---|-------------2---------------2---|
|-------------2---------------2---|-------------2---------------2---|
|-0-0-0-0-0-0-0---0-0-0-0-0-0-0---|-0-0-0-0-0-0-0---0-0-0-0-0-0-0---|


  |-3-| |-3-|    |-3-| |-3-|         |-3-| |-3-|    |-3-| |-3-|
  S S S S S S Q  S S S S S S E E     S S S S S S Q  S S S S S S E E  5x
|--------------------------------||----------------------------------||
|--------------------------------||o--------------------------------o||
|--------------------------------||----------------------------------||
|-------------2--------------2---||--------------2--------------2-3--||
|-------------2--------------2---||o-------------2--------------2-3-o||
|-0-0-0-0-0-0-0--0-0-0-0-0-0-0---||--0-0-0-0-0-0-0--0-0-0-0-0-0------||


    |-3-| |-3-|     |-3-| |-3-|       |-3-| |-3-|     |-3-| |-3-|
    S S S S S S E E S S S S S S E E   S S S S S S E E S S S S S S E E
||----------------------------------|----------------------------------|
||o---------------------------------|----------------------------------|
||----------------------------------|----------------------------------|
||--------------2---------------2---|-------------2---------------2-3--|
||o-------------2---------------2---|-------------2---------------2-3--|
||--0-0-0-0-0-0-----0-0-0-0-0-0-----|-0-0-0-0-0-0-----0-0-0-0-0-0------|


  |-3-| |-3-|     |-3-| |-3-|       |-3-| |-3-|     |-3-| |-3-|
  S S S S S S E E S S S S S S E E   S S S S S S E E S S S S S S E E
|---------------------------------|---------------------------------|
|---------------------------------|---------------------------------|
|---------------------------------|---------------------------------|
|-------------2---------------2---|-------------2---------------2-3-|
|-------------2---------------2---|-------------2---------------2-3-|
|-0-0-0-0-0-0-----0-0-0-0-0-0-----|-0-0-0-0-0-0-----0-0-0-0-0-0-----|


  1.
              ~                                ~
  |-3-| |-3-|    |-3-| |-3-|       |-3-| |-3-|    |-3-| |-3-|
  S S S S S S Q  S S S S S S E E   S S S S S S Q  S S S S S S E E
|--------------------------------|--------------------------------|
|--------------------------------|--------------------------------|
|--------------------------------|--------------------------------|
|--------------------------------|--------------------------------|
|-------------7--------------7S8-|-------------5--------------5S8-|
|-0-0-0-0-0-0----0-0-0-0-0-0-----|-0-0-0-0-0-0----0-0-0-0-0-0-----|


              ~                                ~
  |-3-| |-3-|    |-3-| |-3-|       |-3-| |-3-|    |-3-| |-3-|
  S S S S S S Q  S S S S S S E E   S S S S S S Q  S S S S S S E E
|--------------------------------|---------------------------------||
|--------------------------------|--------------------------------o||
|--------------------------------|---------------------------------||
|--------------------------------|---------------------------------||
|-------------7--------------7S8-|-------------5--------------5---o||
|-0-0-0-0-0-0----0-0-0-0-0-0-----|-0-0-0-0-0-0----0-0-0-0-0-0---7--||


    2.uble Time Q=216
                ~
    |-3-| |-3-|    |-3-|   |-3-|    |-3-|
    E E E E E E Q  E E E   E E E Q  E E E Q
||-----------------------|-------------------|
||o----------------------|-------------------|
||-----------------------|-------------------|
||--------------2--------|-------2--------3--|
||o-------------2--------|-------2--------3--|
||--0-0-0-0-0-0----0-0-0-|-0-0-0----0-0-0----|


              ~
  |-3-| |-3-|    |-3-|   |-3-|    |-3-|
  E E E E E E Q  E E E   E E E Q  E E E Q
|----------------------|--------------------|
|----------------------|--------------------|
|----------------------|--------------------|
|-------------2--------|-------2--------3---|
|-------------2--------|-------2--------3---|
|-0-0-0-0-0-0----0-0-0-|-0-0-0----0-0-0-----|


              ~
  |-3-| |-3-|    |-3-|   |-3-|    |-3-|
  E E E E E E Q  E E E   E E E Q  E E E Q
|----------------------|-------------------|
|----------------------|-------------------|
|----------------------|-------------------|
|-------------2--------|-------2--------3--|
|-------------2--------|-------2--------3--|
|-0-0-0-0-0-0----0-0-0-|-0-0-0----0-0-0----|


              ~
  |-3-| |-3-|    |-3-|   |-3-|    |-3-|
  E E E E E E Q  E E E   E E E Q  E E E Q
|----------------------|---------------------|
|----------------------|---------------------|
|----------------------|---------------------|
|-------------2--------|-------2--------3----|
|-------------2--------|-------2--------3----|
|-0-0-0-0-0-0----0-0-0-|-0-0-0----0-0-0------|


  |-3-| |-3-|     |-3-|   |-3-|     |-3-|
  E E E E E E E E E E E   E E E E E E E E E E
|-----------------------|---------------------|
|-----------------------|---------------------|
|-----------------------|---------------------|
|-----------------------|---------------------|
|-----------------------|---------------------|
|-0-0-0-0-0-0-0---0-0-0-|-0-0-0-0---0-0-0-0---|


  |-3-| |-3-|     |-3-|   |-3-|     |-3-| |-3-|
  E E E E E E E E E E E   E E E E E E E E E E E
|-----------------------|-------------------------||
|-----------------------|------------------------o||
|-----------------------|-------------------------||
|-----------------------|-------------------------||
|-----------------------|------------------------o||
|-0-0-0-0-0-0-0---0-0-0-|-0-0-0-0---0-0-0-0-0-0---||


  Gtr II
   T        T        T        T        T        T        T        T
   |--3--|  |--3--|  |--3--|  |--3--|  |--3--|  |--3--|  |--3--|  |--3--|
   S  S  S  S  S  S  S  S  S  S  S  S  S  S  S  S  S  S  S  S  S  S  S  S
|-19p15p12-19p15p12-19p15p12-19p15p12-19p15p12-19p15p12-19p15p12-19p15p12-|
|-------------------------------------------------------------------------|
|-------------------------------------------------------------------------|
|-------------------------------------------------------------------------|
|-------------------------------------------------------------------------|
|-------------------------------------------------------------------------|
|
| Gtr III
|                                      ~~~
|  |-----3-----|     |-----3-----|                       |-----3-----|
|  E     E     E     E     E     E     Q                 E     E     E
|-------------------------------------------------------------------------|
|-------------------------------------------------------------------------|
|-------------------------------------------------------------------------|
|--------------------------------------2----------------------------------|
|--------------------------------------2----------------------------------|
|--0-----0-----0-----0-----0-----0-----------------------0-----0-----0----|


   T        T        T        T                          T        T
   |--3--|  |--3--|  |--3--|  |--3--|  |--3--|  |--3--|  |--3--|  |--3--|
   S  S  S  S  S  S  S  S  S  S  S  S  S  S  S  S  S  S  S  S  S  S  S  S
|-20p15p12-20p15p12-20p15p12-20p15p12-20p15p12-20p15p12-20p15p12-20p15p12--|
|--------------------------------------------------------------------------|
|--------------------------------------------------------------------------|
|--------------------------------------------------------------------------|
|--------------------------------------------------------------------------|
|--------------------------------------------------------------------------|
|
|  |-----3-----|                       |-----3-----|
|  E     E     E     Q                 E     E     E     Q
|--------------------------------------------------------------------------|
|--------------------------------------------------------------------------|
|--------------------------------------------------------------------------|
|--------------------2-----------------------------------3-----------------|
|--------------------2-----------------------------------3-----------------|
|--0-----0-----0-----------------------0-----0-----0-----------------------|


  Gtr II
   T        T        T        T        T        T        T        T
   |--3--|  |--3--|  |--3--|  |--3--|  |--3--|  |--3--|  |--3--|  |--3--|
   S  S  S  S  S  S  S  S  S  S  S  S  S  S  S  S  S  S  S  S  S  S  S  S
|-------------------------------------------------------------------------|
|-19p15p12-19p15p12-19p15p12-19p15p12-19p15p12-19p15p12-19p15p12-19p15p12-|
|-------------------------------------------------------------------------|
|-------------------------------------------------------------------------|
|-------------------------------------------------------------------------|
|-------------------------------------------------------------------------|
|
| Gtr III
|                                      ~~~
|  |-----3-----|     |-----3-----|                       |-----3-----|
|  E     E     E     E     E     E     Q                 E     E     E
|-------------------------------------------------------------------------|
|-------------------------------------------------------------------------|
|-------------------------------------------------------------------------|
|--------------------------------------2----------------------------------|
|--------------------------------------2----------------------------------|
|--0-----0-----0-----0-----0-----0-----------------------0-----0-----0----|


   T        T        T        T                          T        T
   |--3--|  |--3--|  |--3--|  |--3--|  |--3--|  |--3--|  |--3--|  |--3--|
   S  S  S  S  S  S  S  S  S  S  S  S  S  S  S  S  S  S  S  S  S  S  S  S
|--------------------------------------------------------------------------|
|-20p15p12-20p15p12-20p15p12-20p15p12-20p15p12-20p15p12-20p15p12-20p15p12--|
|--------------------------------------------------------------------------|
|--------------------------------------------------------------------------|
|--------------------------------------------------------------------------|
|--------------------------------------------------------------------------|
|
|  |-----3-----|                       |-----3-----|
|  E     E     E     Q                 E     E     E     Q
|--------------------------------------------------------------------------|
|--------------------------------------------------------------------------|
|--------------------------------------------------------------------------|
|--------------------2-----------------------------------3-----------------|
|--------------------2-----------------------------------3-----------------|
|--0-----0-----0-----------------------0-----0-----0-----------------------|


  Gtr II
   T        T        T        T        T        T        T        T
   |--3--|  |--3--|  |--3--|  |--3--|  |--3--|  |--3--|  |--3--|  |--3--|
   S  S  S  S  S  S  S  S  S  S  S  S  S  S  S  S  S  S  S  S  S  S  S  S
|-------------------------------------------------------------------------|
|-17p13p10-17p13p10-17p13p10-17p13p10-17p13p10-17p13p10-17p13p10-17p13p10-|
|-------------------------------------------------------------------------|
|-------------------------------------------------------------------------|
|-------------------------------------------------------------------------|
|-------------------------------------------------------------------------|
|
| Gtr III
|                                      ~~~
|  |-----3-----|     |-----3-----|                       |-----3-----|
|  E     E     E     E     E     E     Q                 E     E     E
|-------------------------------------------------------------------------|
|-------------------------------------------------------------------------|
|-------------------------------------------------------------------------|
|--------------------------------------2----------------------------------|
|--------------------------------------2----------------------------------|
|--0-----0-----0-----0-----0-----0-----------------------0-----0-----0----|


   T        T        T        T                          T        T
   |--3--|  |--3--|  |--3--|  |--3--|  |--3--|  |--3--|  |--3--|  |--3--|
   S  S  S  S  S  S  S  S  S  S  S  S  S  S  S  S  S  S  S  S  S  S  S  S
|--------------------------------------------------------------------------|
|-18p13p10-18p13p10-18p13p10-18p13p10-18p13p10-18p13p10-18p13p10-18p13p10--|
|--------------------------------------------------------------------------|
|--------------------------------------------------------------------------|
|--------------------------------------------------------------------------|
|--------------------------------------------------------------------------|
|
|  |-----3-----|                       |-----3-----|
|  E     E     E     Q                 E     E     E     Q
|--------------------------------------------------------------------------|
|--------------------------------------------------------------------------|
|--------------------------------------------------------------------------|
|--------------------2-----------------------------------3-----------------|
|--------------------2-----------------------------------3-----------------|
|--0-----0-----0-----------------------0-----0-----0-----------------------|


  Gtr II
   T        T       T       T     T       T
      |--3--|                  |-----3------|
   a  E  E  E  E    a  E    a  Q  a  Q    a Q
|-----------------------------------------------|
|-17p12h14-17p12---17p10---17p12-17p10---17p8---|
|-----------------------------------------------|
|-----------------------------------------------|
|-----------------------------------------------|
|-----------------------------------------------|
|
| Gtr III
|                              ~~
|     |--3--|  |----3----|             |--3---|
|     E  E  E  E E       E     Q       E    E E
|-----------------------------------------------|
|-----------------------------------------------|
|-----------------------------------------------|
|------------------------------2----------------|
|------------------------------2----------------|
|-----0--0--0--0-0-------0-------------0----0-0-|


   T       T      T    T      T      T
      |------3------|    |------3------|
   a  Q    a Q    a Q  a Q    a Q    a Q
|-----------------------------------------|
|-17p10---17p8---17p7-17p8---17p7---17p5--|
|-----------------------------------------|
|-----------------------------------------|
|-----------------------------------------|
|-----------------------------------------|
|
|     |--3---|           |--3---|
|     E E    E Q         E E    E Q
|-----------------------------------------|
|-----------------------------------------|
|-----------------------------------------|
|--------------2------------------3-------|
|--------------2------------------3-------|
|-----0-0----0-----------0-0----0---------|


    ~~~~~~~~~~~~~~
    |--3--|  |--3--|        |--3--|
    E  E  E  E  E  E  E  E  E  E  E
|--------------------------14-14-14-|
|-/12-12-12-12-12-12-12-12----------|
|-----------------------------------|
|-----------------------------------|
|-----------------------------------|
|-----------------------------------|
|
|   |--3--|  |--3--|        |--3--|
|   E  E  E  E  E  E  E  E  E  E  E
|-----------------------------------|
|-----------------------------------|
|-----------------------------------|
|-----------------------------------|
|-----------------------------------|
|---0--0--0--0--0--0--0-----0--0--0-|


   |--3--|  |----3-----|  |--3--|  |---3----|
   E  E  E  E  E    S  S  E  E  E  E  E  S  S
|-15-15-15-17-17---17-17----------17-17-17-17--|
|------------------------15-15-15--------------|
|----------------------------------------------|
|----------------------------------------------|
|----------------------------------------------|
|----------------------------------------------|
|
|  |--3--|                |--3--|  |--3--|
|  E  E  E  E    E        E  E  E  E  E  E
|----------------------------------------------|
|----------------------------------------------|
|----------------------------------------------|
|----------------------------------------------|
|----------------------------------------------|
|--0--0--0--0-------------0--0--0--0--0--0-----|


   Q          +Q        E      +E    Q
|-22b24======(24)r-----22b24==(24)r-22b24===|
|-------------------------------------------|
|-------------------------------------------|
|-------------------------------------------|
|-------------------------------------------|
|-------------------------------------------|
|
|  |---3---|   |--3--|
|  E     E E   E   E E  Q            Q

|-------------------------------------------|
|-------------------------------------------|
|-------------------------------------------|
|-----------------------2------------2------|
|-----------------------2------------2------|
|--0-----0-0---0---0-0--0------------0------|


    ~~~~~~~~~~~~~~~~~~~~
                                   |--3--|  |--3--|  |--3--|     |--3--|
   +H             +Q       E  E    E  E  E  E  E  E  S  S  S  E  E  E  E
|-(24)-----------(24)r\------15-|-17p15-------------15h17p15-------------|
|------------------------/17----|-------17-15-17-19----------17-15-17-19-|
|-------------------------------|----------------------------------------|
|-------------------------------|----------------------------------------|
|-------------------------------|----------------------------------------|
|-------------------------------|----------------------------------------|
|
|   |-3--| |-3-|                   |--3--|  |--3--|
|   E  E E E E E   Q       Q       E  E  E  E  E  E  Q           Q
|-------------------------------|----------------------------------------|
|-------------------------------|----------------------------------------|
|-------------------------------|----------------------------------------|
|------------------2-------2----|--------------------2-----------2-------|
|------------------2-------2----|--------------------2-----------2-------|
|---0--0-0-0-0-0---0-------0----|--0--0--0--0--0--0--0-----------0-------|


   |--3--|       |--3--|  |--3--|     |--3--|
   S  S  S  E    E  E  E  S  S  S  E  E  E  E
|-15h17p15---------------15h17p15----------15-|
|----------17---15-17-19----------17-17-19----|
|---------------------------------------------|
|---------------------------------------------|
|---------------------------------------------|
|---------------------------------------------|
|
|  |----3-----|  |--3--|
|  E     E    E  E  E  E  Q           Q
|---------------------------------------------|
|---------------------------------------------|
|---------------------------------------------|
|-------------------------5-----------5-------|
|-------------------------5-----------5-------|
|--3-----3----3--3--3--3--3-----------3-------|


   |---3----|  |--3--|  |---3----|  |-3--|
   E  E  S  S  E  E  E  E  E  S  S  E  E E
|-17p15-------------15-17p15-------15h17---|
|-------17-15-17-19----------17-15---------|
|------------------------------------------|
|------------------------------------------|
|------------------------------------------|
|------------------------------------------|
|
|  |--3--|     |--3--|
|  E  E  E     E  E  E  Q           Q
|------------------------------------------|
|------------------------------------------|
|------------------------------------------|
|-----------------------2-----------2------|
|-----------------------2-----------2------|
|--0--0--0-----0--0--0--0-----------0------|



   S  S    S    S  S  S    S    S  S  S  S  S  S  S  S  S
|-19p17p==15------19p17p==15------19p17p15----19p17p15----|
|--------------15--------------15----------15----------15-|
|---------------------------------------------------------|
|---------------------------------------------------------|
|---------------------------------------------------------|
|---------------------------------------------------------|
|
|  |----3----|     |----3----|
|  E    E    E     E    E    E     Q           Q
|---------------------------------------------------------|
|---------------------------------------------------------|
|---------------------------------------------------------|
|----------------------------------2-----------2----------|
|----------------------------------2-----------2----------|
|--0----0----0-----0----0----0-----0-----------0----------|


   |--3--|  |--3--|  |--3--|  |--3--|
   E  E  E  E  E  E  E  E  E  E  E  E
|-19p17----19p17----19p17----19p17p15-|
|-------15-------15-------15----------|
|-------------------------------------|
|-------------------------------------|
|-------------------------------------|
|-------------------------------------|
|
|  |--3--|  |--3--|
|  E  E  E  E  E  E  Q        Q
|-------------------------------------|
|-------------------------------------|
|-------------------------------------|
|--------------------2--------2-------|
|--------------------2--------2-------|
|--0--0--0--0--0--0--0--------0-------|


   S      +S      E    S      +S      E    S      +S    E  S      +S    E
|----------------15------------------15----------------15--------------15-|
|-18b20==(20)r--------18b20==(20)r--------18b20==(20)r----18b20==(20)r----|
|-------------------------------------------------------------------------|
|-------------------------------------------------------------------------|
|-------------------------------------------------------------------------|
|-------------------------------------------------------------------------|
|
|  |-------3--------|  |-------3--------|
|  E           E    E  E           E    E  Q               Q
|-------------------------------------------------------------------------|
|-------------------------------------------------------------------------|
|-------------------------------------------------------------------------|
|------------------------------------------5---------------5--------------|
|------------------------------------------5---------------5--------------|
|--3-----------3----3--3-----------3----3--3---------------3--------------|


   S      +S      E    S      +S      E    S      +S    E  S      +S    E
|-18b19==(19)r---15------------------15---18b19==(19)r-15--------------15-|
|---------------------18b20==(20)r------------------------18b20==(20)r----|
|-------------------------------------------------------------------------|
|-------------------------------------------------------------------------|
|-------------------------------------------------------------------------|
|-------------------------------------------------------------------------|
|
|  |-------3--------|  |-------3--------|
|  E           E    E  E           E    E  Q               Q
|-------------------------------------------------------------------------|
|-------------------------------------------------------------------------|
|-------------------------------------------------------------------------|
|------------------------------------------5---------------5--------------|
|------------------------------------------5---------------5--------------|
|--3-----------3----3--3-----------3----3--3---------------3--------------|


   |--3--|         |--3--|        |--3--|         |--3--|
   E  E  E  Q      E  E  E  Q     E  E  E  Q      S  S  S  E  Q
|-19p17p15-17-----17p15----15--|---------------------------------|
|-----------------------19-----|-19p17p15-17-----15h17p15s13-15--|
|------------------------------|---------------------------------|
|------------------------------|---------------------------------|
|------------------------------|---------------------------------|
|------------------------------|---------------------------------|
|
|  |--3--|  |-3-|                 |--3--|  |-3-|
|  E  E  E  E E E  Q        Q     E  E  E  E E E  Q           Q
|------------------------------|---------------------------------|
|------------------------------|---------------------------------|
|------------------------------|---------------------------------|
|------------------5--------5--|------------------5-----------6--|
|------------------5--------5--|------------------5-----------6--|
|--3--3--3--3-3-3--3--------3--|--3--3--3--3-3-3-----------------|


   |--3--|              |--3--|     |--3--|
   S  S  S  E    Q      S  S  S  E  E  E  E
|-------------------------------------------|
|-13h15p13p12---13-----12h13p12----12-------|
|-------------------------------14----14p12-|
|-------------------------------------------|
|-------------------------------------------|
|-------------------------------------------|
|
|  |----3-----|  |-3-|
|  E     E    E  E E E  Q
|-------------------------------------------|
|-------------------------------------------|
|-------------------------------------------|
|-----------------------3-----------3-------|
|-----------------------3-----------3-------|
|--1-----1----1--1-1-1--1-----------1-------|



   |--3--|  |--3--|  |--------------------3--------------------|
   E  E  E  E  E  E  S      +S   E  S      +S   E  S      +S   E
|----------------------------------------------------------------|
|----------------------------------------------------------------|
|-14p12----12----12-14b16==(16)r---14b16==(16)r---14b16==(16)r---|
|-------14----14-------------------------------------------------|
|----------------------------------------------------------------|
|----------------------------------------------------------------|
|
|  |--3--|  |--3--|
|  E  E  E  E  E  E  Q                          Q
|----------------------------------------------------------------|
|----------------------------------------------------------------|
|----------------------------------------------------------------|
|--------------------5--------------------------5----------------|
|--------------------5--------------------------5----------------|
|--3--3--3--3--3--3--3--------------------------3----------------|



   |------3-------|                   |----3----|
   S      +S   E  H            +Q    +S   +S    S  E
|------------------------------------------------------|
|------------------------------------------------------|
|-14b16==(16)r---14b16========(16)--(16)-(16)r-12------|
|-------------------------------------------------14---|
|------------------------------------------------------|
|------------------------------------------------------|
|
|  |------3-------|     |-3-|
|  E           E  E     E E E   Q     Q
|------------------------------------------------------|
|------------------------------------------------------|
|------------------------------------------------------|
|-------------------------------5-----5----------------|
|-------------------------------5-----5----------------|
|--3-----------3--3-----3-3-3---3-----3----------------|


                                              ~~
   |----3----|    |---3---|    |----3----|
   Q    Q    Q    Q  Q    Q    Q    Q    Q    H
|---------------------------|-----------------------|
|---------------------------|-----------------------|
|-12--------12--------------|-----------------------|
|------14--------14-13---12-|-----------------------|
|---------------------------|-14---13---12---10-----|
|---------------------------|-----------------------|
|
|  |-3--| |-3--|               |-3--| |-3--|
|  E E  E E  E E  Q    Q       E E  E E  E E  Q  Q
|---------------------------|-----------------------|
|---------------------------|-----------------------|
|---------------------------|-----------------------|
|-----------------5----6----|-----------------3--3--|
|-----------------5----6----|-----------------3--3--|
|--3-3--3-3--3-3------------|--1-1--1-1--1-1--1--1--|


   PM|                   PM|                     PM|                   PM|
   E  E  E        +E     E  E  E         +E      E  E  E         +E    E  E  E        +E
|---------------------------------------------|---------------------------------------------|
|-------14b14.5=(14.5)r-------14b14.5=(14.5)r-|-------14b14.5=(14.5)r-------14b14.5=(14.5)r-|
|-------14b15=====(14)r-------14b15=====(14)r-|-------14b15=====(14)r-------14b15=====(14)r-|
|-17-17-----------------17-17-----------------|-17-17-----------------17-17-----------------|
|---------------------------------------------|---------------------------------------------|
|---------------------------------------------|---------------------------------------------|
|
|  PM|                  PM|                     PM|                   PM|
|  E  E  Q              E  E  Q                 E  E  Q               E  E  Q
|---------------------------------------------|---------------------------------------------|
|---------------------------------------------|---------------------------------------------|
|---------------------------------------------|---------------------------------------------|
|--------5---------------------5--------------|--------5---------------------5--------------|
|--------5---------------------5--------------|--------5----------------------5-------------|
|--3--3--3---------------3--3--3--------------|--3--3--3--------------3--3--3---------------|


   E.         +S   +S   +S         +S     +S   +Q    S      +S   +S    +S
|------------------------------------------------------------------------------|
|-17b18======(18)r(17)-(17)b18====(18)r==(17)-(17)--17b18==(18)-(18)r-(17)b18==|
|-17b18======(18)r(17)-(17)b18====(18)r==(17)-(17)--17b18==(18)-(18)r-(17)b18==|
|------------------------------------------------------------------------------|
|------------------------------------------------------------------------------|
|------------------------------------------------------------------------------|
|
|  |---3---|        |--------3---------|
|  E     E E        E           E      E        Q    Q
|------------------------------------------------------------------------------|
|------------------------------------------------------------------------------|
|------------------------------------------------------------------------------|
|------------------------------------------------------------------------------|
|-----------------------------------------------3----3-------------------------|
|--1-----1-1--------1-----------1------1--------1----1-------------------------|


    ~~~~~                                         PM|                   PM|
                                |---3----|
   +Q        +Q           +S   +E    S.  S  Q     E  E  E         +E    E  E  E         +E
|----------------------------------------------|----------------------------------------------|
|-(18)r-----(17)b18======(18)-(18)rp15-----15--|-------14b14.5=(14.5)r-------14b14.5=(14.5)r--|
|-(18)r-----(17)b18======(18)-(18)r-15-----15--|-------14b15=====(14)r-------14b15=====(14)r--|
|---------------------------------------17-----|-17-17-----------------17-17------------------|
|----------------------------------------------|----------------------------------------------|
|----------------------------------------------|----------------------------------------------|
|
|                                                 PM|                   PM|
|   |--3--|   |---3----|
|   E   E E   E      E E   Q                Q     E  E  Q               E  E  Q
|----------------------------------------------|----------------------------------------------|
|----------------------------------------------|----------------------------------------------|
|----------------------------------------------|----------------------------------------------|
|----------------------------------------------|--------5---------------------5---------------|
|--------------------------3----------------3--|--------5---------------------5---------------|
|---1---1-1---1------1-1---1----------------1--|--3--3--3---------------3--3--3---------------|


   E  Q    E  Q.      E
|-----------------------|
|----17---17-15------15-|
|----17---17-15---------|
|-17--------------------|
|-----------------------|
|-----------------------|
|
|  PM|        PM-|
|
|  E  E Q     E  E Q
|-----------------------|
|-----------------------|
|-----------------------|
|-------5----------5----|
|-------5----------5----|
|--3--3-3-----3--3-3----|


   S      +S      E    S      +S      E    S      +S    E  S      +S    E
|----------------15------------------15----------------15--------------15-|
|-18b20==(20)r--------18b20==(20)r--------18b20==(20)r----18b20==(20)r----|
|-------------------------------------------------------------------------|
|-------------------------------------------------------------------------|
|-------------------------------------------------------------------------|
|-------------------------------------------------------------------------|
|
|
|  |-------3--------|  |-------3--------|
|  E           E    E  E           E    E  Q               Q
|-------------------------------------------------------------------------|
|-------------------------------------------------------------------------|
|-------------------------------------------------------------------------|
|-------------------------------------------------------------------------|
|------------------------------------------3---------------3--------------|
|--1-----------1----1--1-----------1----1--1---------------1--------------|



                                           ~~~~~~
   S      +S      E    S      +S      E    Q       +Q
|----------------15------------------15-------------------||
|-18b20==(20)r--------18b20==(20)r--------18b20===(20)r---||
|---------------------------------------------------------||
|---------------------------------------------------------||
|---------------------------------------------------------||
|---------------------------------------------------------||
|
|  |-------3--------|  |-------3--------|
|  E           E    E  E           E    E  Q        Q
|---------------------------------------------------------||
|---------------------------------------------------------||
|---------------------------------------------------------||
|---------------------------------------------------------||
|------------------------------------------3--------3-----||
|--1-----------1----1--1-----------1----1--1--------1-----||


  Gtrs II, III
  |-3-| |-3-|     |-3-|   |-3-| |-3-| |-3-| |-3-|     |-3-| |-3-|    |-3-|
  E E E E E E E E E E E   E E E E E E E E E E E E     E E E E E E Q  E E E
|-----------------------|-------------------------||------------------------|
|-----------------------|-------------------------||o-----------------------|
|-----------------------|-------------------------||------------------------|
|-----------------------|-------------------------||--------------2---------|
|-----------------5-5-5-|-5-5-5-4-4-4-3-3-3-2-2-2-||o-------------2---------|
|-3-3-3-3-3-3-3---------|-------------------------||--0-0-0-0-0-0----0-0-0--|


  |-3-|    |-3-|        |-3-| |-3-|     |-3-|   |-3-| |-3-| |-3-| |-3-|
  E E E Q  E E E Q   4x E E E E E E E E E E E   E E E E E E E E E E E E
|--------------------||-----------------------|-------------------------|
|-------------------o||-----------------------|-------------------------|
|--------------------||-----------------------|-------------------------|
|-------2--------3---||-----------------------|-------------------------|
|-------2--------3--o||-----------------5-5-5-|-5-5-5-4-4-4-3-3-3-2-2-2-|
|-0-0-0----0-0-0-----||-0-0-0-0-0-0-0---------|-------------------------|


  Gtr II
  |-3-| |----3----|      |-3-|   |----3----|      |-3-|
  E E E Q        +E   Q  E E E   Q        +E   Q  E E E Q
|------------------------5-5-5-|------------------7-7-7-5--|
|-8-8-8-7b7.5==(7.5)r----7-7-7-|-8b8.5==(8.5)r----8-8-8-7--|
|-9-9-9-7b7.5==(7.5)r-7--------|-9b9.5==(9.5)r-9-----------|
|---------------------9--------|---------------9-----------|
|------------------------------|---------------------------|
|------------------------------|---------------------------|
|
| Gtr III
| |-3-| |----3----|      |-3-|   |----3----|      |-3-|
| E E E E      E  E   Q  E E E   E      E  E   Q  E E E Q
|------------------------------|---------------------------|
|------------------------------|---------------------------|
|------------------------------|---------------------------|
|---------------------2--------|---------------2--------3--|
|---------------------2--------|---------------2--------3--|
|-0-0-0-0------0--0------0-0-0-|-0------0--0------0-0-0----|


  |-3-|       |-3-|         |-3-|    |-3-|
  E E E Q     E E E Q       E E E Q  E E E Q
|-7-5---5-----5-----------|--------------------|
|-8-7-8-7-----7-8-7-8-----|-8-7-5-7--7-5---5---|
|-----9---------9-7-9-----|-9-7-6-7--7-6-7-6---|
|-------------------------|--------------9-----|
|-------------------------|--------------------|
|-------------------------|--------------------|
|
| |-3-| |-3-|       |-3-|   |-3-|    |-3-|
| E E E E E E Q     E E E   E E E Q  E E E Q
|-------------------------|--------------------|
|-------------------------|--------------------|
|-------------------------|--------------------|
|-------------2-----------|-------2--------3---|
|-------------2-----------|-------2--------3---|
|-0-0-0-0-0-0-------0-0-0-|-0-0-0----0-0-0-----|


  Gtr II
  |-3-| |----3----|      |-3-|   |----3----|      |-3-|
  E E E Q        +E   Q  E E E   Q        +E   Q  E E E Q
|------------------------5-5-5-|------------------7-7-7-5--|
|-8-8-8-7b7.5==(7.5)r----7-7-7-|-8b8.5==(8.5)r----8-8-8-7--|
|-9-9-9-7b7.5==(7.5)r-7--------|-9b9.5==(9.5)r-9-----------|
|---------------------9--------|---------------9-----------|
|------------------------------|---------------------------|
|------------------------------|---------------------------|
|
| Gtr III
| |-3-| |----3----|      |-3-|   |----3----|      |-3-|
| E E E E      E  E   Q  E E E   E      E  E   Q  E E E Q
|------------------------------|---------------------------|
|------------------------------|---------------------------|
|------------------------------|---------------------------|
|---------------------2--------|---------------2--------3--|
|---------------------2--------|---------------2--------3--|
|-0-0-0-0------0--0------0-0-0-|-0------0--0------0-0-0----|


  |-3-|       |-3-|          |-3-|    |-3-|
  E E E Q     E E E Q        E E E Q  E E E Q
|-7-5---5-----5-----------|--8-7-5-7--7-5---5---|
|-8-7-8-7-----7-8-7-8-----|-10-8-7-8--8-7-8-7---|
|-----9---------9-7-9-----|---------------9-----|
|-------------------------|---------------------|
|-------------------------|---------------------|
|-------------------------|---------------------|
|
| |-3-| |-3-|       |-3-|    |-3-|    |-3-|
| E E E E E E Q     E E E    E E E Q  E E E Q
|-------------------------|---------------------|
|-------------------------|---------------------|
|-------------------------|---------------------|
|-------------2-----------|--------2--------3---|
|-------------2-----------|--------2--------3---|
|-0-0-0-0-0-0-------0-0-0-|--0-0-0----0-0-0-----|


  Gtr II
  |-3-| |----3----|      |-3-|   |----3----|      |-3-|
  E E E Q        +E   Q  E E E   Q        +E   Q  E E E Q
|------------------------5-5-5-|------------------7-7-7-5--|
|-8-8-8-7b7.5==(7.5)r----7-7-7-|-8b8.5==(8.5)r----8-8-8-7--|
|-9-9-9-7b7.5==(7.5)r-7--------|-9b9.5==(9.5)r-9-----------|
|---------------------9--------|---------------9-----------|
|------------------------------|---------------------------|
|------------------------------|---------------------------|
|
| Gtr III
| |-3-| |----3----|      |-3-|   |----3----|      |-3-|
| E E E E      E  E   Q  E E E   E      E  E   Q  E E E Q
|------------------------------|---------------------------|
|------------------------------|---------------------------|
|------------------------------|---------------------------|
|---------------------2--------|---------------2--------3--|
|---------------------2--------|---------------2--------3--|
|-0-0-0-0------0--0------0-0-0-|-0------0--0------0-0-0----|


  |-3-|       |-3-|         |-3-|    |-3-|
  E E E Q     E E E Q       E E E Q  E E E Q
|-7-5---5-----5-----------|--------------------|
|-8-7-8-7-----7-8-7-8-----|-8-7-5-7--7-5---5---|
|-----9---------9-7-9-----|-9-7-6-7--7-6-7-6---|
|-------------------------|--------------9-----|
|-------------------------|--------------------|
|-------------------------|--------------------|
|
| |-3-| |-3-|       |-3-|   |-3-|    |-3-|
| E E E E E E Q     E E E   E E E Q  E E E Q
|-------------------------|--------------------|
|-------------------------|--------------------|
|-------------------------|--------------------|
|-------------2-----------|-------2--------3---|
|-------------2-----------|-------2--------3---|
|-0-0-0-0-0-0-------0-0-0-|-0-0-0----0-0-0-----|


  Gtr II
  |-3-| |----3----|      |-3-|   |----3----|      |-3-|
  E E E Q        +E   Q  E E E   Q        +E   Q  E E E Q
|------------------------5-5-5-|------------------7-7-7-5--|
|-8-8-8-7b7.5==(7.5)r----7-7-7-|-8b8.5==(8.5)r----8-8-8-7--|
|-9-9-9-7b7.5==(7.5)r-7--------|-9b9.5==(9.5)r-9-----------|
|---------------------9--------|---------------9-----------|
|------------------------------|---------------------------|
|------------------------------|---------------------------|
|
| Gtr III
| |-3-| |----3----|      |-3-|   |----3----|      |-3-|
| E E E E      E  E   Q  E E E   E      E  E   Q  E E E Q
|------------------------------|---------------------------|
|------------------------------|---------------------------|
|------------------------------|---------------------------|
|---------------------2--------|---------------2--------3--|
|---------------------2--------|---------------2--------3--|
|-0-0-0-0------0--0------0-0-0-|-0------0--0------0-0-0----|


  |-3-|       |-3-|         |-3-|    |-3-|      |-3-|       |-3-|
  E E E Q     E E E Q       E E E Q  E E E Q    E E E Q     E E E Q
|-7-5---5-----5-----------|-------------------|-------------------------|
|-8-7-8-7-----7-8-7-8-----|-8-7-5-7--7-5---5--|-5-----------------------|
|-----9---------9-7-9-----|-9-7-6-7--7-6-7-6--|-6-7-6-7-----7-6-4-6-----|
|-------------------------|--------------9----|---9-7-9-----9-7-5-7-----|
|-------------------------|-------------------|-------------------------|
|-------------------------|-------------------|-------------------------|
|
| |-3-| |-3-|       |-3-|   |-3-|    |-3-|      |-3-| |-3-|       |-3-|
| E E E E E E Q     E E E   E E E Q  E E E Q    E E E E E E Q     E E E
|-------------------------|-------------------|-------------------------|
|-------------------------|-------------------|-------------------------|
|-------------------------|-------------------|-------------------------|
|-------------2-----------|-------2--------3--|-------------2-----------|
|-------------2-----------|-------2--------3--|-------------2-----------|
|-0-0-0-0-0-0-------0-0-0-|-0-0-0----0-0-0----|-0-0-0-0-0-0-------0-0-0-|


  |-3-|    |-3-|
  E E E Q  E E E Q      W                      W                  3x
|-------------------||-----------------------|--------------------||
|-------------------||o----------------------|-------------------o||
|-6-4-2-4--4-2-0-2--||-----------------------|--------------------||
|-7-5-4-5--4-2-0-4--||-----------------------|--------------------||
|-------------------||o----------------------|-------------------o||
|-------------------||-----------------------|--------------------||
|
|                       Gtrs II, III
| |-3-|    |-3-|        |-3-| |-3-|    |-3-|   |-3-|    |-3-|
| E E E Q  E E E Q      E E E E E E Q  E E E   E E E Q  E E E Q   3x
|-------------------||-----------------------|--------------------||
|-------------------||o----------------------|-------------------o||
|-------------------||-----------------------|--------------------||
|-------2--------3--||--------------2--------|-------2--------3---||
|-------2--------3--||o-------------2--------|-------2--------3--o||
|-0-0-0----0-0-0----||--0-0-0-0-0-0----0-0-0-|-0-0-0----0-0-0-----||


    Gtrs II, III
    PM--------|    PM----------|    PM--|      PM|    PM|      PM|    PM|
    |-3-| |-3-|    |-3-|   |-3-|    |-3-|
    E E E E E E Q  E E E   E E E Q  E E E Q    E E Q  E E Q    E E Q  E E Q
||-----------------------|-------------------|---------------|----------------||
||o----------------------|-------------------|---------------|---------------o||
||-----------------------|-------------------|---------------|----------------||
||--------------2--------|-------2--------3--|-----5------5--|-----5------5---||
||o-------------2--------|-------2--------3--|-----5------5--|-----5------5--o||
||--0-0-0-0-0-0----0-0-0-|-0-0-0----0-0-0----|-3-3-3--3-3-3--|-3-3-3--3-3-3---||


                        1.,2.,3.          4.
    PM--------|         PM|    PM|        PM|    PM|      PM|    PM|
    |-3-| |-3-|
    E E E E E E Q  Q    E E Q  E E Q   4x E E Q  E E Q    E E Q  E E Q
||--------------------|----------------||---------------|----------------|
||o-------------------|---------------o||---------------|----------------|
||--------------------|----------------||---------------|----------------|
||--------------2--2--|-----3------3---||-----5------5--|-----5------5---|
||o-------------2--2--|-----3------3--o||-----5------5--|-----5------5---|
||--0-0-0-0-0-0-0--0--|-1-1-1--1-1-1---||-3-3-3--3-3-3--|-3-3-3--3-3-3---|


  PM--------|    PM----------|    PM--|
  |-3-| |-3-|    |-3-|   |-3-|    |-3-|
  E E E E E E Q  E E E   E E E Q  E E E Q
|----------------------|-------------------|
|----------------------|-------------------|
|----------------------|-------------------|
|-------------2--------|-------2--------3--|
|-------------2--------|-------2--------3--|
|-0-0-0-0-0-0----0-0-0-|-0-0-0----0-0-0----|


  |-3-| |-3-|     |-3-|   |-3-|
  E E E E E E E E E E E   E E E E E H
|-----------------------|----------------*|
|-----------------------|----------------*|
|-----------------------|----------------*|
|-2-2-2-2-2-2-2---2-2-2-|-2-2-2-2--------*|
|-2-2-2-2-2-2-2---2-2-2-|-2-2-2-2--------*|
|-0-0-0-0-0-0-0---0-0-0-|-0-0-0-0--------*|

12.CREEPING DEATH

E-----------------------------------------------------
B-----------------------------------------------------
G-----------------------------------------------------
D------------9------------9\7             ------------
A------------7------------7\5 4times then --7--5--4--2
E--0-0-0-0-0----0-0-0-0-0----             --5--3--2--0
  pm........    .........                   ..........
the last two times the second guitar does this
D-------------9------------9\7
A------------10-----------10\9 
E--0-0-0-0-0----0-0-0-0-0-----

                                   You do this right before the verse
D------2---2--2---2---2h3p2h3p2p0   -5-7-5
A------2---2--2---2---2h3p2h3p2p0   -3-5-3
E--0-0---0------0---0------------   ------
  pm....................  
           this is the pre chours and is done during the second intro
D---------------------------------------
A--------5--------5---------------------
E--0--0--3--0--0--3--0--0--2-2-2-2-2-2-2
 pm....     ....     ...................
chours
D--2-  --5-7--  -10-9-  --5-7--  -10-12-9---  -5-7-  -10-9-  -5-7--------
A--2-  --3-5-  --8--7-  --3-5-  --8--10-7--  --3-5-  -8--7-  -3-5---5-7-5
E--0-  -------  ------- --------   ---------  ------  ------  ------3-5-3

Then the repeat the hole song except for the main intro
Now the kickass yet some what cmplicated solo

e--------------------------------------|----------------------19h20h22--|
b--12-13-15-17p15-13-14-15-17-19p17-15-|-15-17-19-17-19-20-22-----------|
g--------------------------------------|--------------------------------|
d--------------------------------------|--------------------------------|

E--22b24----22b24----22b24----|--22b24--r22----22b24-r23-b24--22--19--|
B-----------------------------|---------------------------------------|
G-----------------------------|---------------------------------------|

E--22--20--19-\17--21--19--17-\15--19--17--15-\14--17--15--14-\12--|
B------------------------------------------------------------------|
G------------------------------------------------------------------|

E--15p14--------------------------------------------------|
B---------17p15--15p14p12h14--12-\10--10------------------|
G------------------------------------------12b14-r13-b14--|
D---------------------------------------------------------|

E-----------------------------------------|-----------------------------------|
B--------10--15------15---12--------------|-----------------------------------|
G--(14)------14b16---14---12------12--14--|--14b16--r14--12b13--------12--14b-|
D-----------------------------14----------|-----------------------14----------|
A-----------------------------------------|-----------------------------------|

E--------------------------------------------------------|
B--------12--15p12--15p12--------------12--15p12--15p12--|
G--b16---------------------14b16-(16)--------------------|
D---------------------------------*----------------------|
 * : hold bend and strike note                              
E------------------------------------------12-|-15p12----12----------------------14-|
B---------12--15p12--15p12--15b17----(17)-----|-------15----15-12-15p12----12-------|
G--14b16------------------------------*-------|-------------------------14----14----|
D---------------------------------------------|-------------------------------------|

E-17p15-14-15p14----14-------12-------|-------------------------------------|
B----------------17----17p15----15p14-|-15p14-12-14-12----------------------|
G-------------------------------------|----------------14--12------12--14-/-|
D-------------------------------------|------------------------14-----------|
                                  Sweep picking
E----------17--19-/22-~-~-22-~-~-|---------12--17p12-----------------12--17p12-------
B------18------------------------|-----13-------------13---------13------------13----
G-/19----------------------------|-14---------------------14-14-------------------14-
D--------------------------------|---------------------------------------------------

E----------12--17p12-------------------12--17p12------|
B------13-------------13-----------13-------------13--|
G--14--------------------14-14-14---------------------|
D-----------------------------------------------------|

E--12h15p12---------------------------------|----------------------------------------
B-----------15---12----12-15p12-------------|--15------15------15-------------(15)\--
G-------------------14----------14-12----12-|--14b16---14b16---14b16-r14-b16--(14)\--
D-------------------------------------14----|----------------------------------------

D---------------------------------|----------------------------------------------|
A--7--7-7-8-8-8-8-9-9-9-9-9-9-9-9-|-10-9-10-9-10-9-11-10-12-11-12-11-12-11-13-12-|
E---------------------------------|----------------------------------------------|

G-------------------------------------------------|
D----------------------------------------------11-|
A-14-13-14-13-14-14-15-15-14-14-15-14-14-14-15----|
E-------------------------------------------------|

E----------------------------------------------------------|
B---------------------------------------------------12/14--|
G-11-12-11-12-11-12-12-12-12-13-12-13-15-15---15-15--------|
D----------------------------------------------------------|

E-------------------------------------14-|-17p14-------------------------------------
B-------------------14-17-14----14-17----|-------17-14-----14---17p14----------------
G--17--14--13-14-16----------16----------|-------------16--------------16-14------14-
D----------------------------------------|------------------------------------16-----

E-------------------------------------|------------------------------------|
B-------------------------------------|------------------------------------|
G-16p14----14-------------------------|------------------------------------|
D-------16----16p14-16p14----14-------|----------------------------12--12--|
A-------------------------16----16-14-|-16p14-12-14p12-----12--14----------|
E-------------------------------------|----------------14------------------|

E-------------------------|------------------------------|--------------------------|
B-------------------------|------------------------------|--------------------------|
G-------------11--12--14--|--(14)----12----12-h-14-p-12--|--------------11--12--14--|
D--14------14-------------|------------------------------|--12------14--------------|
A-------------------------|------------------------------|--------------------------|
E-------------------------|------------------------------|--------------------------|

E----------------------------|--12--------12-/14--15--17--|
B----------12----13----15----|----------------------------|
G--(14)----------------------|----------------------------|
D----------------------------|----------------------------|
                              
E--(17)--15---14----------|--/17------17--19----20--|--(20)--19--17---15-14h15--
B-------------------17----|---//--------------------|---------------------------
G-------------------------|-------------------------|---------------------------

E-15p14p12-15p14p12-15p14p12-15p14p12-|-15p14p12-15p14p12-15p14p12-15-12/14-|
B-------------------------------------|-------------------------------------|
G-------------------------------------|-------------------------------------|

E-17p15p14-17p15p14-17p15p14-17p15p14-|-17p15p14-17p15p14-17p15p14-17-15-15-|
B-------------------------------------|-------------------------------------|
G-------------------------------------|-------------------------------------|


E-19p17p15-19p17p15-19p17p15-19-15-16-|-20p19p17-20p19p17-22p20p19-22p20p19-|
B-------------------------------------|-------------------------------------|
G-------------------------------------|-------------------------------------|

E--22b24----22b24----|--22b24----22b24--22b24-~-|------------|
B--------------------|--------------------------|------------|
G--------------------|--------------------------|------------|
D--------------------|--------------------------|--14-\-\-\--|
A--------------------|--------------------------|--14-\-\-\--|
E--------------------|--------------------------|--12-\-\-\--|
bridge
D--9---------10-7-9---------12-10-9---------10-7-9
A--7---------8--5-7---------10-8--7---------8--5-7
E----0-0-0-0--------0-0-0-0---------0-0-0-0-------
    pm......        .......         .......

first you do the the verse riff then this little solo thing
gtr.1
e-------------------------------------------
B--15-13-12---12----13---15-13-12---12----13
G----------------14--------------------14---
D-------------------------------------------
Gtr.2
e-----------------------------------
B--10-8-7---7---8---10-8-7---7---8--
G-------------9----------------9----
D-----------------------------------
Then  the last verse and so on then an outro

Gtr.3
D---9-7-5-4---5-4-2-5---9-7-5-4---5-4-2-5
A---7-5-3-2---3-2-0-3---7-5-3-2---3-2-0-3
E----------------------------------------
Gtr.2
E------------------------------------------------------------
B�17-15-13-12�-13-12-10-13---17-15-13-12---13-12-10-13-----
G------------------------------------------------------------
Gtr.1
E------------------------------------------------------------
B------------------------------------------------------------
G-19-17-15-14---15-14-12-15----19-17-15-14---15-14-12-15-----
Then gtr.3 stops and does this
e---------------------       (8 times)
B----19p16p0----------       

e--------------------       (8 times)
B----20p17p0--------
And this all ends with a slide like from the solo to the bidge
And this little outro thing

 E-------------|-------------|-14h15--14----|-------------|----------|----|
 B-------------|-------16-17-|-----------17-|-16----------|----------|----|
 G----------14-|-16-17-------|--------------|----17-16-14-|----------|----|
 D-14-16-17----|-------------|--------------|-------------|-17p16p14-|-14-|
 A-------------|-------------|--------------|-------------|----------|----|
 E-------------|-------------|--------------|-------------|----------|----|
   Oh yeah, and its all tremelo picked                                       
                                          
13.BATTERY

Intro
        Rhy. Fig. 1
Acous.|--------------------|---------------|--------------|----------------|
gtr.1 |--------------------|---------------|--------------|----------------|
      |--------------------|-----------0---|--------------|----------------|
      |----3-2-----2-------|--2-----0--0---|--3-2---2-----|--2----0--0-----|
      |----2-------0-------|--0--------5---|--2-----0-----|--0-------5-----|
      |----0-------1-------|--2--------3---|--0-----1-----|--2-------3-----|

      Play w/Rhy. Fig 1   ~~~~~~~                 ~~~~                  ~~~
Acous.|-----------------------|-----------------------|--------------------|
gtr.2 |-----------------------|-----------------------|--------------------|
      |---4-5-------4---5-----|---4-5----------5--4---|-4-5-----4-4h5p4----|
      |-------7-----------7---|(7)----7---5-----------|-----7-----------7--|
      |-----------------------|-----------------------|--------------------|
      |-----------------------|-----------------------|--------------------|
       ~~~                ~~~~
      |-----------------------|     Play gtr.2 over gtr.3 with Rhy. Fig. 1 
      |-----------------------|     and the second time through add gtr.4
      |---4-5----------5--4---|     
      |(7)----7---5-----------|
      |-----------------------|
      |-----------------------|

                          ~~~~~~~                 ~~~~                  ~~~
Acous.|-----------------------|-----------------------|--------------------|
gtr.3 |---3-5-------3---5-----|---3-5----------5--3---|-3-5-----3-3h5p3----|
      |-------5-----------5---|(5)----5---4-----------|-----5-----------5--|
      |-----------------------|-----------------------|--------------------|
      |-----------------------|-----------------------|--------------------|
      |-----------------------|-----------------------|--------------------|
       ~~~                ~~~~
      |-----------------------|
      |---3-5----------5--3---|
      |(5)----5---4-----------|
      |-----------------------|
      |-----------------------|
      |-----------------------|

                          ~~~~~~~~                ~~~~~~                ~~~
Acous.|---3-5-------3---5-----|---3-5----------5--3---|-3-5-----3-3h5p3----|
gtr.4 |-------5-----------5---|-5-----5---3-----------|-----5-----------5--|
      |-----------------------|-----------------------|--------------------|
      |-----------------------|-----------------------|--------------------|
      |-----------------------|-----------------------|--------------------|
      |-----------------------|-----------------------|--------------------|
       ~~~                ~~~~
      |---3-5----------5--3---|        
      |-5-----5---3-----------|
      |-----------------------|
      |-----------------------|
      |-----------------------|             Now it changes to electrics.
      |-----------------------|          All electrics play over each other.

Elec. |-----------------------|-----------------------|  
gtr.1 |-----------------------|-----------------------|
      |-----------------------|-----------------------|repeat
      |2--2-2-2-2--3-(3)------|------------5-(5)------|
      |2--2-2-2-2--3-(3)------|5--5-5-5-5--5-(5)------|
      |0--0-0-0-0--1-(1)------|2--2-2-2-2--3-(3)------|
       >  P.M.---| >           > P.M-----| >                  
              ~~~~~~      ~~~~~~~~         ~~~~   ~~~~~~~~~    ~~~~~     ~~
Elec. |-----------------------|-----------------------|--------------------|
gtr.2 |-----------------------|-----------------------|*-------------------|
      |---4-5-------4---5-----|---4-5----------5--4---|(4)-4-5------4--5---|
      |-------7-----------7---|(7)----7----5----------|--------7---------7-|      
      |-----------------------|-----------------------|*-------------------|
      |-----------------------|-----------------------|--------------------|
       ~~~         ~~~~   ~~~~ ~~~         ~~~~    ~~~
       |1.2._________________| |3.___________________|                     
      |-----------------------|-----------------------|
      |----------------------*|-----------------------|
      |---4-5----------5--4---|---4-5----------5---4--|
      |(7)----7----5----------|(7)----7----5----------|
      |----------------------*|-----------------------|
      |-----------------------|-----------------------|
      
              ~~~~~~      ~~~~~~~~         ~~~~   ~~~~~~~~~~    ~~~~     ~~        
Elec. |-----------------------|-----------------------|--------------------|
gtr.3 |---3-5-------3---5-----|---3-5----------5--3---|*(3)-3-5-----3--5---|
      |-------5-----------5---|(5)----5----4----------|---------5--------5-|
      |-----------------------|-----------------------|--------------------|
      |-----------------------|-----------------------|*-------------------|
      |-----------------------|-----------------------|--------------------|
       
       ~~~         ~~~~   ~~~~ ~~~         ~~~~    ~~~
       |1.2._________________| |3.___________________|                     
      |-----------------------|-----------------------|
      |---3-5----------5--3--*|---3-5----------5---3--|
      |(5)----5----4----------|(5)----5----4----------|
      |-----------------------|-----------------------|
      |----------------------*|-----------------------|
      |-----------------------|-----------------------|
              
              ~~~~~       ~~~~~~~~         ~~~~   ~~~~~~~~~    ~~~~~     ~~
Elec. |---3-5-------3---5-----|---3-5----------5--3---|(3)-3-5------3--5---|
gtr.4 |-------5-----------5---|(5)----5----3----------|*-------5---------5-|
      |-----------------------|-----------------------|--------------------|
      |-----------------------|-----------------------|--------------------|
      |-----------------------|-----------------------|*-------------------|
      |-----------------------|-----------------------|--------------------|

       ~~~         ~~~~~   ~~~ ~~~         ~~~~    ~~~
       |1.2._________________| |3.___________________|
      |---3-5-----------5--3--|---3-5----------5---3--|
      |(5)----5----3---------*|(5)----5----3----------|    
      |-----------------------|-----------------------|
      |-----------------------|-----------------------|
      |----------------------*|-----------------------|
      |-----------------------|-----------------------|

       Riff A
Elec. |-----------------------|
gtr.1 |-----------------------|
  &   |---------4-------------|
gtr.2 |----2----4----5----4---|
      |----2----2----5----6---|
      |----0---------3--------|
           
tempo=190                       gtr.2 plays Rhy. Fig. 1 the first time 
                             and doubles gtr.1 second on the first 4 bars
Elec. |-----------------------------------|---------------------------------|
gtr.1 |*----------------------------------|---------------------------------|
      |-----------------------------------|---------------------------------|
      |----------------------8---8---7----|----------------------5---5---4--|
      |*---------------------8---8---7----|----------------------7---7---5--|
      |--0---0-0-0---0-0-0---6---6---5----|--0---0-0-0---0-0-0--------------|
        P.M.--------------|                 P.M.--------------|

      |-----------------------------------|---------------------------------|
      |-----------------------------------|---------------------------------|
      |-----------------------------------|---------------------------------|
      |--5-------------------8---8---7----|------4------5-------5------6----|
      |--7-------------------8---8---7----|------4------5-------5------6----|
      |------0-0-0---0-0-0---6---6---5----|--0---2------3---0---3------4----|
            P.M.----------|                 P.M.           P.M.

Rhy.  |-----------------------------------|---------------------------------|
Fig.2 |-----------------------------------|---------------------------------|
plays |-----------------------------------|---------------------------------|
over  |----------------------8---8---7----|----------------------5---5---4--|
these |----------------------8---8---7----|----------------------7---7---5--|
4 bars|--0---0-0-0---0-0-0---6---6---5----|--0---0-0-0---0-0-0--------------|
        P.M.--------------|                 P.M.--------------|

      |-----------------------------------|---------------------------------|
      |-----------------------------------|--------------------------------*|
      |-----------------------------------|---------------------------------|
      |--5-------------------8---8---7----|--8---7------7------7------7-----|
      |--7-------------------8---8---7----|--8---7------7------7------7----*|
      |------0-0-0---0-0-0---6---6---5----|--6---5------5------5------5-----|
            P.M-----------|        
       Rhy. Fig. 2
      |-----------------------------------|---------------------------------|
      |-----------------------------------|---------------------------------|
      |----------------------3---3---2----|---------------------------------|
      |--2-------------------3---3---2----|--2-------------------5---5---4--|
      |--2-------------------1---1---0----|--2-------------------7---7---6--|
      |--0--------------------------------|--0------------------------------|
         >                                

      |-----------------------------------|---------------------------------|
      |-----------------------------------|---------------------------------|
      |----------------------3---3---2----|---------------------------------|
      |--5-------------------3---3---2----|--8---7------7------7------7-----|
      |--7-------------------1---1---0----|--8---7------7------7------7-----|
      |-----------------------------------|--6---5------5------5------5-----|
                                                   (gtrs. double)
       Rhy. Fig. 3                                  
      |-----------------------|-----------------------|---------------------|
      |-----------------------|-----------------------|---------------------|
      |-----------------------|-----------------------|--2------------------|
      |--2--------------------|--5--------------------|--2---------3--3--4--|
      |--2--------------------|--5--------------------|--0---------3--3--6--|
      |--0--------------------|--3--------------------|------------1--1-----|

      Play all over main riff
 
      Play Rhy. Fig. 2 for the first four bars starting with "Lashing out the action"

      Play Rhy. Fig. 2 for the for the four bars starting with "Hypnotizing power"

      Play Rhy. Fig. 3 starting with "smashing through the boundries"

      After that play Rhy. Fig. 2 for the first for bars which starts with the "y" in battery

      Then play Rhy. Fig. 3 starting with "Pounding out aggression"

      Then play Rhy. Fig. 2 but only the first two bars starting with the "y" in battery      

      "Cannot kill the family, battery has grounded"  
      |-----------------------|-----------------------|
      |-----------------------|-----------------------|<-You need to add a beat to the third
      |--------------4--------|-----------------------|  bar of Rhy. Fig. 2 when it is played
      |----2---------4--------|----5----------5---4---|  two bars after "Cannot kill the family,
      |----2---------2--------|----5----------7---6---|  battery has grounded"
      |----0------------------|----3------------------|

      Then play Rhy. Fig. 2 but only the first 3 bars starting with "me!" 
                        
                          Bat-ter
      |-----------------------------|     After that play Rhy. Fig. 2 but only the first 
      |-----------------------------|     3 bars and don't add that beat to the third bar
      |----------3----2----3--------|     After those 3 bars play Rhy. Fig. 4
      |--5-------3----2----3---3----|
      |--7-------1----0----1---3----|     
      |------------------------1----|  

         bat -ter - y
Rhy.  |-----------------------------|
Fig.4 |-----------------------------|
      |---3---------2---------------|
      |---3----3----2---------------|
      |---1----3----0---------------|
      |--------1--------------------|     


Fill  |-----12--17p12-15p12-14p12--12-17p12-15p12-|-14p12--12-17p12-15p12-14p12--12-17p12-15p12|
Solo  |-15^Full------------------15---------------|------15--------------------15--------------|
w/Rhy.|-------------------------------------------|--------------------------------------------|
Fig. 3|-------------------------------------------|--------------------------------------------|
      |-------------------------------------------|--------------------------------------------|
      |-------------------------------------------|--------------------------------------------|

      |-14p12-------------------------------------|------------------| Play an E5 before the 
      |------14p12-14p12-------------14^half------|------------------| interlude for 2 bars
      |------------------14--12------14^full------|--12\-------------|
      |--------------------------14---------------|------------------|
      |-------------------------------------------|------------------|
      |-------------------------------------------|------------------|   

Interlude
 
      |----------|---------|---------|-------------|---------|---------|---------|-------------|
      |----------|---------|---------|-------------|---------|---------|---------|-------------|
      |----------|---------|---------|-------------|---------|---------|---------|-------4--4--|
      |-2--------|(2)------|-5-------|(5)---5----5-|-2-------|(2)------|-5-------|(5)----4--4--|
      |-2--------|(2)------|-5-------|(5)---5----5-|-2-------|(2)------|-5-------|(5)----2--2--|
      |-0--------|(0)------|-3-------|(3)---3--3-3-|-0-------|(0)------|-3-------|(3)----------|
     
Rhy.  |-----------------------|--------------------|---------------------|---------------------|
gtr.1 |*----------------------|--------------------|---------------------|--------------------*|    
      |-----------------------|------------5----7--|---------------------|--------2-(2)----4---|
      |*2--------2--2---------|-2--2----2--5----7--|-5---------5--5------|5-5-----2-(2)----4--*|
      |-2--------2--2---------|-2--2----2--3----5--|-5---------5--5------|5-5-----0-(0)----2---|
      |-0--------0--0----x--x-|-0--0----0----------|-3---------3--3--x-x-|3-3------------------|
                                                                                        play x3
Lead  |-----------------------|--------------------|---------------------|---------------------|
gtr.2 |*----------------------|--------------------|---------------------|--------------------*|
      |-----------------------|--------------------|---------------------|---------------------|
      |*------4--5------------|------5-------------|--------4--5---------|-----5-----4--5--7--*|
      |-7--7--------7-------7-|-7-------7--3--3-5/7|-7p5----------7----7-|--7-----7------------|
      |-----------------------|--------------------|-----7---------------|---------------------|
       P.M.------------------------------------|     --t-- P.M.--------------------------|

Rhy.  |-----------------------|--------------------|---------|---------|-----------------------|
gtr.1 |-----------------------|--------------------|---------|---------|-----------------------|
      |-----------------------|-----------------4--|---------|---------|-----------------------|
      |-2--------2--2---------|-2------5-(5)----4--|-5-------|(5)------|--3--2----2----2----2--|
      |-2--------2--2---------|-2------5-(5)----2--|-5-------|(5)------|--3--2----2----2----2--|
      |-0--------0--0----x--x-|-0------3-(3)-------|-3-------|(3)------|--1--0----0----0----0--|   
                                                                          
Lead  |-----------------------|--------------------|---------|---------|-----------------------|
gtr.2 |-----------------------|--------------------|---------|---------|-----------------------|
      |-----------------------|-----------------4-/|-7-------|(7)------|-----------------------|
      |-------4--5------------|-2------------------|---------|---------|-----------------------|
      |-7--7--------7---------|--------2-----------|---------|---------|-----------------------|
      |-----------------------|--------------------|---------|---------|-----------------------|

Guitar Solo
         Rhy.Fig.5
Rhy.  |------------------------------|----------------------------------|
gtr.1 |------------------------------|----------------------------------|
      |------------------4---3---2---|-----4---3---2-------4---3---2----|
      |------------------4---3---2---|-----4---3---2-------4---3---2----|
      |------------------2---1---0---|-----2---1---0-------2---1---0----|
      |-0--0-0-0--0-0-0--------------|-0---------------0----------------|
       P.M.------------|              P.M.            P.M.
        
       w/wah wah
Lead  |------------------------------|----------------------------------|
gtr.2 |-14^Half-----14^Half--14^Half-|-14^Half-----14^Half-14-----------|
      |-14^Full-----14^Full--14^Full-|-14^Full-----14^Full-14--14-12h14-|
      |------------------------------|----------------------------------|
      |------------------------------|----------------------------------|
      |------------------------------|----------------------------------|
                              (end Rhy.Fig.5)
Rhy.  |--------------------------------------|--------------------------------------|
gtr.1 |--------------------------------------|--------------------------------------|
      |-------------------------4---3---2----|-------4-----------3---------2--------|
      |-------------------------4---3---2----|-------4-----------3---------2-----5--|
      |-------------------------2---1---0----|-------2-----------1---------0-----5--|
      |-0--0--0--0---0--0--0-----------------|-0---------------------------------3--|
       P.M.-----------------|                 P.M.

Lead  |--------------------------------------|--------------------------------------|
gtr.2 |--------------15p12-15-p-12--15--12---|-12h15p12----12h15p12----12--15^Full--|
      |12--12h14p12------------------------15|----------15----------15--------------|
      |--------------------------------------|--------------------------------------|
      |--------------------------------------|--------------------------------------|
      |--------------------------------------|--------------------------------------|

     w/Rhy.Fig.5(3 bars)                              ~~~~
      |---15^Full-(15)^1.5-----------|-15^1.5--r------------15-------------|
      |------------------------------|-15^1.5---------17--17--17p15--17-15-|
      |------------------------------|-----------------------------16------|
      |------------------------------|-------------------------------------|
      |------------------------------|-------------------------------------|
      |------------------------------|-------------------------------------|    
                                                              ===t===
                                                Bb5    A5    A5     A5  A5 
                                                                ~~~~~~~~~~~
      |----------------------------------------|---------------------------|
      |-17----15-12--12-15-12h15p12--12h15p12--|-12h15p12----15-15^Full----|
      |----/16-----14--------------14--------14|---------------------------|
      |----------------------------------------|---------------------------|
      |----------------------------------------|---------------------------|
      |----------------------------------------|---------------------------|

     w/Rhy.Fig.5(3 bars)
     |------------------------------------|------------------------------------------|
     |------------------------------------|------------------------------------------|   
     |-4p2p0-4p2p0-4p2p0-4-----4p2p0-2h4--|4p2p0-4p2p0-4p2p0-2h4-0--4p2p0-4p2p0-4p2p0|
     |-----------------------0-----------0|------------------------------------------|
     |------------------------------------|------------------------------------------|
     |------------------------------------|------------------------------------------|
       ==t== ==t== ==t==       ==t==       ==t== ==t== ==t==        ==t== ==t== ==t==
                                                          E(open6)B5      Bb5
     |--------------------------------------------------|-------------------------
     |--------------------------------------------------|-------------------------
     |-4p2p0-4p2p0-6p4p0-6p4p0-8p6p0-8p6p0-10p8p0-10p8p0|-12p10p0-12p10p0-12p10p0-
     |--------------------------------------------------|-------------------------
     |--------------------------------------------------|-------------------------
     |--------------------------------------------------|-------------------------
       ==t== ==t== ==t== ==t== ==t== ==t== ==t=== ==t===  ===t=== ===t=== ===t===

      A5          G5    F5  w/Rhy.Fig.5(3 bars)
     ---------------------|-12--15--14--12h14p12--12------------|
     ---------------------|---------------------15--15-12h14p12-|
     -12p10p0-14\---------|-------------------------------------|
     ---------------------|-------------------------------------|
     ---------------------|-------------------------------------|
     ---------------------|-------------------------------------|
      ===t===                           ===t=== --t--- ---t----
      |--------------------------------|------------------------------|
      |-14p12--------------------------|------------------------------|
      |------14-12---------------------|----------------9--12---------|
      |------------14--12--------------|---------9--12---------12--9--|
      |--------------------14--13--12--|-10--11-----------------------|
      |--------------------------------|------------------------------|
        ---t---           P.M.---------------------------------------|
        Bb5  A5      A5      A5      A5     E5
                A.H.      ~~~~~~~~~~                  ~~~~~~~ A.H.
      |----------------------------------|----------------------------|
      |----------------------------------|--------7--10^Full---10--8--|
      |----------------------------------|-----7----------------------|
      |--12--14--12--14--(14)----(14)\---|7/9-------------------------|
      |----------------------------------|----------------------------|
      |----------------------------------|----------------------------|

        G5                          A5                       F#5          ~~~~~~~~
      |---------------------------|-------------------------|--------------------|
      |-7-----7--8--7h8p7---------|-------------------------|--------------------|
      |----9-------------9--7--6--|-7---7^F-7---6---4---7---|-6------------------|
      |---------------------------|-------------------------|-----7---6---7^Full-|
      |---------------------------|-------------------------|--------------------|
      |---------------------------|-------------------------|--------------------|
                    ==t==           - - t - -   - - t - -     - - t - -
        E5          ~~~~~~~~          G5  ~~~~~~~          ~~~~~~~~~~~~
      |-----------------------------|-----15^Full-15p12-15p12----------|
      |---------12--15^Full-15p12---|-12-------------------------------|
      |-----12-------------------14-|----------------------------------|
      |/14--------------------------|----------------------------------|   
      |-----------------------------|----------------------------------|
      |-----------------------------|----------------------------------|
                            ---t---
        A5                                                                 F#5
      |-20p15-20p15---------------14-14--------|------------------------------|
      |----------------------10/12-----12\10---|-10---------------------------|  
      |-------------17p16p14----------------12-|----12-11h12-11h12p11p9-9\----|
      |----------------------------------------|------------------------------|
      |----------------------------------------|------------------------------|
      |----------------------------------------|------------------------------|
                    ---t----           ---t---   ---t--===== ===t====
                                          Play x4
      |--------------------|---------------------|--------------|---------------|
      |*-------------------|--------------------*|--------------|---------------|
      |-------3----4----3--|-4----3----4---------|--------------|---------------|
      |*-3----3----4----3--|-4----3----4----4---*|--3-----------|------3--3--4--|
      |--3----1----2----1--|-2----1----2----4----|--3-----------|------3--3--6--|
      |--1-----------------|----------------2----|--1-----------|------1--1-----|
         >    >    >    >    >    >         >       >                 P.M--|

 Outro
                                             play 7x
      |----------------------|----------------------|----------------------|
      |*---------------------|---------------------*|----------------------|
      |-------3----4----3----|--4----3----4---------|-------3----4----3----|
      |*-3----3----4----3----|--4----3----4----4---*|--3----3----4----3----|
      |--3----1----2----1----|--2----1----2----4----|--3----1----2----1----|
      |--1-------------------|-----------------2----|--1-------------------|
         >    >    >    >       >    >    >    >       >    >    >    >

      |-----------|--------|-----------------------|-----------------------|
      |-----------|--------|-----------------------|-----------------------|
      |--4--------|-(4)----|-----------------------|-----------------------|
      |--4--------|-(4)----|--4--3----3----3----3--|--2--------------------|
      |--2--------|-(2)----|--4--3----3----3----3--|--2--------------------|
      |-----------|--------|--2--1----1----1----1--|--0--------------------|
         >                    >  >    >    >    >     >

14.LAST CARESS

Intro
|---------------10-12-----10-12--10---7----|
|10-------------10-12--10-10-12--10---7----|
|10--------------8-10--10--8-10---8---5----|
|-8---------------------8------------------|

Verse
   PM...................		     
|-------------------------10-12-|
|10-----------------------10-12-|
|10------------------------8-10-|
|-8--8-8-8-8-8-8-8-8-8-8--------|
   
Fill
                PM........... 
|10---10---7--7------------------------------------|
|10---10---7--7---10---------------9/10-10-10------|
|-8----8---5--5---10---------------9/10-10-10------|
|------------------8--8-8-8-8-8-8--7/8---8--8------|

Chorus
|-3-----3----5-----5-----------------------------------|
|-1-----1----3-----3--8-8-8-8-7-7-7-7-5-5-5-5-5-5-5-5--|

End
|----------10-12-|
|-10-------10-12-|
|-10--------8-10-|
|--8-------------|

15.AM I EVIL

Gtr 1 : Distorted



        |   |   |   |     |   |   |   |    |   |     |   |        
    
||---||-----------------|----------------|---------------------|
||-4-||-----------------|----------------|---------------------|
||---||-9-----------7-9-|-10----------12-|-9---9-9-9-9---9-9-9-|
||-4-||-9-----------7-9-|-10----------12-|-9---9-9-9-9---9-9-9-|
||---||-7-----------5-7-|-8-----------10-|-7---7-7-7-7---7-7-7-|
||---||-----------------|----------------|---------------------|

   |   |     |     |       |   |     |   |       |   |     |	 |
 
 |-----------------------|---------------------|-----------------------|
 |-----------------------|---------------------|-----------------------|
 |-9---9-9-9-7-7-7-7-7-7-|-9---9-9-9-9---9-9-9-|-9---9-9-9-7-7-7-7-7-7-|
 |-9---9-9-9-7-7-7-7-7-7-|-9---9-9-9-9---9-9-9-|-9---9-9-9-7-7-7-7-7-7-|
 |-7---7-7-7-5-5-5-5-5-5-|-7---7-7-7-7---7-7-7-|-7---7-7-7-5-5-5-5-5-5-|
 |-----------------------|---------------------|-----------------------|
					       |
					       |
   					       | Gtr 2 : Distorted
					       | ( Trem Strum ) 
					       |-----------------------|
					       |-----------------------|
 					       |-----------------------|
					       |-14-\------------------|
					       |-14-\------------------|
					       |-12-\------------------|

  
Gtr 1 doubles Gtr 2

  |   |     |   |       |   |     |     |       |   |     |   |

|---------------------|-----------------------|---------------------|
|---------------------|-----------------------|---------------------|
|*--------------------|-----------------------|---------------------|
|-2-------------------|-----------9-9-9-9-9-9-|-8-------------------|
|*2-------------------|-----------9-9-9-9-9-9-|-8-------------------|
|-0-------------------|-----------7-7-7-7-7-7-|-6-------------------|


 
  |   |     |     |       |   |     |   |       |   |     |     |    

|-----------------------|---------------------|-----------------------|
|-----------------------|---------------------|-----------------------|
|----------------------*|---------------------|-----------------------|
|-----------3-3-3-3-3-3-|-2-------------------|-----------9-9-9-9-9-9-|
|-----------3-3-3-3-3-3*|-2-------------------|-----------9-9-9-9-9-9-|
|-----------1-1-1-1-1-1-|-0-------------------|-----------7-7-7-7-7-7-|



  |   |     |   |       |   |     |        |          |   |     |   |

|---------------------|-----------------------------|---------------------|
|---------------------|-----------------------------|---------------------|
|---------------------|-----------10-10-10-10-10-10-|-9-------------------|
|-8-------------------|-----------10-10-10-10-10-10-|-9-------------------|
|-8-------------------|-----------8--8--8--8--8--8--|-7-------------------|
|-6-------------------|-----------------------------|---------------------



  |   |     |     |       |   |     |   |       |   |     |     |

|-----------------------|---------------------|-----------------------|
|-----------------------|---------------------|-----------------------|
|-----------------------|---------------------|-----------------------|
|-----------9-9-9-9-9-9-|-8-------------------|-----------3-3-3-3-3-3-|
|-----------9-9-9-9-9-9-|-8-------------------|-----------3-3-3-3-3-3-|
|-----------7-7-7-7-7-7-|-6-------------------|-----------1-1-1-1-1-1-|



  |   |     |   |       |   |     |     |       |    |     |   |
   
|---------------------|-----------------------|----------------------|
|---------------------|-----------------------|----------------------|
|---------------------|-----------------------|*---------------------|
|-2-------------------|-----------7-7-7-7-7-7-|-/9---9-9-9-9---9-9-9-|
|-2-------------------|-----------5-5-5-5-5-5-|*/7---7-7-7-7---7-7-7-|
|-0-------------------|-----------------------|----------------------|


                        Gtr 1 : Grad rit.

  |   |     |     |       |   |   |   |      |   |   |   |
	(Repeat 3 times)
                                  ~~             ~~      ~~
|-----------------------|------------------|-------------------|
|-----------------------|------------------|-------------------|
|----------------------*|------------------|-------------10----|
|-9---9-9-9-7-7-7-7-7-7-|------------------|-----9---8---------|
|-7---7-7-7-5-5-5-5-5-5*|-------------8----|-7-----------------|
|-----------------------|-0---7---6--------|-------------------|


  ~~                                  
|------------------------------------|
|------------------------------------|
|-9---10---/12---/14-----/16---------|
|------------------------------------|
|------------------------------------|
|------------------------------------|



Gtr 2 : Intro solo. (See comments at end)

   HH  HH  HH  HH  HH  HH  HH  HH    HH  HH  HH  HH  HH  HH  HH  HH
|---------------------------------|---------------------------------|
|-058-058-058-058-058-058-058-058-|-047-047-047-047-047-047-047-047-|
|---------------------------------|---------------------------------|
|---------------------------------|---------------------------------|
|---------------------------------|---------------------------------|
|---------------------------------|---------------------------------|


							(Hold last note..)
   HH  HH  HH  HH  HH   HH   HH  HH    HH  HH  HH  HH  HH  HH  HH
|-----------------------------------|---------------------------------|
|-058-058-058-058-0710-0710-058-058-|-047-047-047-047-047-047-047-----|
|-----------------------------------|---------------------------------|
|-----------------------------------|---------------------------------|
|-----------------------------------|---------------------------------|
|-----------------------------------|---------------------------------|


  A   A   A   A   A   A Wh~~~~~~
|-------------------------------|
|-------------------------------|
|-------------------------------|
|-----5-------------------------|
|-5-----------5-------7---------|
|---------5-------7-------------|



"One, Two"		(Repeat Main Riff 8 times before verse)

                      PM---|  PM-|  PM---|

           	    |   |   |  |    |   |   |  |
Main Riff :       |------------------------------|
		  |------------------------------|
		  |*----------------------------*|
		  |---------------2---------3--2-|
		  |*2-2-2-2-5-2-2-0-2-2-2---1--0*|
		  |-0-0-0-0-3-0-0---0-0-0--------|	

(Main Riff with verse 1)

Verse 1 : (Lyrics)

		My mother was a witch, she was burned alive.
		Thankless little bitch, for the tears i've cried.
		Take her down now, don't want to see her face.
		All blistered and burned, can't hide my disgrace.


		      PM---|  PM-|  PM---|

		    |   |   |  |    |   |   |  |
Pre-Chorus riff : |------------------------------|
		  |------------------------------|
		  |*----------------------------*|
		  |---------7-----9---------10-9-|
		  |*7-7-7-7-5-7-7-7-7-7-7---8--7*|
		  |-5-5-5-5---5-5---5-5-5--------|

(Pre-Chorus riff x 4 with Pre-Chorus)

Pre-Chorus : (Lyrics)

		Twenty-seven, every one is nice,
		Gotta see 'em, make 'em pay the price,
		See the bodies out on the ice,
		Take my time.......


(Main Riff x 4 with Chorus)

Chorus : (Lyrics)

		Am I Evil?
		Yes I am,
		Am I Evil?
		I am that, yes I am....


			*******Main Riff x 2*******

(Main Riff x 8 with verse 2)

Verse 2 : (Lyrics)

		As i watched my mother die, I lost my head,
		Revenge now I sought, to break with my bread,
		Taking no chances, you come with me,
		I split you to the bone, help set you free.


(Pre-chorus riff x 4 with pre-chorus)

(Main Riff x 4 with chorus)



Bridge : 

		|------------------|------------------------------|
		|------------------|------------------------------|
		|*9-----7-----5---*|------------------------------|
		|-9-----7-----5----|---------------2---------3--2-|
		|*7-----5-----3---*|-2-2-2-2-5-2-2-0-2-2-2---1--0*|
		|------------------|-0-0-0-0-3-0-0---0-0-0--------|


               (Repeat 3 times)

	. |   |   |   |      |   |     |  |       |   |   |   |    
						    ~~~~~~~~~~~
	|------------------|--------------------|------------------|
	|------------------|--------------------|------------------|
	|*9-----7-----5---*|-9-----11-----12----|------------------|
	|-9-----7-----5----|-9-----11-----12----|------------------|
	|*7-----5-----3---*|-7-----9------10----|--/7--------------|
	|------------------|--------------------|------------------|



Double Time feel : 


	
				      _______________________________________
Fast Riff 1:			      |1.

  |   |   |   |      |   |   |   |      |   |   |   |      |   |   |   |

     PM-|    PM-|       PM-|               PM-|    PM--|      PM-|
|------------------|------------------|------------------|------------------|
|------------------|------------------|------------------|------------------|
|*-----------------|------------------|------------------|-----------------*|
|------------------|-------------7----|------------------|---------5--------|
|*7--7777-7--7777--|-7--7777-5---5----|-7--7777-7--7777--|-7--7777-3---5---*|
|-5--5555-5--5555--|-5--5555-3--------|-5--5555-5--5555--|-5--5555-----3----|


_____________________________________
|2.					Fast Riff 2 : (Note : Lyrics)

  |   |   |   |      |   |   |   |      |   |   |   |     |   |   |   | 

     PM-|    PM--|			PM------------------------|
|------------------|-----------------||-----------------|-----------------|
|------------------|-----------------||-----------------|-----------------|
|------------------|-----------------||*----------------|-----------------|
|------------------|-----------------||-----------------|------------7----|
|-7--7777-7--7777--|-----------------||*2--2222-2-2222--|-2--2222-2--5----|
|-5--5555-5--5555--|-555-555-555-532-||-0--0000-0-0000--|-0--0000-0-------|
   		   |   Triplets      |


  |   |   |   |     |   |   |   |   

  PM-------------------------|
|-----------------|-----------------|	
|-----------------|-----------------|
|-----------------|----------------*|    Repeat whole sequence again.
|-----------------|------------7-7--|
|-2--2222-2-2222--|-2--2222-2--5-5-*|
|-0--0000-0-0000--|-0--0000-0-------|



(With Fast Riff 2 [First repeat])

Lyrics : 


(With Fast Riff 2 [Second repeat])

Lyrics :







		*******Then Fast Riff 1 x 1*******



  |   |   |   |      |   |   |   |      |   |   |   |

|------------------|------------------|------------------|
|------------------|------------------|------------------|
|------------------|------------------|------------------|
|-2----------------|------------------|-5-------7--------|
|-2----------------|------------------|-5-------7--------|
|-0----------------|------------------|-3-------5--------|


GUITAR SOLO:

	
For the solo, the rhythm follows the following 'feel':

          X       X         X       X           
	|-X--XXXX-X-XXXX--|-X--XXXX-X-XXXX--|

	Chord changes are noted above tab lines, and are 2 or 3 fingered power
chords, depending on what you feel like. For the 'XX' notes, strike the
full chord, on the others just play the lowest note (Usually the E string)

  B5
  
  |  |||| |  | |||    |    | ||| |   | || |    
  @  @@@@ @  @ @@@    @    @ @@@ @   @ @@ @   
      (Full)    P                               
|-----------7-------|----------------11-12--|
|------------10-7-7/|/12-----------12-------|
|-9^^^^^^^^^--------|-----------------------|
|-------------------|-----------------------|
|-------------------|-----------------------|
|-------------------|-----------------------|



  |       |  |  |  |     |     |  |  |  |    |    |||| |   ||||
  @       @  @  @  @     @     @  @  @  @    @    @@@@ @   @@@@
    H  P       H  H        P  P     P  P
|-11-12-11---11-12-14-14-14-12-11-12-11----|-----------------7---|
|---------12----------------------------12-|-10---------/7-------|
|------------------------------------------|---------------------|
|------------------------------------------|---------------------|
|------------------------------------------|---------------------|
|------------------------------------------|---------------------|



  |  ||||  |     |   | |  |     |    | || | |     ||||
  @  @@@@  @     @   @ @  @     @    @ @@ @ @     @@@@
            H P                   P       P   P 
|-10-9--7--7-9-7-----7--------|--------------------------|
|----------------10----10-7---|-10-7---7-----------------|
|-----------------------------|------9---9-7-9-7---7---7-|
|-----------------------------|------------------9-------|
|-----------------------------|--------------------------|
|-----------------------------|--------------------------|



  |    ||  | | |    | | | |     |    ||  | | |    | | | | 
  @    @@  @ @ @    @ @ @ @     @    @@  @ @ @    @ @ @ @
 (Full)                        (Full)
|-----7-----------------------|-----7-----------------------|
|-----7-10-7---7--------------|-----7-10-7---7--------------|
|-9^^--------9---9-7-7------7-|-9^^--------9---9-7-7------7-|
|-----------------------------|-----------------------------|
|-----------------------------|-----------------------------|
|-----------------------------|-----------------------------|




  |    ||  | | |    | | | |      |      | | | |   |   | | | |
  @    @@  @ @ @    @ @ @ @      @      @ @ @ @   @   @ @ @ @
 (Full)
|-----7-----------------------|-/19--/20---/22---/24----------|
|-----7-10-7---7--------------|-------------------------------|
|-9^^--------9---9-7-7------7-|-------------------------------|
|-----------------------------|-------------------------------|
|-----------------------------|-------------------------------|
|-----------------------------|-------------------------------|



  E5
  |      | |  |  |  |      | |  |  |    |      | |  |  |  |      | |  |  |
  @      @ @  @  @  @      @ @  @  @    @      @ @  @  @  @      @ @  @  @
    P  P              P  P                P  P              P  P
|-15-14-12----12-14-15-14-12----12-14-|-15-14-12----12-14-15-14-12----12-14-|
|----------15----------------15-------|----------15----------------15-------|
|-------------------------------------|-------------------------------------|
|-------------------------------------|-------------------------------------|
|-------------------------------------|-------------------------------------|
|-------------------------------------|-------------------------------------|




  |     | | | |  |     | | | |     |     | | | |  |     | | | | 
  @     @ @ @ @  @     @ @ @ @     @     @ @ @ @  @     @ @ @ @

|-15---14---12--------12---------|--------------------------------|
|----------------15--------15----|-14---12---14-------------------|
|--------------------------------|----------------12======--------|
|--------------------------------|--------------------------------|
|--------------------------------|--------------------------------|
|--------------------------------|--------------------------------|



  B5
  |  | | | | |   | | | |    |    | | | |  |   | | | |
  @  @ @ @ @ @   @ @ @ @    @    @ @ @ @  @   @ @ @ @
 (Full) P     P      P        P      P     P     P
|------7-0-0-9-0-0-10-0-0-|-12-0-0-10-0-0-9-0-0-7-0-0-|
|----7--------------------|---------------------------|
|-9^----------------------|---------------------------|
|-------------------------|---------------------------|
|-------------------------|---------------------------|
|-------------------------|---------------------------|

  |    | | | | |   | | | |      |   | | | | |   | | | |
  @    @ @ @ @ @   @ @ @ @      @   @ @ @ @ @   @ @ @ @ 

|-10---9---7--------7---------|----------------------------|
|--------------10-------10----|-9---7---9------------------|
|-----------------------------|-------------7======\-------|
|-----------------------------|----------------------------|
|-----------------------------|----------------------------|
|-----------------------------|----------------------------|

 
  |  |||| |  ||||   |  |||| |  ||||   |  |||| |  ||||   |  |||| |  ||||
  @  @@@@ @  @@@@   @  @@@@ @  @@@@   @  @@@@ @  @@@@   @  @@@@ @  @@@@
   HH  HH  HH  HH    HH  HH  HH  HH    HH  HH  HH  HH    HH  HH  HH  HH
|-----------------|-----------------|-----------------|-047-047-047-047-|
|-047-047-047-047-|-058-058-058-058-|-047-047-047-047-|-----------------|
|-----------------|-----------------|-----------------|-----------------|
|-----------------|-----------------|-----------------|-----------------|
|-----------------|-----------------|-----------------|-----------------|
|-----------------|-----------------|-----------------|-----------------|



                                      A5
  |  |||| |  ||||   |  |||| |  ||||   |   ||||  |   ||||
  @  @@@@ @  @@@@   @  @@@@ @  @@@@   @   @@@@  @   @@@@
   HH  HH  HH  HH    HH  HH  HH  HH   T PP T PP T PP T PP
|-058-058-058-058-|-047-047-047-047-|-1285-1285-1285-1285-|
|-----------------|-----------------|---------------------|
|-----------------|-----------------|*-------------------*|
|-----------------|-----------------|---------------------|
|-----------------|-----------------|*-------------------*|
|-----------------|-----------------|---------------------|



  F5                    A#5                   F#5
  |   ||||  |   ||||    |   ||||  |   ||||    |   ||||  |   ||||
  @   @@@@  @   @@@@    @   @@@@  @   @@@@    @   @@@@  @   @@@@
  T PP T PP T PP T PP   T PP T PP T PP T PP   T PP T PP T PP T PP 
|-1385-1385-1385-1385-|-1396-1396-1396-1396-|-1496-1496-1496-1496-|
|---------------------|---------------------|---------------------|
|*-------------------*|*-------------------*|---------------------|
|---------------------|---------------------|---------------------|
|*-------------------*|*-------------------*|---------------------|
|---------------------|---------------------|---------------------|




  B5
  |    || | | |    || | |   |  |||| |  ||||   |  |||| |  ||||
  @    @@ @ @ @    @@ @ @   @  @@@@ @  @@@@   @  @@@@ @  @@@@
  T P P T P P T P P T P P    HH  HH  HH  HH    HH  HH  HH  HH
|-14107-14107-14107-14107-|-047-----047-----|-047-----047-----|
|-------------------------|-----047-----047-|-----047-----047-|
|*-----------------------*|-----------------|-----------------|
|-------------------------|-----------------|-----------------|
|*-----------------------*|-----------------|-----------------|
|-------------------------|-----------------|-----------------|




  |  |||| |  ||||   |  |||| |  ||||   |  |||| |  ||||   |  |||| |  ||||
  @  @@@@ @  @@@@   @  @@@@ @  @@@@   @  @@@@ @  @@@@   @  @@@@ @  @@@@
   HH  HH  HH  HH    HH  HH  HH  HH    HH  HH  HH  HH    HH  HH  HH  HH
|-----------------|-----------------|-----------------|-----------------|
|-047-----047-----|-047-----047-----|-----------------|-----------------|
|-----047-----047-|-----047-----047-|-047-----047-----|-047-----047-----|
|-----------------|-----------------|-----047-----047-|-----047-----047-|
|-----------------|-----------------|-----------------|-----------------|
|-----------------|-----------------|-----------------|-----------------|



                                        E5
  |  |||| |  ||||   |  |||| |  ||||     |      | | |  |   |      | | |  |
  @  @@@@ @  @@@@   @  @@@@ @  @@@@     @      @ @ @  @   @      @ @ @  @
   HH  HH  HH  HH                         P  P     P  P     P  P     P  P
|-----------------|-------------------|-------------------------------------|
|-----------------|----------------12-|-1514-0-0-1715-0-0-1514-0-0-1715-0-0-|
|-----------------|-------------/14---|-------------------------------------|
|-047-----047-----|-------------------|-------------------------------------|
|-----047-----047-|-------------------|-------------------------------------|
|-----------------|-7\----------------|-------------------------------------|



  |      | | |  |   |      | | |  |     |        |  | | |    |    ||| |
  @      @ @ @  @   @      @ @ @  @     @        @  @ @ @    @    @@@ @
    P  P    P  P    P  P    P  P
|-------------------------------------|---------------------------------|
|-1514-0-0-1715-0-0-1514-0-0-1715-0-0-|-1514-0-1412-0-1210-0-109-0-97-0-|
|-------------------------------------|---------------------------------|
|-------------------------------------|---------------------------------|
|-------------------------------------|---------------------------------|
|-------------------------------------|---------------------------------|


                      B5
  |  ||||  |  ||||    |   |||| |    || ||    |    |||| |  ||||
  @  @@@@  @  @@@@    @   @@@@ @    @@ @@    @    @@@@ @  @@@@ 
                     (Full)      P                     (Full)
|-------------------|----------------------|------------10^====|
|-7-----------------|-10^------107---7-----|-------------------|
|-7-9-7---7---------|--------------9---9-7-|-9-7---7-----------|
|-------------------|----------------------|-----9-------------|
|-------------------|----------------------|-------------------|
|-------------------|----------------------|-------------------|

 
  |   || || |       || | |    |    || | |  |  | | | |       (END SOLO)
  @   @@ @@ @       @@ @ @    @    @@ @ @  @  @ @ @ @
              H  P    H  P     H P   H P    ~~~~~~~~
|-9----12-------------------|--------------------------|
|-----------10-12-10-8-10-8-|-7-8-7-5-6-5--3========---|
|---------------------------|--------------------------|
|---------------------------|--------------------------|
|---------------------------|--------------------------|
|---------------------------|--------------------------|


*******Fast Riff 1 x 2 ( Note : Only repeat the first section )*******

On fourth repeat, Gtr 2 plays:

               P
|------------------|
|------------------|
|------------------|
|-/777-777-777-75--|
|----------------7-|
|------------------|


*******Fast Riff 2 x 4*******

*******Fast Riff 1 x 4*******


(Triplet feel - not strict time)

                             _________________________
                             |1,2,3.      |4.
                              H   H P 
|------------------|----------------------|----------| 
|------------------|----------------------|----------|
|------------------|---------------------*|----------|
|-----9---7-7------|-7-7------------------|-7--------|
|-----7---5-5------|-5-5---------5-7-5---*|-5---7----|
|-0-0--------------|---------5-7-------7--|-----5----|




    PM---|  PM-|  PM---|       h   h
              (Repeat 6 times)
|----------------------------|-----------------|
|----------------------------|-----------------|
|*--------------------------*|-----------------|
|---------------2--------3-2-|-------------2---|
|*2-2-2-2-5-2-2-0-2-2-2--1-0*|---------5---2---|
|-0-0-0-0-3-0-0---0-0-0------|-5---5---3---0---|   

16.WHIPLASH

|-----------||----------------------||-----------|---------|---------|---------|
|-----------||*--------------------*||-----------|---------|---------|---------|
|-----------||----------------------||-----------|---------|---------|---------|
|--9--9--9--||---9--------9--9--9---||--9--------|--9------|---------|---------|
|--7--7--7--||*--7--------7--7--7--*||--7--------|--7------|---------|---------|
|-----------||----------------------||-----------|---------|---------|---------|




|----------|----------|----------|----------|----------|-----------|----------|
|----------|----------|----------|----------|----------|-----------|----------|
|----------|----------|----------|----------|----------|--9--------|----------|
|----------|----------|----------|----------|----------|--9--------|----------|
|----------|----------|----------|----------|----------|--7--------|----------|
|----------|----------|----------|----------|----------|--0--------|----------|




|-----------|----------|------------|-----------|-----------|--------|
|-----------|----------|------------|-----------|-----------|--------|
|--9--------|----------|--9--9------|--9--------|--9--------|--------|
|--9--------|----------|--9--9------|--9--------|--9--------|--------|
|--7--------|----------|--7--7------|--7--------|--7--------|--------|
|--0--------|----------|--0--0------|--0--------|--0--------|--------|



                                                          play 3 times
||---------------------------------|----------------------------------||
||*--------------------------------|---------------------------------*||
||---------------------------------|----------------------------------||
||---------------------------------|------------------7----6----------||
||*--------------------------------|------------------7----6----5p0--*||
||--0--0-0-0-0-0-0-0-0-0-0-0-0-0-0-|-0-0-0-0-0-0-0-0------------------||
      PM.............................................



|---------------------------------|--------------------------------|
|---------------------------------|--------------------------------|
|---------------------------------|--------------------------------|
|---------------------------------|-------------------7----6----5--|
|---------------------------------|-------------------7----6----5--|
|--0--0-0-0-0-0-0-0-0-0-0-0-0-0-0-|-0-0-0-0-0-0-0-0----------------|
      PM.............................................



  Rhy Fig 1                                            end Rhy Fig 1
||---------------------------------|--------------------------------||
||*--------------------------------|-------------------------------*||
||---------------------------------|--------------------------------||
||---------------------------------|------------------7----6----5---||
||*--------------------------------|------------------7----6----5--*||
||--0--0-0-0-0-0-0-0-0-0-0-0-0-0-0-|-0-0-0-0-0-0-0-0----------------||
      PM.............................................



                                                             play 4 times
  Rhy Fig 2                                                 end Rhy Fig 2
||----------------------------------|------------------------------------||
||*---------------------------------|-----------------------------------*||
||----------------------------------|------------------------------------||
||----------------------------------|------------------------------5-----||
||*---------------------------------|------------------------------5----*||
||--0-0-0-0-0-0-0-0-0-0-0-0-0-0-0-0-|-0-0-0-0-0-0-0-0-0-0-0-0-0-0--------||
   PM............................................................. 


 S/S

 w/ Rhy Fig 2 (4 times)
|--------------------------------------|
|--------------------------------------|
|--------------------------------------|
|--------------------------------------|
|--------------------------------------|
|--------------------------------------|
 1. Late at night... 
 2.3.4.


  Chorus						  
		
                                                 
  Rhy Fig 3                                     end Rhy Fig 3
||--------------------|--------------------------------------||
||--------------------|--------------------------------------||
||--------------------|--------------------------------------||
||--5--------5--4--2--|--------------------------------------||
||--3--------3--2--0--|-------4--4--4----4--4--4----4--4-----||
||--------------------|--0h2--2--2--2----2--2--2----2--2--0--||
                             PM............................. 

 Note: Chorus consists of 3x Rhy Fig 3 plus one bar w/ no guitars.
       


                                     __________________________________
                                    |1,2,3.                            |
 w/ Rhy Fig 1 (4 times)
||----------------------------------|----------------------------------||
||*---------------------------------|---------------------------------*||
||----------------------------------|----------------------------------||
||----------------------------------|----------------------------------||
||*---------------------------------|---------------------------------*||
||----------------------------------|----------------------------------||


  _________________________________
 |4. 

||---------------------------------|---------------------------------||
||---------------------------------|---------------------------------||
||---------------------------------|---------------------------------||
||---------------------------------|---------------------------------||
||---------------------------------|---------------------------------||
||---------------------------------|---------------------------------||


                                                           play 4 times
  Rhy Fig 4                                               end Rhy Fig 4
||----------------------------------|----------------------------------||
||*---------------------------------|---------------------------------*||
||----------------------------------|----------------------------------||
||-----------5-----5----------------|----------5-----5-----------------||
||*--7p5-----5-----5----------------|--7p5-----5-----5----------------*||
||--------7-----7-------0--0--0--0--|-------7-----7-------0--0--0--0---||
                       PM..........                      PM..........


 Guitar solo

 w/ Rhy Fig 4

|--15p14p12------12--15p14p12------12--17p15p12------12--17p15p12------12--|
|------------15----------------15----------------15----------------15------|
|--------------------------------------------------------------------------|
|--------------------------------------------------------------------------|
|--------------------------------------------------------------------------|
|--------------------------------------------------------------------------|



|--17p15p12------12--17p15p12------12--17p15p12------12--17p15p12------12--|
|------------15----------------15----------------15----------------15------|
|--------------------------------------------------------------------------|
|--------------------------------------------------------------------------|
|--------------------------------------------------------------------------|
|--------------------------------------------------------------------------|



|--17p15p12------12--17p15p12------12--17p15p12------12--17p15p12------12--|
|--------------------------------------------------------------------------|
|------------15----------------15----------------15----------------15------|
|--------------------------------------------------------------------------|
|--------------------------------------------------------------------------|
|--------------------------------------------------------------------------|



|-17b19---------------------------|------------------------------------------------|
|--------15--15\-------------x--x-|-----12-------12-------12-------14--12----------|
|-----------------14b16------x--x-|-----12-------12-------12-------14--12-------12-|
|------------------------12-------|-14-------14-------14-------14-----------14-----|
|---------------------------------|------------------------------------------------|
|---------------------------------|------------------------------------------------|



|--------------------12h15p12-----------------------------------------|
|---------12--15p12------------15-----12--------12--15p12-------------|
|--14b16---------------------------14b16--14b16--------------14--12\--|
|---------------------------------------------------------------------|
|---------------------------------------------------------------------|
|---------------------------------------------------------------------|



          AH      AH               AH
|-------------------------------|-----------------------------|
|-------------------------------|-----------------------------|
|--2b4----{2}b4--r{2}-b4----r2--|--{2}b4----rp0------------0--|
|-------------------------------|----------------2------2-----|
|-------------------------------|-----------------------------|
|-------------------------------|-----------------------------|



|--------------------------------------|--------------------------------------|
|--------------------------------------|--------------------------------------|
|--2p0h2p0--4p0h4p0--5p0h5p0--4p0h4p0--|--5p0h5p0--7p0h7p0--9p0h9p0--7p0h7p0--|
|--------------------------------------|--------------------------------------|
|--------------------------------------|--------------------------------------|
|--------------------------------------|--------------------------------------|



|------------------------------------------|--------------------------------------|
|------------------------------------------|------------------------------------7-|
|-9p0h9p0--10p0h10p0--12p0h12p0--10p0h10p0-|-9p0h9p0--7p0h7p0--9b11---9b10---9----|
|------------------------------------------|--------------------------------------|
|------------------------------------------|--------------------------------------|
|------------------------------------------|--------------------------------------|



|-----------------10p7------7-----7--------------|
|--10p7-----10p7--------10--7-----7--10p7--------|
|--------9---------------------9-----------9--7--|
|------------------------------------------------|
|------------------------------------------------|
|------------------------------------------------|



|--------------------------------------------------|
|--------------------------------------------------|
|--7--7--9p7---------------------------------------|
|-------------9p7-----7--9p7-----------------------|
|------------------9----------9--7--5--------------|
|--------------------------------------7--7--~--~--|



|--------------------------------------------------------------------|
|----------------------------------------------------------------12--|
|--------------------------12-----------------12------12--14b16------|
|----------------------12--12--12--14p12------12--14-----------------|
|------12--12--12--14---------------------14-------------------------|
|--14----------------------------------------------------------------|



|-------------12--15p12------------------------------------------------|
|---------12-------------15--12------12--15p12------12--15p12------12--|
|--14b16-------------------------14-------------14-------------14------|
|----------------------------------------------------------------------|
|----------------------------------------------------------------------|
|----------------------------------------------------------------------|



|--------------------------|------------------|
|--15b17----------------0--|------------------|
|-----------------------0--|--15b17--r15-\----|
|--------------------------|------------------|
|--------------------------|------------------|
|--------------------------|------------------|


 w/ Rhy Fig 1 (4 times)

|-----12--12-----12----12--------12--12--12--------12----12--12--12--12--|
|--15b17------15b17-------15b17--------------15b17-----------------------|
|------------------------------------------------------------------------|
|------------------------------------------------------------------------|
|------------------------------------------------------------------------|
|------------------------------------------------------------------------|




|--12-------12----12--12---------12-----12--12---------12--|
|-----15b17----15b17-----------------15b17------15b17------|
|-------------------------14b15----------------------------|
|----------------------------------------------------------|
|----------------------------------------------------------|
|----------------------------------------------------------|




|--15--12------12--15p12------12--15p12-------------------------|
|----------15-------------15-------------15--12--12--12--15p12--|
|---------------------------------------------------------------|
|---------------------------------------------------------------|
|---------------------------------------------------------------|
|---------------------------------------------------------------|




|---------------------------------------------------------|
|---------------------------------------------------------|
|--14--12------12--14p12------12--14p12------12--14--12\--|
|----------14-------------14-------------14---------------|
|---------------------------------------------------------|
|---------------------------------------------------------|
  PM...........................................



|--3p1p0--3p1p0--3p1p0--5p3p0--6p4p0--6p4p0--7p5p0--8p6p0--|
|----------------------------------------------------------|
|----------------------------------------------------------|
|----------------------------------------------------------|
|----------------------------------------------------------|
|----------------------------------------------------------|



|--8p6p0--9p7p0--10p7p0--11p8p0--12p9p0--12p9p0--14p11p0--15p12p0--|
|------------------------------------------------------------------|
|------------------------------------------------------------------|
|------------------------------------------------------------------|
|------------------------------------------------------------------|
|------------------------------------------------------------------|



|-15p12p0--16p13p0--17p13p0--17p14p0--18p15p0--19p16p0--20p17p0--21p18p0-|
|------------------------------------------------------------------------|
|------------------------------------------------------------------------|
|------------------------------------------------------------------------|
|------------------------------------------------------------------------|
|------------------------------------------------------------------------|


                                                  go back to the sign S/S         
|--21p18p0--22p19--22p19--22p19--22b24----22b24--|--22b24----------------|
|------------------------------------------------|-----------------------|
|------------------------------------------------|-----------------------|
|------------------------------------------------|-----------------------|
|------------------------------------------------|-----------------------|
|------------------------------------------------|-----------------------|

17.BREADFAN

Riff A - 8x                                      8th time play Fill 1
|-------------------------------------------|---------------------------------|
|-------------------------------------------|---------------------------------|
|-------------------------------------------|---------------------------------|
|-------------------------------------------|---------------------------------|
|-5h7--7--5h7--7--5h7--7--5h7--7--5h7--7--7-|-5h7--7--5^7--7--7--5------------|
|-------------------------------------------|-----------------------7--5--3~-0|

Fill 1                              PM PM
|----------------------------------------|
|----------------------------------------|
|----------------------------------------|
|----------------------------------------|
|--5h7--7--5^7--7--7--5------------------|
|------------------------7--5--3~--3--2--|


1st Verse
Riff B
   PM    PM------|     PM------|     PM------|    PM  PM                            
|-----------------------------------------------------------------------------|
|-----------------------------------------------------------------------------|
|.---------------------------------------------------------------------------.|
|.-2--2--0-2-2-0-2-----0-2-2-0-2-----0-2-2-0-2----0---0---0---0---0---0-0--1-.|
|--2--2--0-2-2-0-2-----0-2-2-0-2-----0-2-2-0-2----0---0---0---0---0---0-0--1--|
|--0--0----------0-------------0-------------0--------------------------------|

   PM    PM------|        PM--|        PM--|
|-----------------------------------------------------------------------------|
|-----------------------------------------------------------------------------|
|.---------------------------------------------------------------------------.|
|.-2--2--0-2-2-0-2----0---2-0-2----0---2-0-2-------5-----0----0----0---0-0-1-.|
|--2--2--0-2-2-0-2----0---2-0-2----0---2-0-2---5h7---7\5-0----0----0---0-0-1--|
|--0--0----------0------------0------------0----------------------------------|

Between verses 1 & 2 play Riff A 4x
2nd Verse - play Riff B

I'm working on the solo - here's the rhythm underlying it:

|-----------------------------------------------------------------------------|
|-----------------------------------------------------------------------------|
|-----------------------------------------------------------------------------|
|--2--------------------------------------------------------------------------|
|--2--------------------------------------------------------------------------|
|--0--------------------------------------------------------------------------|

|-----------------------------------------------------------------------------|
|-----------------------------------------------------------------------------|
|-----------------------------------------------------------------------------|
|--2------------------------------1--2----------------------------------0--1--|
|--2------------------------------1--2----------------------------------0--1--|
|--0---------------------------------0----------------------------------------|

|-------------------------------------------------------------------------|
|-------------------------------------------------------------------------|
|-------------------------------------------------------------------------|
|--2-------------1--2-------------1--2------1--2--------------------------|
|--2-------------1--2-------------1--2------1--2------4--4/5---5---5---5--|
|--0----------------0----------------0---------0------2--2/3---3---3---3--|

|----------------------------------------------------------------------|
|----------------------------------------------------------------------|
|----------------------------------------------------------------------|
|----------------------------------------------------------------------|
|--4/5---5---5---5--4/5---5---5---5--4/5---5---5---5--4/5---5---5---5--|
|--2/3---3---3---3--2/3---3---3---3--2/3---3---3---3--2/3---3---3---3--|

|----------------------------------------------------------------------|
|----------------------------------------------------------------------|
|----------------------------------------------------------------------|
|----------------------------------------------------------------------|
|--6/7---7---7---7--6/7---7---7---7--6/7---7---7---7--6/7---7---7---7--|
|--4/5---5---5---5--4/5---5---5---5--4/5---5---5---5--4/5---5---5---5--|

Riff C
|----------------------------------|
|----------------------------------|
|----------------------------------|
|----------------------------------|
|--7------5------7------5---7---5--|
|--5------3------5------3---5---3--|

Riff D
e |-----------------------------------------------------------|
B |-----------------------------------------------------------|
G |-----------------------------------------------------------|
D |------5-------------3--------------------------------------|
A |--5h7---7\------3h5---5\----------7-------------2----------|
E |------------------------------5h7---7\------0h2---2-3---4--|

then play Riff C again and follow it with a fading E5

 Acoustic

|----------------------------------------|------------------------------------|
|---------------8-------8----------------|------------6--5---6----------------|
|------------9------9------9p0--0--------|---------7-------------7p0--0-------|
|---------9------------------------------|------7-----------------------------|
|------7---------------------------------|-5----------------------------------|
|-0--------------------------------------|------------------------------------|

|----------------------------------------|------------------------------------|
|---------------8-------8----------------|------------6--5---6----------------|
|------------9------9------9p0--0--------|---------7-------------7p0--0-------|
|---------9------------------------------|------7-----------------------------|
|------7---------------------------------|-5--------------------------------6-|
|-0--------------------------------------|------------------------------------|

|----------------------------------------|------------------------------------|
|---------------8-------8----------------|------------6--5---6----------------|
|------------9------9------9p0--0--------|---------7-------------7p0--0-------|
|---------9------------------------------|------7-----------------------------|
|-7----7-------------------------------6-|-5--------------------------------6-|
|----------------------------------------|------------------------------------|

|----------------------------------------|------------------------------------|
|---------------8-------8----------------|------------6--5---6----------------|
|------------9------9------9p0--0--------|---------7-------------7p0--0-------|
|---------9------------------------------|------7-----------------------------|
|-7----7-------------------------------6-|-5--------------------------------4-|
|----------------------------------------|------------------------------------|

|---------------0------------------------|-------------------0----------------|
|------------3------3--------------------|------------0--3-------3p0--0-------|
|---------0-------------0----------------|------------------------------------|
|------5--------------------5------------|---------2--------------------------|
|-3--------------------------------------|------2-----------------------------|
|--------------------------------------1-|-0--------------------------------1-|

e |--------------------0------------------|
B |-------------0--3-------3p0--0---------|
G |---------------------------------------|
D |----------2----------------------------|
A |-------2-------------------------------|
E |--0---------------------------------1--|

|----------------------------------------|------------------------------------|
|---------------8-------8----------------|------------6--5---6----------------|
|------------9------9------9p0--0--------|---------7-------------7p0--0-------|
|---------9------------------------------|------7-----------------------------|
|------7-------------------------------6-|-5--------------------------------6-|
|-0--------------------------------------|------------------------------------|

|----------------------------------------|------------------------------------|
|---------------8-------8----------------|------------6--5---6----------------|
|------------9------9------9p0--0--------|---------7-------------7p0--0-------|
|---------9------------------------------|------7-----------------------------|
|-7----7-------------------------------6-|-5--------------------------------4-|
|----------------------------------------|------------------------------------|

|---------------0------------------------|-------------------0----------------|
|------------3------3--------------------|------------0--3-------3p0--0-------|
|---------0-------------0----------------|------------------------------------|
|------5--------------------5------------|---------2--------------------------|
|-3--------------------------------------|------2-----------------------------|
|--------------------------------------1-|-0--------------------------------1-|

5x - 2nd through 5th play with Riff E
e |--------------------0------------------|
B |-------------0--3-------3p0--0---------|
G |.-------------------------------------.|
D |.---------2---------------------------.|
A |-------2-------------------------------|
E |--0---------------------------------1--|

Riff E - Distortion
|--------------------------------------|--------------------------------------|
|--------------------------------------|--------------------------------------|
|--------------------------------------|--------------------------------------|
|-------/5--5--5--5---4---2------------|-------/5--5--5--5---4---5------------|
|-------/7--7--7--7---5---2------------|-------/7--7--7--7---5---7------------|
|--------------------------------------|--------------------------------------|

|--------------------------------------|--------------------------------------|
|--------------------------------------|--------------------------------------|
|-------/4--4--4--4--5p4--4------------|-------/4--4--4--4---2---4------------|
|-------/5--5--5--5-------5------------|-------/5--5--5--5---4---5------------|
|--------------------------------------|--------------------------------------|
|--------------------------------------|--------------------------------------|

then play:
E5 palm muted 10x and open 2x
Riff C
Riff A 4x w/ Fill 2 on the fourth time 'round

Fill 2 
    PM-----------------------|
e |----------------------------------------|
B |----------------------------------------|
G |----------------------------------------|
D |--2-2----2-2----2-2----2-2----2----2----|
A |--2-2----2-2----2-2----2-2----2----2----|
E |--0-0----0-0----0-0----0-0----0----0----|

3rd Verse - Riff B

Riff A 4x
E5 - let ring
Fill 2 - all palm muted

Closing Riff
e |--------------------------|
B |--------------------------|
G |--------------------------|
D |--4/5--5--4/5--5--4/5--2--|
A |--5/7--7--5/7--7--5/7--2--|
E |-----------------------0--|
comments
print report bad tab
5 comments total. Showing first comments.
0 reply
VANHALENSMASTER wrote on January 29 2006, 08:30 pm

Dude you never cease to amaze me.

0 reply
CliffIsAngry wrote on October 7 2008, 02:00 pm

for whom the bell tolls is wrong.

the intro is NOT guitar, it's bass!

0 reply
Shelltide wrote on February 9 2009, 08:19 pm

woot blackened is correct and i think he knew that its a bass but some still might want to play it

I want to post or [tab]
guest
You may want to rate the tab now too:
select rating
Please do not post tabs as comments. Select "correction" instead!