Oops, an error
Loading. Please wait.

Load Bass Tab

6,337 views 6 this week
no commentswrite comment
1 2 3 4 5
excellent!
x 2
add to favorites launch autoscroll
font size
0
reset
Autoscroll
+/-
esc
set tempo
stop
WARNING: You are trying to view
                                    content from Ultimate-Guitar.com
                                    in an unauthorized application,
                                    which is prohibited.

                                    Please use an official Ultimate
                                    Guitar Tabs application for iPhone,
                                    iPad or Android to access legitimate
                                    chords, guitar, bass, and drum tabs
                                    from Ultimate-Guitar.com database.

                                    Type "ultimate guitar tabs" in Apple
                                    App Store's or Android Market's
                                    search to find the application.
Metallica
Load

Tune bass down ½ step (all songs)

Ain't my bitch

|-----------------------------------------------------------|
|-----------------------------------------------------------|
|-----------------------------------------------------------|
|-0-0-(0)-0-3---0-0----------------------0-0-(0)-0-0-3---0--|

  BASS FIG 1                                          END FIG 1
|--------------------------|-%---|------------------------------|
|--------------------------|--%--|------------------------------|
|--------------------------|-%---|------------------------------|
|-0--0--0--0--0--0--0--0-0-|--%--|-0-0-0-0-0-0-0-(0)-0-3---5-3--|

|-----------------------------------------------------------------------|
|-----------------------------------------------------------------------|
|-----------0-2/5--7-7-7-7-7-7-7-7-7--7-7-7-7-7-7-7-7-7-7-7-7-7---7-----|
|-(0)-0-3-------------------------------------------------------0---0-3-|

------------------------------------------------------------------------|
------------------------------------------------------------------------|
----------------7---7---7---------7---7---7------7-7-7-7-7-7--7---------|
-3--3--5-3--0-0---0---0---0-0-0-0---0---0---0--0-------------0--0-3-3-3-|

---------|
---------|
---------|
-/7-5-3--|

  1,2,3 VERSES W/BASS FIG 1

|-----------------------------------------------------------------------|
|-----------------------------------------------------------------------|
|-----------------------------------------------------------------------|
|-(0)-0-3---3-3-5-3-5-5-5-5-5-5-5-3-3-5-5-5-5-5-5-5-5-3-3-5-5-5-5-5-5-0-|

-------------------------------------------------------------------------|
-------------------------------------------------------------------------|
----------------------------------------------------------7--------------|
-5---5-3---3---0-------0------0--------0---0---------0---0-----7---------|

                                     CHORUS  & BASS FIG 2
-----------------------------------|------------------------------------|
-----------------------------------|------------------------------------|
-----------------------------------|------------------------------------|
-0-0-0-0-0-0-0-0-0-0-0-0-0-0-0-0-7-|-7-7-7-7-7-0-0-5-5-5-5-5---5-0-0-3--|
                                            END FIG 2
------------------------------------------------|--%---|----------------|
------------------------------------------------|---&--|----------------|
------------------------------------------------|--^---|----------------|
-3-3-3-3-3-2-1--0-0-0-0-3P0-0-0-0-0-3P0-0-0-3P0-|---$--|-7--7-7-7-7-7-7-|

------------------------------------------------------------------------|
------------------------------------------------------------------------|
------------------------------------------------------------------------|
-5-5-5-5-5-5-5-5-3-3-3-3-3-3-2-1-0----0-0-0-0-0-0-0-0-0-0-0-0-0-0-0-0-0-|

------------------------------------------------------------------------|
------------------------------------------------------------------------|
----------------0-2/5--7-7-7-7-7-7-7-7-7-7-7---7---7---7---------7-7-7--|
-0-0-(0)-0-3---------------------------------0---0---0---0-0-0-0--------|

------------------------------------------------------------------------|
------------------------------------------------------------------------|
-----7------------------------------------------------------------------|
-0-0---0-3-----(3)--/7-5-3-----------0-0-(0)-0-3-----(3)-0---0-0-0-0-0--|

------------------------------------------------------------------------|
------------------------------------------------------------------------|
-------------------------------------7----------------------------------|
-0-0-0-------------0-0-0-0-0-0-0-0-0-0--0-0-0-0-0-0-0-0-0-0-0-0-0-0-0-0-|

------------------------------------------------------------------------|
------------------------------------------------------------------------|
--------------------7--------7-------7---------7-----7----7----7---7--7-|
-0-0-0-3--3/5-3-0-0---0-0-0-0--0-0-0---0-0-0-0---0-0---0-0--0-0--0---0--|

                     GUITAR SOLO
-------------------|----------------------------------------------------|
-------------------|-----4---------4-----------------------------4----4-|
-----7-7-7-7-5-----|----------------------------------------------------|
-0-0-----------7-5-|-2-2---2-2-2-2----2------2-2-5-5-5-5-7-0-2-2---2-2--|

------------------------------------------------|
---4-------4-4-4-4---4--------------------------|
------------------------------------------------|
-2---2-2-2---------2---2--------2-2-5-5-5-5-7-0-|

|------------------------------------------------------------------------|
|-----6-----6------------------6----6-----------------------------6----6-|
|------------------------------------------------------------------------|
|-4-4---4-4---4-4-4--------4-4---4-4--4-4-4-4--4-4-4-7--7-9P7-4-4--4-4---|

-------------------------------------------------------------------------|
-------------------------------------------------------------------------|
-------------------------------------------------------------------------|
-4-4-4-----------------7-7-7-7-0--(0)--(0)--(0)--(0)--(0)--(0)-----------|(0)-(0)

-------------------------------------------------------------------------|
-------------------------------------------------4---------3--3----------|
--------7-------7-7----------------5-5-----------------------------------|
-/12---0-----0-----3-------3-5/7-------7--2--2-2--2--1-1-1--1--1-0-0-0---|

-----------|---&---|
-----------|--@----|
-----------|---#---|
-0-0-0-0-0-|--*----|

     CHORUS W/BASS FIG 2 (4X's)

    BASS FIG 3                                          END FIG 3
|------------------------------------------------------------------|
|------------------------------------------------------------------|
|------------------------------------------------------------------|
|-7-7-7-7-7-7-0-0-5-5-5-5-5--5-0-0-3-3-3-3-3-3-2-1-0-0-0-0-0-0-0-0-|

  BASS FIG 3 (2 1/2X's)

|-----------------------------------------------------------------|
|-----------------------------------------------------------------|
|-----------------------------------------------------------------|
|-3-3-3-3-3-3-3-2-1-0-3-2-1-0-3-2-1-0-3-2-1--------0-0-(0)-0-3-0--|


2x4

Riff 1:
|--------------------------------------|
|--------------------------------------|
|--------------------------------------|
|--0-3/5-6--0-3/5-6--0-3/5-0--0-3/5-0--|

Riff 2:
|-----------------------------------|
|-----------------------------------|
|-----------------------------------|
|--0--0-3--0-5/6--0-5/6--0-6-0-5-3--|

Riff 3:
|------------------------------------|
|------------------------------------|
|------------------------------------|
|--0--0-3--0-5--0--65--3--65--3------|

Riff 4:
|------------------------|
|------------------------|
|------------------------|
|--0-3/5-6------0-3/5-0--|

Riff 5:
|--------------|----------------------------------------|
|--------------|----------------------------------------|
|--------------|----------------------------------------|
|--0--3--5--1--|--1-1-1-1-1-1-1-1-1-1-1-1-1-1-1--1--1---|
                x4|                             4th time

Riff 6:
|------------|-----------------------|
|------------|-----------------------|
|------------|-----------------------|
|--0--3-5-3--|--0--3-5-3--0--3-5-3---|

The riffs
Riff1 x4
Riff2 x4
Riff3 x4
Riff2 x2
Riff3 x4
Riff4 x4
Riff1 x6
Riff2 x4
Riff3 x4
Riff4 x3
Riff1 x6
Riff1 x4
Riff4 x1
Riff6 x8
Riff1 x2
Riff4 x3
Riff1 x6
Riff6 x1

The house that jack built


    Fig 1
G ----------------------------------------------------------------------|
D ----------------------------------------------------------------------|
A ----------------------------------------------------------------------|
E --1\-3--1\-3--1\-3----------------------------------------------------|

    Fig 2
G ----------------------------------------------------------------------|
D ----------------------------------------------------------------------|
A ----------------------------------------------------------------------|
E --3--3--3--3--3--3--3--1--1--1--1--1--1--1--1--0----------------------|

    Fig 3
G ----------------------------------------------------------------------|
D ----------------------------------------------------------------------|
A ----------------------------------------------------------------------|
E --0--0--0--0--0--0--0--1--3-------------------------------------------|

    Fig 4
G ----------------------------------------------------------------------|
D ----------------------------------------------------------------------|
A ----------------------------------------------------------------------|
E --0--0--0--0--0--0--0--0--0--0--0--0--2--2--3--3--5--5--6--6----------|

    Fig  5
G ---------------------------------------------------------|
D ---------------------------------------------------------|
A -------3--5---------------3--5---------3--5---888--------|
E --1--3------------1--3------------1--5-------------8---6-|
               (the higher you^Å^Å^Å)

this is an easy tab all the parts follow the guitar, learn the riffs then it will click!!!!

Order of riffs
1
2
3
4
1
4
5
4
5
3
4
1
2
5
3


until it sleeps

Intro  (fretless bass)

Gb------------------|----------------------------|---------|
Db-------7----------|--7/10------9-------(9)\----|--7------|
Ab---7--------------|-------------------------7--|---------|
Eb------------------|----------------------------|---------|

Gb---------------------------------|
Db-----7/10------------------------|
Ab-----------------8-------(8)\7---|
Eb---------------------------------|

Verse (same all three verses)

Gb------------------|-----------------------|--------------|
Db------------------|-----------------------|--7-----------|
Ab-0----------------|(0)-----------------7--|--------------|
Eb------------------|-----------------------|--------------|

     Where do I take this pain of mine?

Gb-------------------------------------------|
Db-----7/10---------9-----------(9)\---------|
Ab------------------------------------7------|
Eb-------------------------------------------|

Gb-----------------|----------------|----------------------|
Db---7-------------|--(7)-----------|--7-------------7/10--|
Ab---0-------------|--(0)-----------|----------------------|
Eb-----------------|----------------|----------------------|

        I run but it stays right by my side

Gb-----------------------------|
Db-----------------------------|
Ab------8----------------------|
Eb--------------3----3----1----|

Chorus

Gb------------------------------|--------------------------|
Db------------------------------|--------------------------|
Ab------------------------------|--------------------------|
Eb--5---5---5---5---5---5----3--|--3---3---3---1--------1--|

            So tear me open.....

Gb---------------------------------|-----------------------|
Db---------------------------------|-----------------------|
Ab---------------------------------|-----------------------|
Eb--1---3/5---5---5---5---5---5\3--|---(3)---3---3/8-----8-|

          p   p
Gb-------------------|-------------------------------|
Db-------------------|-------------------------------|
Ab-------------------|-------------------------------|
Eb---8---8--7--5\-3--|-5---5---5---5---5---5-----3---|


Gb------------------------------------|--------------------|
Db------------------------------------|--------------------|
Ab-----3------------------------------|--------------------|
Eb-3-------3---1---------1---1---3/-5-|--5---5---5---5---5-|


Gb---------|--------------------------------------|--------|
Db---------|--------------------------------------|--7-----|
Ab---------|-----------------------------------7--|--0-----|
Eb----3----|--(3)---3---3---7--------8------------|--------|


Gb-----------------------------------|---------------------|
Db----7/-10---------9-------(9)\-----|--7------------------|
Ab--------------------------------7--|---------------------|
Eb-----------------------------------|---------------------|


Gb---------------------------------------|
Db---------------------------------------|
Ab---7/-10----------8-----------(8)\--7--|
Eb---------------------------------------|


Gb------------------------------|--------------------------|
Db------------------------------|--------------------------|
Ab------------------------------|-------------------7------|
Eb-/5--5--5--5-5-5--5--5-5-3----|-3--3--3-/8-----7-----7---|

Bridge
                                              h
Gb-------------------------------------------------|
Db------------------------------------------5---7--|
Ab--------7-------7-----------5------6-------------|
Eb---0----0---0---0---0---0---0------0-------------|

          It grips you, so hold me......

Gb---------------------------------------|----------------|
Db---------------------------------------|----------------|
Ab---7\-5/-7---------------5-----6-----7-|-7\----7-----5--|
Eb---0--0--0---0--5--0--0--0--0--0--0--0-|-0--0--0--0--0--|

             h
Gb--------------|
Db---------5--7-|
Ab-----6--------|
Eb-----0--------|


Gb---------------------------------------|
Db---------------------------------------|
Ab---7\-5/-7---------------5-----6-----7-|
Eb---0--0--0---0--5--0--0--0--0--0--0--0-|


                      h    h
Gb-----------------------------------------------------|
Db-----------------------------------------------------|
Ab----7\------------------5--7-----5-------6-------7---|
Eb----0------0---0---5--7------0---0---0---0---0---0---|

Gb---------------------------------------|
Db---------------------------------------|
Ab---7\-5/-7---------------5-----6-----7-|
Eb---0--0--0---0--0--0--0--0--0--0--0--0-|


                     h    h
Gb-----------------------------------------------------|
Db-----------------------------------------------------|
Ab----7\------------------5--7-----5-------6-------7---|
Eb----0------0---0---5--7------0---0---0---0---0---0---|


Gb---------------------------------------------------|-----|
Db------------------------------5-------7-------7----|--7--|
Ab--7\--------------------------7-------7-------7----|--0--|
Eb--0---0---0---0---0---0---0-------0-------0--------|-----|


Gb-----------------------------------|---------------------|
Db----7/-10---------9-------(9)\-----|--7------------------|
Ab--------------------------------7--|---------------------|
Eb-----------------------------------|---------------------|


Gb---------------------------------------|
Db---------------------------------------|
Ab---7/-10----------8-----------(8)\--7--|
Eb---------------------------------------|

Interlude
           h
Gb------------------------------------------------|
Db--7-----5--7/-10---------9-------(9)\-----------|
Ab---------------------------------------7----0---|
Eb------------------------------------------------|


Gb------------------------/12------------|
Db---------/14---12-----------------14---|
Ab----(0)--------------------------------|
Eb---------------------------------------|


Gb-----------------------------------------------------|
Db-------------7/10------9---(9)\7---------------------|
Ab---0------------------------------7----0-------------|
Eb-----------------------------------------------------|


Gb-----------------------------------------------------|
Db-----------------------------------------------------|
Ab---(0)-----------------------------------------------|
Eb---------------3---3---3/---8---------------(8)------|


Gb------------------------------------------------------|
Db------------------------------------------------------|
Ab------------------------------------------------------|
Eb--------3-----3/--8---------3---3/--8-------------8\--|


Gb-------------------------|-------------------------|
Db-------------------------|-------------------------|
Ab-------------------------|-------------------------|
Eb-\5--5--5--5--5--5--5--5-|-5--5--5--5--5--3--3--1--|

Chorus

Gb-------------------------|----------------------------|
Db-------------------------|----------------------------|
Ab-------------------------|----8--0--------------------|
Eb--5--5--5--5--5--5--5--5-|/8--------1-----1--1--1--3/-|

         So tear me open, pull me out......

Gb--------------------------------|---------------------|
Db--------------------------------|---------------------|
Ab--------------------------------|---------------------|
Eb--/5---5---5---5---5---5-----3--|-(3)---3---3---3/8---|


          p  p
Gb------------------|--------------------------------|
Db------------------|--------------------------------|
Ab------------------|--------------------------------|
Eb---8---8--7--5\3--|-5---5---5---5---5---5------3---|


Gb----------------------------------|----------------------|
Db----------------------------------|----------------------|
Ab--------3-------------------------|----------------------|
Eb--(3)-------3---1-------1---1---3/|-5---5--5--5--5--5--5-|


Gb--------------------|----------------------------|
Db--------------------|----------------------------|
Ab--------------------|----3-----3---3-------------|
Eb-5---5--5--5--5--3--|-3-----3----------0---12\---|


Gb-----------------------------------|
Db---14--14--12--14------14------12--|
Ab---0---0---0---0---0---0---0---0---|
Eb-----------------------------------|


Gb-----------------------------------|
Db------14--12--15------15------12---|
Ab--0---0---0---0---0---0---0---0----|
Eb-----------------------------------|


Gb-----------------------------------|
Db---14--14--12--14------14------14--|
Ab---0---0---0---0---0---0---0---0---|
Eb-----------------------------------|


Gb-----------------------------------|
Db------12------15------15------12---|
Ab--0---0---0---0---0---0---0---0----|
Eb-----------------------------------|


Gb-----------------------------------|
Db---14--14--12--14------14------12--|
Ab---0---0---0---0---0---0---0---0---|
Eb-----------------------------------|


Gb-----------------------------------|
Db------14--12--15------15-----------|
Ab--0---0---0---0---0---0---0---0----|
Eb-----------------------------------|


Gb-----------------------------------|
Db---14--14--12--14------14------14--|
Ab---0---0---0---0---0---0---0---0---|
Eb-----------------------------------|


                             h
Gb-----------------------------------|---------------------|
Db------12------15------15--------5--|--7---------------7/-|
Ab--0---0---0---0---0---0---5--7-----|---------------------|
Eb-----------------------------------|---------------------|


Gb--------------------------|---------|
Db-/10------9-------(9)\----|--7------|
Ab-----------------------7--|---------|
Eb--------------------------|---------|

Gb---------------------------------|----------------------|
Db-----7/10------------------------|--7---------------7/--|
Ab-----------------8-------(8)\7---|----------------------|
Eb---------------------------------|----------------------|


Gb--------------------------|---------|
Db-/10------9-------(9)\----|--7------|
Ab-----------------------7--|---------|
Eb--------------------------|---------|


Gb----------------------------------|-----------------|
Db----------------------------------|-----------------|
Ab-----7/10--------------8-------7\-|--0--------------|
Eb----------------------------------|-----------------|


King nothing

Intro
=====           Bass Fig.1                                           (8x)
.|G|----10-----|-----------------------|--------------------------|
4|D||=========||*----------------5-----|-------5--------8---7-----|
4|A|--guitar---|*---5-6-7----5/7----7--|---5/7----7---------------|
.|E|-----------|--0-------0------------|-0-----------/6---5-------|

  Bass Fig.2                                (4x)
G|-----------------------|------------------------|
D|*----------------------|--------------8---7-----|
A|*---5-6-7----7--------|-------------------------|
E|--0-------------0-3-0--|--0-0-3-0--/6---5-------|

  Bass Fig.3
G|--------------------|------------------|------------------|
D|*-------------------|------------------|------------------|
A|*-------------------|------------------|------------------|
E|--X-0-3-0--/6-6-5-X-|-1-0-3-0-/6-6-5-X-|-1-0-3-0-/6-6-5-X-|

     (end Bass Fig.3)
G|-------------------|------------------|------------------|
D|-------------------|------------------|------------------|
A|-------------------|------------------|------------------|
E|-1-0-3-0-/6-6-5-3--|-0-0-3-0-/6-6-5-X-|-1-0-3-0-/6-6-5-X-|

                                        Bass Fig.4
G|------------------|------------------|-----------------------|
D|------------------|------------------|--------7-----7--------|
A|------------------|------------------|-0--0-0----0----0-0-0--|
E|-1-0-3-0-/6-6-5-X-|-1-0-3-0-/6-6-5-3-|-----------------------|

        (end Bass Fig.4)
G|----------------------|-----------------------|------------------|
D|-----7----------------|--------7-----7--------|----7-------------|
A|-(0)---7-6---5^6-5^6-|-0--0-0----0----0-0-0--|(0)---7-6----6/----|
E|----------------------|-----------------------|------------------|

  %
G|---------------------|--------------------------|-----------------------------|
D|---------------------|--------------------------|-----------------------------|
A|----7--7-7----7---7--|--------------------------|-----------------------------|
E|-0----------0---0----|-8--8-8--8--8----8-8-8-8--|-7--7-7--7--7----7-7-7-75----|


G|----------------------|----------------------|---------------------------|
D|----------------------|----------------------|---------------------------|
A|---------------7-7----|------7--7-7----7---7-|---------------------------|
E|-5-5-3-2--1--0------5|-0--0---------0---0---|-3--3-3--3--3----3-3-5-3----|

                                              Bass Fill 1
G|------------------------|------------------|-------------------|
D|------------------------|------------------|-------------------|
A|------------------------|------------------|-------------------|
E|--2--2-2-2--2---2-2-3-2-|-1-1-1-1--1-1-1-1-|-1---------------X-|
  ____________________________________________________  ____________
  w/Bass Fig.2(4x)                                    |/2.
G|-----------------|-------------------|------6-------|---------------|
D|-------===-------|--------===--------||===========|*|-w/Bass Fill 1-|
A|-------===-------|--------===--------|-------------*|---------------|
E|-----------------|-------------------|--------------|---------------|
  __________________________________________________________
  w/Bass Fig.2(4x)
G|-----------------|-----------|-----------|----------------|
D|-------===-------|----===----|----===----|-------===------|
A|-------===-------|----===----|----===----|-------===------|
E|-----------------|-----------|-----------|----------------|
                             HALF TIME FEEL
  ____________               w/Bass Fig.4
G|------------|------3------|-------------|------------------|
D|-----===----|-|=========|-|-----===-----|--------===-------|
A|-----===----|-------------|-----===-----|--------===-------|
E|------------|-------------|-------------|------------------|

               w/Bass Fill 2  (end 1/2 time feel) w/Bass Fig.3    w/Bass Fill 3
G|------------|----------------------X---------|--------4-------|--------r------|
D|----===-----|------7---------------X---------||==============||--------e------|
A|----===-----|----------7---6-------X---------|----------------|--------s------|
E|------------|-(0)------------------X---------|----------------|-0------t------|

  w/Bass Fig.1(4x)             w/Bass Fig.1(4x)
G|--------7--------|----------|-------------------|------------------|
D||===============||----==----|--------===--------|--------===-------|
A|-----------------|----==----|--------===--------|--------===-------|
E|-----------------|----------|-------------------|------------------|


G|-------------------|-----------------|------------|-----------------|
D|-------====--------|-------====------|----====----|-------===-------|
A|-------====--------|-------====------|----====----|-------===-------|
E|-------------------|-----------------|------------|-----------------|


G|-------------------|-----------------|------------|-----------------|
D|-------====--------|-------====------|----====----|-------===-------|
A|-------====--------|-------====------|----====----|-------===-------|
E|-------------------|-----------------|------------|-----------------|

  w/Bass Fig.2(4x)
G|------------------|-----------------|------------------|
D|-------===--------|-------===-------|--------===-------|
A|-------===--------|-------===-------|--------===-------|
E|------------------|-----------------|------------------|


G|------------------|-----------------|------------------|
D|-------===--------|-------===-------|--------===-------|
A|-------===--------|-------===-------|--------===-------|
E|------------------|-----------------|------------------|

                                                  D.S. Al Coda %
G|---------------------------|----------------------------------|
D|----------=====------------|---------------====---------------|
A|----------=====------------|---------------====---------------|
E|---------------------------|----------------------------------|
   |
  -0-To Coda
   |
G|---------------------|--------|-------|-------|----------------|
D|---------------------|--------|-------|-------|----------------|
A|---------------------|--------|-------|-------|----------------|
E|1------------------X-|-0------|(0)----|(0)----|(0)-----X-X-----|

  Outro
  w/Bass Fig.2(4x)
G|------------------|-----------------|-----------|-----------------|
D|------=====-------|------=====------|----===----|-------===-------|
A|------=====-------|------=====------|----===----|-------===-------|
E|------------------|-----------------|-----------|-----------------|


G|------------------|---------------|-----------|-----------------|
D|------=====-------|----=====------|----===----|-------====------|
A|------=====-------|----=====------|----===----|-------====------|
E|------------------|---------------|-----------|-----------------|


G|-------------|-----------------|-----------------|------------------||
D|-------------|-----------------|-----------------|------------------||
A|-------------|-----------------|-----------------|------------------||
E|-0-----------|(0)--------------|(0)--------------|(0)---------------||

Hero of the day

Intro:

7 bars guitar only

:--------------------------------|--------------------------------:
:--------------------------------|--------------------------------:
:-----------------------------7--|-7---7---7---7---7---7---7---7--:
:--------------------------------|--------------------------------:

Verse 1:
|--------------------------------|----------------------------------|
|-7-------7--(7)/-9---9------(9)/|11--11-----(11)/12--12-(12)-------|
|-----0-------0---0-------0---0--|-0-------0---0---0-------0---0----|
|--------------------------------|----------------------------------|

|--------------------------------|--------------------------------|
|--------------------------------|--------------------------------|
|--------------------------------|--------------------------------|
|-0---0---0---0---0---0---0---0--|-0---0---0---0---0---0---0---0--|

Fig.1
|--------------------------------|----------------------------------|
|-----7------(7)/-9---9------(9)/|11--11-----(11)/12--12-(12)-------|
|-0-------0---0---0-------0---0--|-0-------0---0---0-------0---0----|
|--------------------------------|----------------------------------|

                                                          end Fig.1
|--------------------------------|--------------------------------|
|--------------------------------|--------------------------------|
|--------------------------------|--------------------------------|
|-0---0---0---0---0---0---0---0--|-0---0---0---0---0---0---0---0--|

Fig.2
|--------------------------------|----------------------------------|
|-----7------(7)/-9---9------(9)/|11--11-----(11)/12--12-(12)-------|
|-0-------0---0---0-------0---0--|-0-------0---0---0-------0---0----|
|--------------------------------|----------------------------------|

                                                          end Fig.2
|--------------------------------|--------------------------------|
|--------------------------------|--------------------------------|
|--------------------------------|-------------------------0------|
|-0---0---0---0---0---0---0---0--|-0---0---0---0---0---2-------2--|

Repeat Fig.2 x 1

Fig.3
|--------------------------------|--------------------------------|
|--------------------------------|--------------------------------|
|-0---0---0---0---2---2---2---2--|-4---4---4---4---5---5---4---5--|
|--------------------------------|--------------------------------|

                                                          end Fig.3
|--------------------------------|--------------------------------|
|--------------------------------|--------------------------------|
|-5/7-----------------7-------5--|(5)--7-------------------0------|
|---------0---0---0-------0------|---------0---0---0---2-------2--|

Repeat Fig.3 x 1
Repeat Fig.1 x 2
End Verse 1

Verse 2:

Repeat Fig.1 x 2
Repeat Fig.3 x 4

End Verse 2

Chorus:
Fig.4                                                     end Fig.4
|--------------------------------|--------------------------------|
|--------------------------------|--------------------------------|
|->------->------->------->------|->------->------->------->------|
|-2-2-2-2-2-2-2-2-2-2-2-2-2-2-2-2|-2-2-2-2-2-2-2-2-2---0-2-3-3-0-2|

Fig.4A                                                   end Fig.4A
|--------------------------------|--------------------------------|
|--------------------------------|--------------------------------|
|->------->------->------->------|->------->------->------->------|
|-3-3-2-2-2-2-2-2-2-2-2-2-2-2-2-2|-2-2-2-2-2-2-2-2-2---0-2-3-3-0-2|

Repeat Fig.4A x 4

End Chorus

Guitar Solo:

Repeat Fig.3 x 2

End Guitar Solo

Verse 3:

Repeat Fig.3 x 2

End Verse 3

Chorus:

Repeat Fig.4
Repeat Fig.4A x 5

End Chorus

Outro:

Fig.5
|--------------------------------|--------------------------------|
|--------------------------------|--------------------------------|
|--------------------------------|--------------------------------|
|-2-2-2-2-2-2-2-2-2-2-2-2-2-2-2-2|-4-4-4-4-4-4-4-4-4-4-4-4-4-4-4-4|

                                                          end Fig.5
|--------------------------------|--------------------------------|
|--------------------------------|--------------------------------|
|--------------------------------|--------------------------------|
|-5-5-5-5-5-5-5-5-5-5-5-5-5-5-5-5|-7-7-7-7-7-7-7-7-7-7-7-7-7-7-7-7|

Repeat Fig.5 x 3

|--------------------------------|--------------------------------:
|--------------------------------|--------------------------------:
|--------------------------------|--------------------------------:
|-3---2-------2------------------|(2)-----------------------------: End

-----------------------------------------------------------------------

bleeding me

Intro:
:--------------------------------|--------------------------------|
:-------------Guitar-------------|--------------------------------|
:---------------x6---------------|-----------------------------5-/|
:--------------------------------|--------------------------------|

|--------------------------------|----------------------------------|
|--------------------------------|----------------------------------|
|10------------------9-h-10---9-|-7---------------------------------|
|--------------------------------|-----------------0----------------|

|--------------------------------|--------------------------------|
|--------------------------------|--------------------------------|
|--------------------------------|--------------------------------|
|(0)-----------------------------|(0)-----------------------------|

|--------------------------------|----------------------------------|
|---------------------7----------|----------------------------------|
|-------------7-/-9------10-----|-7---------------------------------|
|(0)-----------------------------|-----------------0----------------|

|--------------------------------|--------------------------------|
|--------------------------------|--------------------------------|
|--------------------------------|-7-----------------------------/|
|(0)-----------------------------|-----------------0--------------|

                                  From end of 1st verse
|--------------------------------|----------------------------------|
|--------------------------------|*---------------------------------|
|10------10--10---9-h10-p-9-----|*7---------------------------------|
|--------------------------------|-0---------------0----------------|

|--------------------------------|----------------------------------|
|---------------------7----------|----------------------------------|
|-------------7-/-9------10-----|-7---------------------------------|
|(0)-----------------------------|-----------------0----------------|

|--------------------------------|--------------------------------|
|--------------------------------|--------------------------------|
|--------------------------------|-7------------------------------|
|(0)-----------------------------|-----------------0--------------|

|----------------------------------|
|----------------------------------|
|10------10--10---9-h10-p-9--------|
|----------------------------------|

Verse 1, 2:
:--------------------------------|----------------------------------|
:--------------------------------|----------------------------------|
:-7----------0------------------|-------------0-----------5---------|
:---------0-------0--------------|(0)------0-------2-/-3-------3----|

|--------------------------------|----------------------------------|
|--------------------------------|----------------------------------|
|-------------0------------------|-------------0-------0------------|
|(3)-2---0-------0--------------|(0)------0------/2-------3---------|

|--------------------------------|----------------------------------|
|--------------------------------|----------------------------------|
|-------------0------------------|-------------0-----------5--------|
|(3)-----0-------0--------------|(0)------0-------2-/-3-------3-----|

|--------------------------------|----------------------------------|
|--------------------------------|----------------------------------|
|-------------0------------------|----------------------------------|
|(3)-2---0-------0---0-0-0------|/3-------3-------2-h-3---2---------|

|--------------------------------|--------------------------------|
|--------------------------------|--------------------------------|
|-------------0------------------|-------------0-------0----------|
|-1---0---0-------0--------------|(0)------0------/2-------3------|

|--------------------------------|----------------------------------|
|--------------------------------|----------------------------------|
|-------------0------------------|-------------0-----------5--------|
|(3)-----0-------0--------------|(0)------0-------2-/-3-------3-----|

|--------------------------------|----------------------------------|
|--------------------------------|----------------------------------|
|-------------0------------------|----------------------------------|
|(3)-2---0-------0-------0---0--|/3---3---3---3---2-h-3---2---2-----|

|--------------------------------|----------------------------------|
|--------------------------------|-7---7-------7---7-------7--------|
|-7---7-------7---7-------7-----------------------------------------|

cure

DRUMS         GUITAR IN            1st VERSE
|------------|--------------------|----------------------------|
|------------|--------------------|----------------------------|
|------------|--------------------|----------------------------|
|------------|--------------------|----------------------------|

 BASS FILL 1                         END FILL 1
|-------------------------------------------------|
|-------------------------------------------------|
|-------------------------------------------------|
|-1--1--1--1--1--1--1--1--1--1--1--1--1------0--1-|

 PRE-CHORUS  (BASS FIG 1)
|------------------------------------------------------------------------|
|------------------------------------------------------------------------|
|-----0--1---------------------1-------------------------------------1-1-|
|-(1)-------0--1--0--0--0-0--0---3--0--1--0--0--1--1--1-1--1--1--1--1----|

----------------------------------------------------------------------|
----------------------------------------------------------------------|
-/8-8-8-8-8-----------0-1----------------1------------------0-1-------|
--------------0-1--(1)-----0-1-0-0--0-0-0---3-0-1-0-0-1--(1)-----0-1--|

----------------------------------------------------------------------|
----------------------------------------------------------------------|
-------------1--------------------------------------------------------|
-0--0--0-0--0--3-0-1-0-0-0--0-0-X--0-0-0-0--X--0--0-0-X--0-0-0-0-0--X-|

                                 END FIG 1
----------------------------------------------|
----------------------------------------------|
--------------------------------7-6-5---------|
-0--0--0--X--0-0-0-0-0--X--0--0---------7-6-5-|

|------------------------------------------------------------------|
|------------------------------------------------------------------|
|------------------------------------------------------------------|
|--3-0-3---0-0-0-0-0-0-0-0-0-0-0-0-0-0-3--0-0-0-0--0-0-0-0-0-0-0-0-|

  BASS FIG 2              END FIG 2
|-----------------------------------|
|-----------------------------------|
|-----------------------------------|
|-0----3----0-0-0-0-0-0-0-0-0-0-0-0-|

   W/BASS FIG 2  3x'S
                        W/BASS FILL 1
   PRE-CHORUS W/FIG 1


   CHORUS (BASS FIG 3)
|--------------------------------------------------------------------|
|--------------------------------------------------------------------|
|------------------7------7-6-5-----------------------7------7-6-5---|
|-3-0----0-0-0-0-0---0-/6-------7-6-5-3-0---0-0-0-0-0---0-/6---------|

-----------------------------------------------------------------------|
-----------------------------------------------------------------------|
----------------------7------7------7----------7------7----------------|
-7-6-5--3-0---0-0-0-0-0-0-/6---6-5----6-5--5H6---6-5----6--5--3-0--0-0-|
         END FIG 3       GUITAR SOLO
---------------------|-------------------------------------------------|
---------------------|-------------------------------------------------|
---------------------|----7-------7------------------------------------|
---0--0----0-0---0-0-|-0----6-5-----6-5--0-0-3---0-0-0-0-0-0-0-0-0-0-0-|

---------------------------------------------------------------------|
---------------------------------------------------------------------|
---------------------------------------------------------------------|
-0--0-0-3--0-0-0-0-0-0-0-0-0-0-0-0--0-0-3--0-0-3--0--3-3-3-3-0-0-3-0-|

----------------------------------------------------------------------|
----------------------------------------------------------------------|
----------------------------------------------------------7-----7-----|
-3-0-3----0-0-0-0-0-0-0-0-0-0-0-0--1-1-1-1-1-1-1-1-1-1-1/---6-5---6-5-|


              BASS FIG 4                        END FIG 4
|-----------|------------------------------------------------|
|-----------|------------------------------------------------|
|-----------|-7---7-------------7---7-----7-------------7----|
|-0--0-0--0-|-0-0-0--0-0-0-0-0--0-0-0--0--0--0-0-0-0-0--0--0-|


   INTERLUDE W/ BASS FIG 4  8x's


|--------------------------------------------------------------|
|--------------------------------------------------------------|
|---7----------------5---------------4-------------------------|
|-0---6-5---0-3-5--6---6-5--0-3-5--6---6-5--0-3-5-6-5-3-0-0--3-|


  CHORUS W/ BASS FIG 3  4x's
                              W/ BASS FIG 3


|----------------------------------------------------|
|----------------------------------------------------|
|----7-------7------------------7--------------------|
|-/6---6-5-----6-5--5H6-0-6-5-----6-5--0--3--0-------|


poor twisted me


  INTRO  (GUITAR)
|-----------------------------|------------------------------------------|
|---------------------------5-|-7-7-7-7--7-7-7-7--(7)--7-7-7-7-7-5-------|
|-----------------------------|------------------------------------75----|
|-----------------------------|----------------------------------------3-|

 BASS FIG 1                                     END FIG 1
|----------------------------------------------------------|
|----------------------------------------------------------|
|----------------------3-----------------------------------|
|--5---5-3-5---5-3--5-----------5----5-3-5-----5--3---5--3-|

  1,2 VERSES
|------------------------------------------------------------|
|------------------------------------------------------------|
|------------------------------------------------------------|
|-5--5--5--5--53-------------------------5--5--5--5--53------|

----------------------------------------------------------------------|
----------------------------------------------------------------------|
----------------------------------------------------------------------|
-5--5--5--5--5----3-----------X--0H3H5--3--3-3-3--3-3-3--3-3-3-3-3----|

--------------------------------------------------------------------|
--------------------------------------------------------------------|
-----------------------------------------------------3--------------|
-3-3-3-----3--3--3-3-3-3---3-3-3-3---5--5-3-5--5-3-5----------------|

|------------------------------------------------------------|
|------------------------------------------------------------|
|--------------------------------------3-5---5-5-5---5/7---5-|
|-5---5-3-5--5-3-5--3---------0---3H5------------------------|

|------------------------------------------------------------------|
|------------------------------------------------------------------|
|--3---3-3-3-3/-7-----------------------/7-7-7-7-7-7-7-7-7-7-7-7---|
|------------------0--3-3-3-3-3-3-5-3---0-0-0-0-0-0-0-0-0-0-0-0----|

   BASS FIG 1  2X's

|--------------------------------------------------------------------|
|--------------------------------------------------------------------|
|-------------------------------3------------------------------------|
|-5---5-3-5---5-3-5-5-5-3-5-3-5---5-----5---3---5----5-5-3--5--5-3-5-|

---------|
---------|
---------|
-3--5--3-|

  BRIDGE (BASS FIG 2)
|--------------------------------|-----|------------------------------|
|--------------------------------|-----|------------------------------|
|--------------------------------|--%--|------------------------------|
|-3--3--3-3-3-3-3-3--3-3---3-3-5-|-----|-3--3--3--3--3--3--3--3--3--3-|

----------------------------------------------------------------------|
----------------------------------------------------------------------|
--------------------------------------------------7-------------------|
-3---3---3--3--3--3--3--2--2--1--1--0--0--0--0--0---0--0--0--0--0--0--|

                  END FIG 2
----------------------------|
----------------------------|
----------------------------|
-0--0--0--3--3--0--0--3--3--|

  GUITAR SOLO W/FIG 1  2X's

|---------------------|        |----------------------------------------|
|---------------------|        |---7-5----------------------------------|
|---------------------| 2X's   |-------7-------------------------3------|
|-0-0-0-0--(0)--(3)-|        |---------5--5-3-5--5-3-5---5-3-5---5-5----|

----------------------------------------------|
----------------------------------------------|
-3-------------------------7------------------|
---5----5-3-5---/5--3---5------5--/5--3-5-3-5-|

   BRIDGE (BASS FIG 2)

    3RD VERSE
|--------------------------------------------------------------------|
|--------------------------------------------------------------------|
|-5--5--5--5--5/7--5--3---3--3--3--3-/7------------------------------|
|---------------------------------------0--3--3--3--3--3--3--3--3--5-|

----------------------------------------------------------------------|
----------7--7--7--7--------------------------------------------------|
----------------------7--4--5--5--5--5--5--5--7--5--3--3---3----3-----|
-5--5--5--------------------------------------------------------------|

----------------------------------------------------------------|
----------------------------------------------------------------|
--57----------------------------------7--7--7--7--7--7--7--7----|
-----0--3---3--3--3---3/--0--0--0--0---0--0--0--0--0--0--0--0---|

    BASS FIG 1  1 1/2X's

|-------------------------------------------------|
|-------------------------------------------------|
|-------------------------------------------------|
|-5---5--3--5-3/-5-3/-5--3-----------5-5-5-5------|

wasting my hate

Moderate Rock  =148

     (guitar intro)

	       8
Gb||-----------------------||
DB||-----|===========|-----||
Ab||-----|===========|-----||
Eb||-----------------------||

Vocals: Good day, how do, and I send a smile to you.
	Don't waste, waste your breath and I won't waste my hate on you.

	FASTER  =168

       N.C.D5E5      N.C.D5E5N.C.D5E5       N.C.D5E5N.C.D5E5  E5
             ~~~~~~~~~     ~~~~    ~~~~~~~~~     ~~~~                 3
Gb||-----------|---------------------|---------------------||---|-----------|
DB||-----------|---------------------|---------------------||---|--|=====|--|
Ab||-----0-5-7-|-(7)---0-5-7---0-5-7-|-(7)---0-5-7---0-5-7-||---|--|=====|--|
Eb||-----------|---------------------|---------------------||-0-|-----------|

						Harm...........|
Gb||---------------------|---------------------|-----------------------|
DB||---------------------|---------------------|-----------------------|
Ab||---------------------|---------------------|-----------------------|
Eb||---X-X---X-X---X-X---|---X-X---X-X---X-X---|-2.4-2.4-2.4-2.4---X---|

Gb|-------------------||
DB|-------------------||
Ab|-------------------||
Eb|-X-X-X-X-X-X-X-0---||
							     _____________________  _____________________
							    |1.			  ||2.                   |
N.C. 							  G5      A5 N.C.A5   N.C.       A5 N.C.A5   N.C.
Bass Fig. 1										  (End Bass Fig. 1)

Gb||---------------------|-----------------|-----------------|---------------------||--------------------||
DB||*--------------------|-----------------|-----------------|--------------------*||--------------------||
Ab||*--------------------|-----------------|-----------------|--------------------*||--------------------||
Eb||---(0)-0-0-0-0-0-0-0-|-0-5-7-0-7-6-6-5-|-5-5-5-5-5-4-4-3-|-(3)-5-5-0-3-5-5-0---||-(3)-5-5-0-3-5-5-0--||

    1st,2nd,3rd Verses, see end for Lyrics
 %  E5                  F5/E                 E5
Gb||--------------------|--------------------|------------------|
DB||*-------------------|--------------------|------------------|
Ab||*-------------------|--------------------|------------------|
Eb||---0-0-0-0--0-0-0-0-|-0-0-0-0--0-0-0-0H1-|-0-0-0-0--0-0-0-0-|

    F5/E                E5                   F5/E     N.C. D5 E5
							      ~~~
Gb||--------------------|--------------------|------------------|
DB||--------------------|--------------------|------------------|
Ab||--------------------|--------------------|------------0-5-7-|
Eb||---0-0-0-0--0-0-0-0-|-0-0-0-0--0-0-0-0H1-|-0-0-0-0--0-------|

			2nd time bass fill 1
			3rd time bass fill 3
        N.C.D5E5 N.C.D5E5    N.C.D5E5 N.C.D5E5                   F5/E
  ~~~~~~~     ~~~~    ~~~~~~~~~     ~~~~
Gb|---------------------|---------------------|------------------|------------------|
DB|---------------------|---------------------|------------------|------------------|
Ab|-(7)---0-5-7---0-5-7-|-(7)---0-5-7---0-5-7-|------------------|----------------5-|
Eb|---------------------|---------------------|-0-0-0-0--0-0-0-0-|-0-0-0-0--0-0-0---|

||==========================||		||==========================||
	  Bass Fill 1				  Bass Fill 2
      ~~~~~
  Gb|--------------------|		  Gb|---------------------|
  DB|--------------------|		  DB|---5-----------------|
  Ab|-(7)-5-5------------|		  Ab|-----7-6-5-----------|
  Eb|---------7-7-6-5-3--|		  Eb|-----------7-6-5-3---|

||==========================|| 		||==========================||
	  Bass Fill 3
      ~~~~~    ~~~~
  Gb|--------------------|
  DB|--------------------|
  Ab|-(7)-0-10-7---0-5-7-|
  Eb|--------------------|

||==========================||

    D5			A5		    E5
Gb|------------------|--------------------|------------------|
DB|------------------|--------------------|------------------|
Ab|-5-5-5-5--5-5-----|--------------------|------------------|
Eb|--------------7-5-|-(5)-5-5-5--5-5-1-1-|-0-0-0-0--0-0-0-0-|

					  2nd time Bass Fill 2
            N.C.D5E5     N.C.D5E5 N.C.D5E5     N.C.D5E5    N.C.D5E5
                  ~~~~~~~~~~    ~~~~    ~~~~~~~~~~
Gb|-----------------|---------------------|------------------------|
DB|-----------------|---------------------|------------------------|
Ab|-----------0-5-7-|-(7)---0-5-7---0-5-7-|-(7)----5-0-5H7---------|
Eb|-0-0-0-0-0-------|---------------------|----------------7-6-5-3-|

    N.C.
Gb||-----------------------|-------------------|-------------------|-------------------||
DB||-----------------------|-------------------|-------------------|-------------------||
Ab||-----------------------|-----------------5-|-(5)-5-5---5---5---|---------------2---||
Eb||---0---0---0---0---0-0-|-(0)-0-0---0---0---|-----------------5-|-(5)-5-5-0-3H5---0-||

	Half time Feel
	Chorus
	N.C.
Gb|----------------------|-----------------|-------------------|-------------------|
DB|----------------------|-----------------|-------------------|-------------------|
Ab|------------------5-7-|-(7)-----7-5---5-|-(5)---5-5-5-------|---------------2---|
Eb|----(0)-0-0-0-5H7---0-|-(0)-0-0-----7---|-------------7-0-5-|-(5)---5-0-3-5---0-|

Gb|----------------------|-----------------|------------------|-------------------|
DB|----------------------|-----------------|------------------|-------------------|
Ab|------------------5-7-|-(7)-----7-5-----|------------------|-------------2-----|
Eb|----(0)-0-0-0-5H7---0-|-(0)-0-0-----75-|-3---3-3-53-------|-5---5-0-3-5---0----|
		     __________________________________________
	    To CODA |1.
                  (end half time feel)  Play bass Fig.1 once
				HATE!
Gb|-----|-----|-----|----------------|-----------------------||
DB|-----|-----|-----|----------------|----------------------*||
Ab|-----|-----|-----|----------------|----------------------*||
Eb|-(0)-|-(0)-|-(0)-|-(0)------------|------vocals:- Ha-Ha---||
    _________________
   |2.				   (end half time feel)
			Think I'll keep it for my-self    Hate!
Gb||----------------|---|-----|-----|----------------||
DB||----------------|---|-----|-----|----------------||
Ab||----------------|-7-|-(7)-|-(7)-|-(7)------------||
Eb||-(0)------------|-0-|-(0)-|-(0)-|-(0)------------||

	       			Play 3 times			       D.S. al CODA
Gb||-------------------|------------------||------------------|------------------||
DB||*------------------|-----------------*||------------------|------------------||
Ab||*--0-5-7-0-5-7-0-5-|-7-0-5-7-0-------*||------------------|------------------||
Eb||-------------------|-----------0-1-1--||-0-0-0-0--0-0-0-0-|-0-0-0-0--0-0-1-1-||

  CODA
	    Think I'll keep it for my-self
Gb||-----|--------------|----------------|
DB||-----|--------------|----------------|
Ab||-----|-7------------|-(7)------------|
Eb||-(0)-|-0------------|-(0)------------|

		(end half time feel)
				   NCD5E5NC D5E5NCD5  E5NCD5E5 NC    F5
				Yeah				HATE!
Gb||----------------|-------------|------------------|-------------------||
DB||----------------|-------------|------------------|-------------------||
Ab||-(7)------------|-(7)---------|-0-5-7-0--5-7-0-5-|-7-0-5-7-0---------||
Eb||-(0)------------|-(0)---------|------------------|-----------0-1-1---||

Mama said

Rest for the first 13 measures, 4/4
Play this once then you rest 9 measures and play it again

(00:52)    (2:03)
Gb----------------------------------------------------------------------|
Db------5------------------------------------5--------------------------|
Ab---------------------------5---3----------------------------------5-3-|
Eb—3-------3—3-3—3---3h5--------5---3------3---3-3-3-3—5----5-----------|

Gb-----------------------------------------------------------I--------------|
Db----------5------------------------------------------------I--------------|
Ab----------------------------------5----3—31------------I------------------|    x2
Eb—3----------3---3-3-3---3-5------------------3—3—-I--53/5----------(5)(3)-|

You play this part the first time then the
2nd time you play this part below
On the second time you play this part
(2:22)
Gb----------------------------------------|
Db----------------------------------------|
Ab----------------------------------3-4---|
Eb---53/5-5-5-5-5-5---5-3-5---------------|

(Never I asked of you......)  #1   (2:26)

Gb------------------------------------------------------------------------------------------|
Db------------------------------------------------------------------------------------------|
Ab—5---5-3----------------------3—5-3-------------------------5---5-3---------------------3-|
Eb-----------5-3---3-3—3h5-3-------------5-1---1-1-1h3-1p0------------5-3---3-3---3h5-3-----|

Gb-------------------------------------|
Db-------------------------------------|
Ab—5-3---------------------------------|
Eb----------5-1---1-1-1-1h3-1----------|p0—

(Never I asked of you...) (2:40)  the second time    #2

Gb
Db
Ab—5---5-3------------------------------3—3------------------------------------------------|
Eb---------------5-3---3-3—3h5—3------------5-3-1---1-1—1h3-1  (But you gave me...) (2:46--|


Gb---------------------------------------------------------------------------------------------|
Db---------------------------------------------------------------------------------------------|
Ab—5---5-3----------------------------3—5-3------------------------------------5-(5)3—1--------|
Eb----------------5-3---3-3—3h5-3-----------------5-3-1—1-1-1-1-1h3-1------------------3—53/5--|

                                                     (3:03)
Gb--------------------------------------------------7---------------------------------------|
Db---------------------------------------------7---------7-------------------------5h7------|
Ab--------------------5/7—5—5-----------------------------53----0---5h7-----------5h7----5--|
Eb---5-5—5—5--------------------------------------------------------------------------------|

(for her son unspoken help me be.......)

Gb-------------7------------------------------------------------------------------7-------------|
Db--------7---------7-------------------7---5-------------------------------7---------7---------|
Ab-----------------------53-----0---------------7—6—5----------------------------------53----0--|
Eb----------------------------------------------------------------------------------------------|

(need your arms........)

Gb-----------------------7--------------------------|
Db------------------7----------7--------------------|
Ab----5-------------------------------53----0-------|
Eb--------------------------------------------------|

(3:35)
Gb---------------------------------------------------------------------------------------------------------|
Db-----------5---------------------------------------------------------5-----------------------------------|
Ab----------------------------------------5---3-------------------------------------------------------5—3--|
Eb----3-----------3---3-3-3—3h5-----------------5----3—3------------3------3-3-3---3h5-------------5-------|

Gb------------------------------------------------------------------------------------------------------------|
Db-----------------5—5------------------------------------------------------------------------7-------7----7--|
Ab----------------------------------------------------------5-----3----31-------------------------------------|
Eb---3—3-3------------------3----3-3-3-3---3h5-----------------------------3—53/5---------5------5------------|

                                             (3:59)
Gb--------------------------------------------------------------------------------------|
Db--------------------------------------------------------------------------------------|
Ab------------------3-4—5---5-3—3-0—0-0----5---5-5-5-5-5-5---5-5-5—5-7—5---5-5-3-3-0-0--|
Eb---3—5----3---------------------------------------------------------------------------|


Gb-------------------------------------------------------------------------------------------5h7----5-----5-------|
Db-------------------------------------------------------------------------------------------------------7-----7--|
Ab---5---5-5-5-5-5-5---5-5-5—5-7---5—5—5-3—3—0—0----5—5-5-5-5-----------------------------------------------------|
Eb----------------------------------------------------------------------------------------------------------------|

Gb---5---------------------------------------7—7-7-7-7---7----7-7-7----7/9p7------------------------------------|
Db-------7----------------------------------7—7-7-7-7---7----7-7-7--------------7-------------------------------|
Ab-------------5—5—3----3-3-0-0-0----5-----------------------------------------------5—3—31---------------------|
Eb-----------------------------------------------------------------------------------------------------------3--|

Gb-----------------------------------------------------|
Db-------------7—7-7-7---------------------------------|
Ab--------------------------------------------2-3--4---|
Eb---53/5-------------------5---3-4-5------------------|


(4:38)
After this play #1

Thorn within


  HI-HAT
|-----------|------------------------------|
|-----------|------------------------------|
|-----------|------------------------------|
|-----------|--5----(5)--5-----5----(5)--5-|

  HALF TIME FEEL
|--------------------------------------------------------------------|
|--------------------------------------------------------------------|
|--------------------------------------------------------------------|
|-5---5-5-5-5----5-5--5----5-5-5-0-3-0--3/5--5-5-5-5---5-5--5--5-5-5-|

END HALF TIME FEEL
-------------|
-------------|
-------------|
-0--3--0-----|

  BASS FIG 1                              END FIG 1
|--------------------------------------------------------|
|--------------------------------------------------------|
|--------------------------------------------------------| 3x's
|-2-2-0-2-2-0-2-2-0-2-2-0-2-2-0-2-0-2-2-2-2-0-3--3--2--0-|

|-----------------------------------------------|
|-----------------------------------------------|
|----4---3----2-(2)--7--(7)-(7)-(7)-(7)---------|
|-2----2----2--------0--(0)-(0)-(0)-(0)-----0-3-|

  1,2 VERSES
|-----------------------------------------------------------------------|
|----------7------------------------------9-----------------------------|
|-----------------------------------------------------------------------|
|-3/5---5-----5--5---5-5-5-0-5-0-5/7--7-7----7--(7)--X-7-7/8-73--3------|

------------------------------------------------------------------------|
--5-----54----------4---4----------9----------------4-------------7-----|
------------------------------------------------------------------------|
-----3-------2--2-2----2----2/7-7-7---7-7-------------------------------|

ronnie

INTRO  GUITAR              BASS FIG 1
|-------------------------|----------------------------|
|-------------------------|----------------------------|
|-------------------------|----------------------------|
|-------------------0--3--|5---X-5-----X-5-----X-5---3-|
                                                       END BASS FIG 1
|----------------------------------------------------------------------|
|----------------------------------------------------------------------|
|----------------------3---------------------------3--3--3--5--5-----3-|
|--5---X-5---X-5--X-5-----5--X-5--X-5--0--3--4---5---------------------|

 BASS FIG 2                                          END BASS FIG 2
|--------------------------------------------|---|---------------------|
|---7---7-7---7---0-2-----7-7---7-7---7---0-2|---|---------------------|
|0---0-----0---0-----3P0-----0-----0---0-----|---|-3-2-----------3H5---|
|--------------------------------------------|---|-----0-1-3-X-X-------|

  1ST VERSE
|----------------------------------------------------------------------|
|------------------------------------------------------------------5---|
|--------------------------------------------------------5---5--7------|
|---0---0--0----0--0----X-0----0---0---0--0-0-0----0-0-0---------------|

|----------------------------------------------------------------|
|--------------------------------------------5H7P----------------|
|--7--------------------------------------7-------5--5-----0--3--|
|-------0---0-0---X-0---0--0--0-0-0-0---0-0----------------------|

  BASS FILL 1                                     END FILL 1
|---------------------------------------------------------------|
|-----7-----7--7-----7-----0--2-----7--7----7-7-----------------|
|--0-----0--------0-----0-------3P0------0------0---------------|
|--------------------------------------------------0--3---3---2-|

  2ND VERSE W/ BASS FIG 3

|--------------------------------------------------------------|
|--------------------------------------------------------------|
|--3H5-5-5-5-5-5-5-5-5-5--5--3H5-5P3-5-5-5-5-5-5-5H3-3-3-3-3-2-|
|--------------------------------------------------------------|

 CHORUS W/ BASS FIG 1  2X's
 W/ FILL 2
 W/FIG 2

 3RD VERSE W/ BASS FIG 3
 W FILL 1

 4TH VERSE W/ BASS FIG 3

|-----------------------------------------------------------------------|
|--------------/5----4--------------------------------------------------|
|-----------------------5----5--5-5H7-5-5-5-5-5-5-5-5-5-5-5--5-5--5-5-5-|
|---0-0-0-0-0-----------------------------------------------------------|

-----------------------------|  |----------|
-----------------------------|  |----------|
--5-5-5-5-5-5-5-53-3--3-3-2-|  |--3--------|
-----------------------------|  |----------|

|---------------------------------------------------------------|
|--------7--7-7--------7-7-7-7---------7--7-7-----------------7-|
|-0--0-0--------0--0-0----------0--0-0--------0-0-0-0-0-0-0-0---|
|---------------------------------------------------------------|

|------------------------------------------------------------|
|---(7)--------7--7-7---7P5----------------------------------|
|-----------0---------------7--5-----------------------------|
|--------------------------------5-5--5-------0-0-3-3-4-5----|

|------------------------------------------------------------------|
|------------------------------------------------------------------|
|------------------------------------------------------------------|
|-5-----------0---1/2-3-4--5---5--5--53--3--3--3--2--0--0--3/5-----|

|---------------------------------------------------------------------|
|---------------------------------------------------------------------|
|---------------------------------------------------------------------|
|---5------------------0---12--3--4--5--------------0--0--1/2-3-4-----|

|------------------------------------------------------------------|
|------------------------------------------------------------------|
|---------------------------------------3--3-3-3H5--5-5-5-3--------|
|----5------------0--1/2--3-4--5---3H5---------------------5--5----|

|------------------------------------------------------|
|------------------------------------------------------|
|------------------------------------------------------|
|-5-------------0-0-1/2-3-4-5-----------0--1/2-3-4-----|

|-------------------------------------------------------------|
|-------------------------------------------------------------|
|-------------------------------------------------------------|
|--5-------------0---1/2-3-4--5--5--3--3--3--2--2--0--3--4----|

 CHORUS W/BASS FIG 1 2X's
 W/BASS FILL2                OUTRO W/ BASS FIG 2 3X's
                              W/ BASS FIG 2

|----------------------------------------|
|----------------------------------------|
|----3----2----------------5---------(5)-|
|--------------0--1--3-------------------|

the outlaw torn


  BASS FIG 1
|-------------------------------------------------------------------|
|-------------------------------------------------------------------|
|-5--7--------7-----7-----5--7--------7-----7-----9--5-5---5-5-5-5--|
|-------0--0--0--0--0--0----------0-0-0--0--0--0--------------------|

----------------------------------------------------|
----------------------------------------------------|
-5--------5-------9---5--5---5-5-5-5--5-----------5-|
---0-3-2-----0---------------------------0--3--0----|
 BASS FIG 2
|------------------------------------------------------------|
|--------2----------------------------2----------------------|
|------------------------------------------------------------|6X's
|-0--3------3-2-3--3---5---3--3---3------3P2-3-2-3--3--3---3-|
 BASS FIG 3
|----------------------------------------------------------------|
|----------------------------------------------------------------|
|-----------5--------------5-----------------9-------------5-----|
|-5-9-9-9-9----9-7-9-9-9-9-----7--5--7-7-7-7---9-7-9-7-9-7---5-0-|
                                          END BASS FIG 3
--------------------------------------------------------|
--------------------------------------------------------|
---------3------------5---------------------------------|
-5-5-5-5----5-3-5-3-3----5-3--5-5-5-5-5--5-5-5--5-5-3-2-|

  CHORUS W/ BASS FIG 1 3X's

2 verse w/ bass fig 2 4x's

|---------------------------------------------------------------------|
|--------------------------5-5----------------------------------------|
|---------7--5-5-7---7-7-7-----5-5-5-5-5-5-5--9---5--5--5-5-5-------5-|
|-5-7-0-0-0--------0------------------------------------------0-3-2---|

|-----------------------------------------------------------------|
|-----------------------------------------------------------------|
|---------5--5----5-5-5-5-5--7-7-7-7--9--5--5-5-5-5-5-5-----------|
|-5-7-0-0-0--0--0---------0-----------------------------0-3-2-5-0-|

|-------------------------------------------------------------|
|-7--9--------------------------------------------------------|
|-5--7----------3---------------------------------------------|
|-------0-0-0-0---5---3-5-5-5-0--3-5-5-5-5-5-5-0-3--2-3-3-3-0-|
 BRIDGE
|-----------------------------------------------------------------|
|-7--9------------------------------------------------------------|
|-5--7----------5-------------------------------------------------|
|-------0-0-0-0----5---3-5-5-5-5-0--3-5-5-5-5--5-0-3H5------2-2-2-|

|-------------------------------------------------------------------|
|-7--9--------------------------------------------------------------|
|-5--7-----------5--------------------------------------------------|
|-------0-0-0-0----5---3-5-5-5-5-0--3-5-5-5-5-5-5-0-5-3---2-3-3-3-0-|
                                                                END FIG4
|----------------------------------------------------------------------|
|-7--9-----------------------------------------------------------------|
|-5--7-----------5-----------------------------------------------------|
|--------0-0-0-0----5---3-5-5-5-0-3-5-5-5-5--5-5-3H5--3-3-3-3-3-2-2-2-2|

  1. INTERLUDE W/ FIG 4 2X's   2. W/ FIG 2 2X's  W/ FIG 3

     3. GUITAR SOLO W/ FIG 4      4. OUTRO W/ FIG 4 2X's

|-------------------------------------------------------------------|
|-------------------------------------------------------------------|
|-------------------------------------------------------------------|
|-0--0--0--1--1---1---2---2---2---3---3---3---0---0---0----1--1---1-|

|----------------------------------------------------------------------|
|----------------------------------------------------------------------|
|----------------------------------------------------------------------|
|-2---2---2---3---3---3---0---0-0-0---1--1--1--1--2--2--2--2--3-3-3-3-3|

|--------------------------------------------------------------------|
|--------------------------------------------------------------------|
|--------------------------------------------------------------------|
|-0----0----0----1----1----1----1---2---2---2---2---3----3----3----3-|

|----------------------------------------------------------------------|
|----------------------------------------------------------------------|
|----------------------------------------------------------------------|
|-0--0-0-0-0-0-0--0-0-0-0-1-1-1-1-1-1-1-1-1-1-1-1-1--2-2-2-2-2-2-2-2-2-|

-------------------------|
-------------------------|
-------------------------|REPEAT AND FADE
-3-3-3-3-3-3-3-3-3-3-3-3-|

the guys who tabbed it
ain't my bitch- peter klein
2x4- chris grammenos
the house that jack built- adam fultz
until it sleeps- travis grady
king nothing- matt hilferty
hero of the day- eros fratini
bleeding me- steve gorenberg/eros fratini
cure- steve gorenberg
poor twisted me- steve gorenberg
wasting my hate- chris papaspyru
mama said- hoopedoo70
thorn within- steve gorenberg
ronnie- steve gorenberg
the outlaw torn- peter klein

the guy who put all this shit together
big tommy p

get loaded guys...
comments
We did not receive enough feedback on this tab! Please rate:
1 2 3 4 5
I want to post or [tab]
guest
You may want to rate the tab now too:
select rating
Please do not post tabs as comments. Select "correction" instead!