Oops, an error
Loading. Please wait.

Load Tab

ver2
ver2

Album

More versions @911Tabs.com
7,921 views 12 this week
no commentswrite comment
1 2 3 4 5
excellent!
x 4
add to favorites launch autoscroll
font size
0
reset
Autoscroll
+/-
esc
set tempo
stop
Contributor
WARNING: You are trying to view
                                    content from Ultimate-Guitar.com
                                    in an unauthorized application,
                                    which is prohibited.

                                    Please use an official Ultimate
                                    Guitar Tabs application for iPhone,
                                    iPad or Android to access legitimate
                                    chords, guitar, bass, and drum tabs
                                    from Ultimate-Guitar.com database.

                                    Type "ultimate guitar tabs" in Apple
                                    App Store's or Android Market's
                                    search to find the application.
LOAD
1.Ain't My Bitch
2.2X4
3.The House Jack Built
4.Until It Sleeps
5.King Nothing
6.Hero Of The Day
7.Bleeding Me
8.Cure
9.Poor Twisted Me
10.Wasting My Hate
11.Mama Said
12.Thorn Within
13.Ronnie
14.The Outlaw Torn






1.Ain't My Bitch

(INTRO AND VERSE)
  N.C                                              G
E -X------------X-------------X---------------------------------------------|
B -X------------X-------------X---------------------------------------------|
G -X------------X-------------X---------------------------------------------|
D -X------------X-------5b6---X--------------------5------------------------|
A -X--5-7-7-7-7-X-5-7-7-----7-X-5-7-7-7--7-7-7-----5------------------------|
E -X--0-0-0-0-0-X-0-0-0-----0-X-0-0-0-0--0-0-0-----3------------------------|
   Outta My Way   Outta My Day  Outta........ Etc...

(FILL1)
  N.C    N.C     3x's
E -----|-------------------|-------|
B -----|-------------------|-------|
G -----|-5---7---5b6-------|-5---5-|
D -5-7-|---7---7-----7-5-7-|---7---|
A -----|-------------------|-------|
E -----|-------------------|-------|

(FILL1)
  N.C    N.C     3x's
E -------|----------------------------|----------|
B -------|----------------------------|----------|
G -------|-12----14----12b13----------|-12----12-|
D -12-14-|----14----14-------14-12-14-|----14----|
A -------|----------------------------|----------|
E -------|----------------------------|----------|

(CHORUS)
   B5       A5       G5         F#5 F5 Em5
E ----0--------0--------0-----|-----------|
B ------0--------0--------0---|-----------|
G -4--------2-----------------|-----------|
D -4--------2--------5--------|--4--3--2--|
A -2--------0--------5--------|--4--3--2--|
E -------------------3--------|--2--1--0--|
                                        
2.2X4

(Intro - R1)
E | -||:- - - - - - - - - - - - - - - - - - - - - - - - :||
B | -||:- - - - - - - - - - - - - - - - - - - - - - - - :||
G | -||:- - - - - - - - - - - - - - - - - - - - - - - - :||
D | 2||:2 5~7 8 - - 2 5~7 8 - - 2 5~7 2 - - 2 5~7 2 - - :||
A | 2||:2 5~7 8 - - 2 5~7 8 - - 2 5~7 2 - - 2 5~7 2 - - :||
E | 0||:0 3~5 6 - - 0 3~5 6 - - 0 3~5 0 - - 0 3~5 0 - - :||

  (R2)
E |  ||:- - - - - - - - - - - - - - - - - - - - - - - - :||
B |  ||:- - - - - - - - - - - - - - - - - - - - - - - - :||
G |  ||:- - - - - - - - 9 - - - - - 9 - - - - - - - - - :||
D |  ||:2 - 2 5 - 2 7~8 9 - - - 7~8 9 - - - 8 - - 7 - 5 :||
A |  ||:2 - 2 5 - 2 7~8 7 - - - 7~8 7 - - - 8 - - 7 - 5 :||
E |  ||:0 - 0 3 - 0 5~6 - - - 0 5~6 - - - 0 6 - 0 5 - 3 :||

(R3w/R2 - Played with wah and semi-artificial harmonics)
E |  ||:- - - - - - - - - - - - - - - - - - - - - - - - :||
B |  ||:- - - - - - - - - - - - - - - - - - - - - - - - :||
G |  ||:- - - - - - - - - - - - - - - - - - - - - - - - :||
D |  ||:- - - - - - - - 9 - - - - - 9 - - - - - - - - - :||
A |  ||:- - - 5 - - 7~8 - - - - 7~8 - - - - 8 - - 7 - 5 :||
E |  ||:7 - 7 - - 7 - - - - - 7 - - - - - 7 - - 7 - - - :||

  (Verses - R4)
E |  ||:- - - - - - - - - - - - - - - - - - - - - - - - :||
B |  ||:- - - - - - - - - - - - - - - - - - - - - - - - :||
G |  ||:- - - - - - - - - - - - - - - - - - - - - - - - :||
D |  ||:2 - 2 5 - 2 7 - 2 - - 8~7 - 5 - - 8~7 - 5 - - - :||
A |  ||:2 - 2 5 - 2 7 - 2 - - 8~7 - 5 - - 8~7 - 5 - - - :||
E |  ||:0 - 0 3 - 0 5 - 0 - - 6~5 - 3 - - 6~5 - 3 - - - :||

(Retribution - R5)
E | -||:- - - - - - - - - - - - - - - - - - - - - - - - :||
B | -||:- - - - - - - - - - - - - - - - - - - - - - - - :||
G | -||:- - - - - - - - - - - - - - - - - - - - - - - - :||
D | 2||:2 5~7 8 - - - - - - - - 2 5~7 2 - - - - - - - - :||
A | 2||:2 5~7 8 - - - - - - - - 2 5~7 2 - - - - - - - - :||
E | 0||:0 3~5 6 - - - - - - - - 0 3~5 0 - - - - - - - - :||

  (Chorus - R1)
E | -||:- - - - - - - - - - - - - - - - - - - - - - - - :||
B | -||:- - - - - - - - - - - - - - - - - - - - - - - - :||
G | -||:- - - - - - - - - - - - - - - - - - - - - - - - :||
D | 2||:2 5~7 8 - - 2 5~7 8 - - 2 5~7 2 - - 2 5~7 2 - - :||
A | 2||:2 5~7 8 - - 2 5~7 8 - - 2 5~7 2 - - 2 5~7 2 - - :||
E | 0||:0 3~5 6 - - 0 3~5 6 - - 0 3~5 0 - - 0 3~5 0 - - :||

(Solo - S1w/wah)
E | -|| - - - - - - - -12 - - - - - - - - - - - - - - -  ||
B | -|| -15- -15- - - - - 12- - - - - - - - - - - - - -  ||
G | -|| -14- -14/ - - - - - -14-12- - 12-14^12-14 - -12  ||
D | -|| - - - - - - - - - - - - - -14 - - - - - - 14- -  ||
A | -|| - - - - - - - - - - - - - - - - - - - - - - - -  ||
E | -|| - - - - - - - - - - - - - - - - - - - - - - - -  ||
  (Solo - S1w/wah)
E | -|| - - - - - - - - - - - - - - - - - - - - - - - -  ||
B | -|| -15/- - - - - - - - - - - - - - - - - - - - - -  ||
G | -|| - - 16/^^^^^^^14^12 14- - 12-14^12- - - - - - -  ||
D | -|| - - - - - - - - - - - -14 - - - - -14 - - - - -  ||
A | -|| - - - - - - - - - - - - - - - - - - - - - - - -  ||
E | -|| - - - - - - - - - - - - - - - - - - - - - - - -  ||

(Solo - S1w/wah)
E | -|| - - - - - - - - - - - - - - - - - - - - - - - -  ||
B | -|| - - - - - - - - - - - - - - - - - - - - - - - -  ||
G | -|| - - - - - - - - - - - - - - - - - - - - - - - -  ||
D | -|| - - - - - - - - - - - - - - 14-15-17- - - - - -  ||
A | -|| - - - - - 12-14-15-14-15-17 - - - - - - - - - -  ||
E | -|| -12 13-15 - - - - - - - - - - - - - - - - - - -  ||

  (Solo - S1w/wah)
E | -|| -19P15- - 19P15 - -19P15-19P15- - 19P15 - -19P15 ||
B | -|| - - - -17 - - - 17- - - - - - -17 - - - 17- - -  ||
G | -|| - - - - - - - - - - - - - - - - - - - - - - - -  ||
D | -|| - - - - - - - - - - - - - - - - - - - - - - - -  ||
A | -|| - - - - - - - - - - - - - - - - - - - - - - - -  ||
E | -|| - - - - - - - - - - - - - - - - - - - - - - - -  ||

(Solo - S1w/wah)
E | -|| -19P15- - 19P15 - -19P15-19P15- - 19P15 - -19P15 ||
B | -|| - - - -17 - - - 17- - - - - - -17 - - - 17- - -  ||
G | -|| - - - - - - - - - - - - - - - - - - - - - - - -  ||
D | -|| - - - - - - - - - - - - - - - - - - - - - - - -  ||
A | -|| - - - - - - - - - - - - - - - - - - - - - - - -  ||
E | -|| - - - - - - - - - - - - - - - - - - - - - - - -  ||

(Solo - S1w/wah)
E | -|| -19^17-15 17-15 - -15 - - - - - - - - - - - - -  ||
B | -|| - - - - - - - - 19- - 19-17 19-15 15/ 15/15/15/  ||
G | -|| - - - - - - - - - - - - - - - - - - - - - - - -  ||
D | -|| - - - - - - - - - - - - - - - - - - - - - - - -  ||
A | -|| - - - - - - - - - - - - - - - - - - - - - - - -  ||
E | -|| - - - - - - - - - - - - - - - - - - - - - - - -  ||

  (Interlude - R6)
E | |- - - - - - - - - - - - - - - - - - - - - - - - - - - - - - - - -|
B | |- - - - - - - - - - - - - - - - - - - - - - - - - - - - - - - - -|
G | |- - - - - - - - - - - - - - - - - - - - - - - - - - - - - - - - -|
D | |2 - - - 5 - - - 7 - - - 3 - 3 3 3 3 3 3 3 3 3 3 3 3 3 3 3 - 3 - 3|
A | |2 - - - 5 - - - 7 - - - 3 - 3 3 3 3 3 3 3 3 3 3 3 3 3 3 3 - 3 - 3|
E | |0 - - - 3 - - - 5 - - - 1 - 1 1 1 1 1 1 1 1 1 1 1 1 1 1 1 - 1 - 1|

(Interlude - F1w/R6)
E | | - - - - - - - - - - - - - - - - - - - - - - - - - - - - - - - - |
B | | - - - - - - - - - - - - - - - - - - - - - - - - - - - - - - - - |
G | |9- - - - 9 - - - 9 - - - - - - - - - - - - - - - - - - - - - - - |
D | | -9- - - - 9 - - - 9 - - - - - - - - - - - - - - - - - - - - - - |
A | | - -12 10- - 12-10 - 12-10 - - - - - - - - - - - - - - - - - - - |
E | | - - - - - - - - - - - - -\- - - - - - - - - - - - - - - - - - - |

  (R7)
E | -||: - - - - - - - - - - - - - - - - :||
B | -||: - - - - - - - - - - - - - - - - :||
G | -||: - - - - - - - - - - - - - - - - :||
D | -||: 2 - - - 5 - - - 7 - - - 5 - - - :||
A | -||: 2 - - - 5 - - - 7 - - - 5 - - - :||
E | -||: 0 - - - 3 - - - 5 - - - 3 - - - :||

(Solo - S2w/wah)
E | -|| - - - - - - - - - - - - - - - - - - - - - - - - - - ||
B | -|| 15- - - - - - - - - - - - - - - - - - - - - - - - - ||
G | -|| 14/ -14/ 14 12- 14-12 -14-12 11 - 12-11 - - - - - - ||
D | -|| - - - - - - - - - - - - - - - - - - - - -14 14H16P14||
A | -|| - - - - - - - - - - - - - - - - - - - - - - - - - - ||
E | -|| - - - - - - - - - - - - - - - - - - - - - - - - - - ||

  (Solo - S2w/wah)
E | -|| - - - - - - - - - - - - - - - - - - - - - - - -  ||
B | -|| - - - - - - - - - - - - - - - - - - - - - - - -  ||
G | -|| - - - - - - - - - - - - - - - - - - - - - - - -  ||
D | -|| 12-14-12- - - - - - - - - - - - - - - - - - - -  ||
A | -|| - - - - - 12-14 12- - 12-14-12- - - - - - - - -  ||
E | -|| - - - - - - - - - - - - - - - -15 14-12 10 10~12 ||

(Solo - S2w/wah)
E | -|| - - - - - - - - - - - - - - - - - - - - - 12- -  ||
B | -|| 15 15 15-15 - - - 15-15-15- - - - - 15/15/- 15 12||
G | -|| 14/14/14/14 12 14 14/14/14-12 14- - - - - - - -  ||
D | -|| - - - - - - - - - - - - - - - - - - - - - - - -  ||
A | -|| - - - - - - - - - - - - - - - - - - - - - - - -  ||
E | -|| - - - - - - - - - - - - - - - - - - - - - - - -  ||

  (Solo - S2w/wah)
E | -|| - - - - - - - - - - - - -12 12 12 - 12-15/15 12  ||
B | -|| - - - - - - - - - - - 15- - - - - 15- - - - - -  ||
G | -|| 14/12 14- - - - - - - - - - - - - - - - - - - -  ||
D | -|| - - - - - 12~14 12- - - - - - - - - - - - - - -  ||
A | -|| - - - - - - - - - - - - - - - - - - - - - - - -  ||
E | -|| - - - - - - - - - - - - - - - - - - - - - - - -  ||

(Solo - S2w/wah)
E | -|| 12 15 12-15 17/-15-  ||
B | -|| - - - - - - - - - -  ||
G | -|| - - - - - - - - - -  ||
D | -|| - - - - - - - - - -  ||
A | -|| - - - - - - - - - -  ||
E | -|| - - - - - - - - - -  ||

  (Solo - S3w/wah)
E | -|| - - - - - - - - - - - - - - - - - - - - - - - -  ||
B | -|| 15  15- -12H15P12 - - - - - - - - - - - - - - -  ||
G | -|| 14/ 14/ - - - - - -12H14P12 - -12H14P12 11- - -  ||
D | -|| - - - - - - - - - - - - - - - - - - - - - - - -  ||
A | -|| - - - - - - - - - - - - - - - - - - - - - - - -  ||
E | -|| - - - - - - - - - - - - - - - - - - - - - - - -  ||

 (Solo - S3w/wah)
E | -|| - - - - - - - - - - - - - - - - - - - - - - - -  ||
B | -|| - - - - - - - - - - - - - - - - - - - - - - - -  ||
G | -|| -12-11H12P11- 12-11 - -12 - - - - - - - - - - -  ||
D | -|| - - - - - - - - - - 14- - 12- - - - - - - - - -  ||
A | -|| - - - - - - - - - - - - - - -12 12~14 - 14 141414||
E | -|| - - - - - - - - - - - - - - - - - - - - - - - -  ||

   (Solo - S3w/wah)
E | -|| - - - - - - - - - - - - - - - - - - - - - - - - - - -  ||
B | -|| - - - - - - - - - - - - - - - - - - - - - - - - - - -  ||
G | -|| - - - - - - - - - - - - - - - 121212121212121212121212 ||
D | -|| - - - - - - - - - - - - 12 14 - - - - - - - - - - - -  ||
A | -|| -12 -15-1515-12 151515- - - - - - - - - - - - - - - -  ||
E | -|| - - - - - - - - - - - - - - - - - - - - - - - - - - -  ||

(Solo - S3w/wah)
E | -|| - - - - - - - - -12 - - - - - - - - - - - - - -  ||
B | -|| -15/-15^12- - -12 - 15-12 - -12 - - - - - - - -  ||
G | -|| - - - - - - 14/ - - - - - 14- - - - 14- - 12- -  ||
D | -|| - - - - - - - - - - - - - - - - 14- - -14 - - -  ||
A | -|| - - - - - - - - - - - - - - - - - - - - - - - -  ||
E | -|| - - - - - - - - - - - - - - - - - - - - - - - -  ||

  (Solo - S3w/wah)
E | -|| - 17/ 17/17/17^15- - 15 - - - - - - - - - - -12  ||
B | -|| - - - - - - - - - 17- - - - 15/ 15^12 - - -12 -  ||
G | -|| - - - - - - - - - - - - - - - - - - - - 14/ - -  ||
D | -|| - - - - - - - - - - - - - - - - - - - - - - - -  ||
A | -|| - - - - - - - - - - - - - - - - - - - - - - - -  ||
E | -|| - - - - - - - - - - - - - - - - - - - - - - - -  ||

(Solo - S3w/wah)
E | -|| - 15 12 12H15P12- - -12 - - - - - - -  ||
B | -|| - - - - - - - - - 15- - 12-15 12 15 -  ||
G | -|| - - - - - - - - - - - - - - - - - - -  ||
D | -|| - - - - - - - - - - - - - - - - - - -  ||
A | -|| - - - - - - - - - - - - - - - - - - -  ||
E | -|| - - - - - - - - - - - - - - - - - - -  ||

  (Solo - S3w/wah)
E | -|| - - - - - 14- - 14-19 - -19-22/ - - -  ||
B | -|| -12 - -12 - -15 - - - 20- - - - - - -  ||
G | -|| - - 12- - - - - - - - - - - - - - - -  ||
D | -|| - - - - - - - - - - - - - - - - - - -  ||
A | -|| - - - - - - - - - - - - - - - - - - -  ||
E | -|| - - - - - - - - - - - - - - - - - - -  ||

3.The House Jack Built

Intro:
(1)
|----------------|
|----------------|
|----------------|
|--------3-----5-|
|------3-----5---|
|---1/----3------|
(2)
|---------|-------------------------|
|---------|-------------------------|
|--3/5--7-|---3/5--7--10--12--5--7--|
|---------|-------------------------|
|--1/3--5-|---1/3--5---8--10--3--5--|
|---------|-------------------------|

Verse:
|--------------------------|----------------------|
|--------------------------|----------------------|
|--------------------------|---5--3h5p3p0--2B-----|
|---3--3--3--3--3--3--3--2-|----------------------|
|---3--3--3--3--3--3--3--2-|----------------------|
|---1--1--1--1--1--1--1--0-|----------------------|

|-------------------------------------------------------------------|
|-------------------------------------------------------------------|
|---3----------3-3-------3-3-----3----------3-3---3-3-------3-------|
|---3----------3-3-------3-3-----3----------3-3---3-3-------3-------|
|---1----------1-1-------1-1-----1----------1-1---1-1-------1-------|
|------0--0--0-------0-------0-0-----0--0--0-----0------0--0--------|

Chorus:
|-------------------------------------------------------------------|
|-------------------------------------------------------------------|
|-------------------5----7-----10-------12--------------------------|
|-------3-----5---5----7----10-------10--------5--5-5---------------|
|-----3-----5---3----5----8-------10---------3----3-3---------------|
|---1-----3---------------------------------------------------------|

|-------------------------------------------------------------------|
|-------------------------------------------------------------------|
|-------------------5----7------------------------------------------|
|-------3-----5---5----7----10B--8----------------------------------|
|-----3-----5---3----5-------8---8--8----8--8-----------------------|
|---1-----3-------------------------8----6--6-----------------------|

1st Solo:
|-----------------------------------------|
|---12-----------12----------12-------15--|
|---14B----------14B---------14B--12------|
|-----------------------------------------|
|-----------------------------------------|
|-----------------------------------------|

|---------------------------------|---------------------------------|
|---------------------------------|--13--13------15--15--15--15--15-|
|--16--14H16P14P12---------16B----|--14--14--12--12--12--12--12--12-|
|------------------16--14---------|---------------------------------|
|---------------------------------|---------------------------------|
|---------------------------------|---------------------------------|

Main Solo:
|-------------------------------------------------------------------|
|--12---------------------------------------------------------------|
|--12---------------12h14--------------------12--14--14B-14\--------|
|-------14~~~-14p12-------14~~~-14p12--14p12------------------------|
|-------------------------------------------------------------------|
|-------------------------------------------------------------------|

|----------12-------12---------12-------12----12----12----12----12--|
|-------11----11-------11---------11-------11----11----11----11---11|
|---/12----------12--------12--------12-----------------------------|
|-------------------------------------------------------------------|
|-------------------------------------------------------------------|
|-------------------------------------------------------------------|

|-------------------------------------------------------------------|
|----\--------------------------------------------------------------|
|----------12--15-----------12--12B-------------12--14--14B---------|
|------/14--------14~~~~-14--------------14--14----------------14\--|
|-------------------------------------------------------------------|
|-------------------------------------------------------------------|
                          
|----------------------------15B-|----------------|
|--------------------------------|----------------|
|---------------------9----------|--10h12--12B----|
|--------5--5/10---12---12B------|----------------|
|--/7~~~-------------------------|----------------|
|--------------------------------|----------------|

4.Until It Sleeps

Intro (Bass arranged for guitar):
|------------------------------|
|------------------------------|
|------------------------------|
|------------------------------|
|------32----------32----------|
|-5-5------3---5-5------0--1/5-|
pm............................

Verse:
|-----0------------------0~-|
|-------3--1--0----------1~-|
|----------------2--0----2~-|
|---2--------------------2~-|
|-0----------------------0~-|
|---------------------------|


Chorus
|---------------------------------|
|---------------------------------|
|---------------------------------|
|---------------------------------|
|-7-7-7-7-7-7-7-7-5-5-5-5-3-3-3-3-|
|-5-5-5-5-5-5-5-5-3-3-3-3-1-1-1-1-|
pm...............................

Bridge:
|-----0-------------------------0--------------------|
|-------3--1--0-------------------3--1---------------|
|----------------2--0----------------------0-----0---|
|---2-------------------------2------------0-----3---|
|-0------------------------0---------------2-----3---|
|----------------------0-3--------------3------1-----|

Post-Chorus:
|---------------------------------------------|
|---------------------------------------------|
|---------------------------------------------|
|-9-9-9-9-9-9-9-7-7-7-7-5-5-5-5-5-5-5-5-5-7-7-|
|-7-7-7-7-7-7-7-5-5-5-5-3-3-3-3-3-3-3-3-3-5-5-|
|---------------------------------------------|

Solo:
|-/5-5-5-5-5-5-5-5-8-8-8-7-7-7-3-3--13b-13b--12p11-p9--11--------7p5-|
|----------------------------------------------------------5h6-8-----|
|--------------------------------------------------------------------|
|--------------------------------------------------------------------|
|--------------------------------------------------------------------|
|--------------------------------------------------------------------|

|-------1-1-1-0-3-3/8-8-8-7-7-7-2-2--13b-13b--12p11-p9--11-------7p5-|
|-3-3-3----------------------------------------------------5h6-8-----|
|--------------------------------------------------------------------|
|--------------------------------------------------------------------|
|--------------------------------------------------------------------|
|--------------------------------------------------------------------|

Each of these bars played over the verse riff played by the second guitar
|------------------------|
|-------5--6--8--10--12b-|
|------------------------|
|------------------------|
|-0-0--------------------|
|------------------------|

|-------------------------|
|-------5--6--8--10--11b--|                                     
|-------------------------|
|-------------------------|
|-0-0---------------------| 
|-------------------------|

|-----------------------------------------------|
|-------5--6--8--10--12--13--15--17--18--19--20-|
|-----------------------------------------------|
|-----------------------------------------------|
|-0-0-------------------------------------------| 
|-----------------------------------------------|

Outro:
(Bass arranged for guitar):
|--------------------------|
|--------------------------|
|--------------------------|
|--------------------------|
|------32------------------|
|-5-5------3---5-5---1/3-1-|
pm........................
followed straight by
|--------5~-|
|--------5~-|
|--------x~-|
|--------x~-|
|---5----5~-|
|-5---5—-5~-|

5.King Nothing

Intro

Fill 1 (Gtr. 1) Fade in     Use Distortion and *Octaver
									end Fill 1
1|-----------------------------|----------------------------|
2|-17~~~~-17~~~~-17~~~~-17~~~~-|----------------------------|
3|-----------------------------|--------*--/----------------| Play 5x
4|-----------------------------|----------/-----------------|
5|-----------------------------|---------/--*---------------|
6|-----------------------------|----------------------------|

*Octaver doubles an octave below

w/Fill 1 (5x)
									 Full
1|-----------------------------|----------------------------|
2|-----------------------------|------------------------15b-|
3|-----------------------------|------------------------14b-|
4|-----------------------------|----------------------------|
5|-----------------------------|----------------------------|
6|-----------------------------|----------------------------|

		Full 
1|-----------------------------|----------------------------|
2|r15--------15b---------------|----------------------------|
3|r14--------14b---------------|----------------------------|
4|-----------------------------|----------------------------|
5|-----------------------------|-----------------------X--X-|
6|-----------------------------|-----------------------X--X-|

						    Full    Full
1|-----------------------------|----------------------------|
2|-----------------------------|----------------------------|
3|-----------------------------|----------------------------|
4|-----------------------------|---------7B----(7)b---------|
5|-7/--------------------------|----------------------------|
6|-7/--------------------------|----------------------------|

     Release bend to 1/2
1|-----------------------------|----------------------------|
2|-----------------------------|----------------------------|
3|-----------------------------|----------------------------|
4|--(7)---------------(7)\-----|----------------------------|
5|-----------------------------|----------------------------|
6|-----------------------------|----------------------------|

			1/4			 1/4	  |-Let Ring-|
1|-----------------------------|----------------------------|
2|-----------------------------|----------------------------|
3|-----------------------------|----------------------------|
4|----------------5b-----------|------5b-------8---7--------|
5|--5--6--7---/7-----7---------|---/7----7\-----------------|
6|--0--0--0--0-----------------|-0----------/6---5----------|

Rhy. Fig. 1 (w/Fill 1)

			  1/4			 1/4	  |-Let Ring-| (end fig.1)
1|-----------------------------|----------------------------|
2|-----------------------------|----------------------------|
3|*----------------------------|---------------------------*| Play 3x
4|*------------------5b--------|------5b-------8---7-------*|
5|-----5--6--7---/7-----7------|---/7----7\-----------------|
6|-0---0--0--0--0--------------|-0----------/6---5----------|

			  1/4 		 1/4    |-Let Ring-|
1|-----------------------------|----------------------------|
2|-----------------------------|----------------------------|
3|*----------------------------|---------------------------*| Play 3x
4|*------------------5b--------|------5b-------8---7-------*|
5|-----5--6--7---/7-----7------|---/7----7\-----------------|
6|-0---0--0--0--0--------------|-0----------/6---5----------|

(w/Rhy. Fig. 1)
	  1/4		     1/4
1|-----------------------------|----------------------------------|
2|-12--12b--------12--12b------|----------------------------------|
3|-12--12b--------12--12b------|----1214p12--1214p12--1214p12-----|
4|---------14~~~----------14~~~|(14)-------14-------14-------14---|
5|-----------------------------|----------------------------------|
6|-----------------------------|----------------------------------|

Rhy. Fig. 2

1|-----------------------------|----------------------------|
2|-----------------------------|----------------------------|
3|*----------------------------|--------*--/----------------|
4|*----------------------------|----------/-----------------|
5|--X--2--5--2------8--7-------|---------/--*---------------|
6|--X--0--3--0--/6--6--5--0----|----------------------------|
 Wish I may, Wish I might, have this wish I wish tonight
					  				end rhy fig 2
1|-----------------------------|----------------------------|
2|-----------------------------|----------------------------|
3|-----------------------------|----------------------------|
4|-----------------------------|----------------------------|
5|--X--2--5--2------8--7-------|--X--2--5--2------8--7--5---|
6|--X--0--3--0--/6--6--5--0----|--X--0--3--0--/6--6--5--3---|
			Are you satisfied?
*=Gtr 1 subtitute Rhy. Fill 1 (see end of tab)

w/Rhy. Fig. 2
	   1/4				   1/4
1|-----------------------------|----------------------------|
2|-----------------------------|----------------------------|
3|-9\---------------------9----|-9\---------------------9---|
4|-----------------------------|----------------------------|
5|-7\-----------/8--8--7--7----|-7\-----------/8--8--7--7---|
6|----0--3b--0--/6--6--5-------|----0--3b--0--/6--6--5------|
Dig for gold, dig for fame.	  You dig to make your name.
						   1/4
1|-----------------------------|----------------------------|
2|-----------------------------|----------------------------|
3|----------*--/---------------|-9\-------------------------|
4|------------/----------------|----------------------------|
5|-----------/--*--------------|-7\-----------/8--8--7--5---|
6|-----------------------------|----0--3b--0--/6--6--5--3---|
                          Are you pacified?

Half Time feel
Pre-Chorus
Rhy Fig 3
									end Rhy fig 3
1|-----------------------------|----------------------------|
2|-----------------------------|----------------------------|
3|-----------5~~~--------------|----------------------------|
4|----/7--7--------7--7--5-----|-(5)--7---------------------|
5|-0------------------0--0-----|-(0)--0-----6---------------|
6|-----------------------------|---------0--6---------------|
                   All the want you waste. 

Rhy Fill 2 (w/Rhy Fig 3)
				 Full			  1/2		   */*
1|-----------------------------|----------------------------|
2|-----------------------------|----------------------------|
3|-----------5~~~--7--5--7b----|-(7)--5--7--7b~~~-----------|
4|----/7--7--------------------|----------------------------|
5|-0---------------------------|----------------------------|
6|-----------------------------|----------------------12\---|
			All yhe things you've changed.
Chorus  (end Half time feel)

1|-----------------------------|----------------------------|
2|-----------------------------|----------------------------|
3|-----------------------------|-9--9--9--9--9--9--9--9-----|
4|-----------------------------|----------------------------|
5|-----------------------------|-7--7--7--7--7--7--7--7-----|
6|-0----0--0--0--0--0--0-------|-0--0--0--0--0--0--0--0-----|
       Then it all crashes down        and you break your crown

1|-----------------------------|----------------------------|
2|-----------------------------|----------------------------|
3|-9--9--9--9--9--9--9--9------|-9--9--9--9--9--9--9--9-----|
4|-----------------------------|----------------------------|
5|-7--7--7--7--7--7--7--7------|-7--7--7--7--7--7--7--7-----|
6|-0--0--0--0--0--0--0--0------|-0--0--0--0--0--0--0--0-----|
		and you point your finger but there's no one around

1|-----------------------------|----------------------------|
2|-----------------------------|----------------------------|
3|-9--9--9--9--9--9--9--9------|-9--9--9--9--9--9--9--9-----|
4|-----------------------------|----------------------------|
5|-7--7--7--7--7--7--7--7------|-7--7--7--7--7--7--7--7-----|
6|-0--0--0--0--0--0--0--0------|-0--0--0--0--0--0--0--0-----|
	Just want one thing.		Just to play the king

					  |-P.M.-----|		 To Coda
1|-----------------------------|----------------------------|
2|-----------------------------|----------------------------|
3|-9--9--9--9--9--9--9--9------|----------------------------|
4|-----------------------------|----------------------------|
5|-7--7--7--7--7--7--7--7------|-1--1--1--1--1--1--1--1-----|
6|-0--0--0--0--0--0--0--0------|-1--1--1--1--1--1--1--1-----|
	But the castle crumbled and your left with just a
/-------------------------------------------------------------
|1.
   Full  Full  Full  		  w/ Rhy fig 1 (4x)
1|-13----13----13--------------|----------------------------|
2|-16b---16b---16b-----16\-----|----------------------------|
3|-----------------------------|----------------------------|
4|-----------------------------|----------------------------|
5|-----------------------------|----------------------------|
6|-----------------------------|----------------------------|
	name.   Where's your crown,   King Nothing?
--------------------------------------------------------------

1|-----------------------------|----------------------------|
2|-----------------------------|----------------------------|
3|-----------------------------|----------------------------|
4|-----------------------------|----------------------------|
5|-----------------------------|----------------------------|
6|-----------------------------|----------------------------|

--------------------------------------------------------------
						  1/4   1/4
1|-----------------------------|----------------------------|
2|-----------------------------|-12-12b----12b--------------|
3|-----------------------------|-12-12b----12b--------------|
4|-----------------------------|--------14-----14-----------|
5|-----------------------------|----------------------------|
6|-----------------------------|----------------------------|
				Where's your crown?
--------------------------------------------------------------

1|-----------------------------|----------------------------|
2|-----------------------------|-12--12----12--12-----12----|
3|-1214p12---1214p12--1214p12--|-12--12----12--12-----12----|
4|--------14--------14-------14|--------14--------14--------|
5|-----------------------------|----------------------------|
6|-----------------------------|----------------------------|

--------------------------------\
   Full/1/2            Full/1/2 |
1|------------------------------|
2|-14b-----12--14--14--14b--14\-|
3|-14b-----12--14--14--14b--14\*|
4|-----------------------------*|
5|------------------------------|
6|------------------------------|

|--------------------------------
|2.
   Full Full Full
1|-13b--13b--13b---------------|
2|-16b--16b--16b----16\--------|
3|-----------------------------|
4|-----------------------------|
5|-----------------------------|
6|-----------------------------|
	name.    Where's your crown, King 
Guitar Solo
w/Rhy Fig 1 (4x)
with wah as filter and octaver

    Full				   Full
1|-12--------------------------|----------------------------|
2|-15b-------------------------|-11-------------------------|
3|-----------------------------|-13b------------------------|
4|-----------------------------|----------------------------|
5|-----------------------------|----------------------------|
6|-----------------------------|----------------------------|
		Nothing?						You're
   Full            Full  Full
1|-12--------------14----15----|----------------------------|
2|-15b-------------17b---18b---|--(18)\---------------/14---|
3|-----------------------------|----------------------------|
4|-----------------------------|----------------------------|
5|-----------------------------|----------------------------|
6|-----------------------------|----------------------------|
    nothing					Come on, where's your crown?
				     Full				     Full
1|-12-0-14-0-15-0-14-0----12-12-|-12-0-14-0-15-0-14-0---12-12-|
2|---------------------15----15b|---------------------15---15b|
3|------------------------------|-----------------------------|
4|------------------------------|-----------------------------|
5|------------------------------|-----------------------------|
6|------------------------------|-----------------------------|

	    Full        Full					    Full
1|15p12-0-12--15p12-0-12-------|12-0-14-0-15-0-14-0----12-12-|
2|--------15b---------15b------|--------------------15----15b|
3|-----------------------------|-----------------------------|
4|-----------------------------|-----------------------------|
5|-----------------------------|-----------------------------|
6|-----------------------------|-----------------------------|

w/Rhy Fig 3 (1.5x)

1|-17--17--17--20----------17--|----------------------------|
2|-----------------20--20------|-17--17--20-----------------|
3|-----------------------------|-------------19--19--19-----|
4|-----------------------------|----------------------------|
5|-----------------------------|----------------------------|
6|-----------------------------|----------------------------|

Gtr 1 substitute Rhy Fill 2     w/Rhy. Fill 3 (see end of tab)
						     Full     Full
1|-17--17--17--20---------17---|----------------------------|
2|-----------------20--20------|-17------17-------17--------|
3|-----------------------------|---------19b------19b-------|
4|-----------------------------|----------------------------|
5|-----------------------------|----------------------------|
6|-----------------------------|----------------------------|
								Huh!
w/Rhy Fig 2
   Full Full         Full         Full 
1|----------12-----------12-----------12-------|
2|-15b--15b----15p12-15b----15p12-15b----15p12-|
3|---------------------------------------------|
4|---------------------------------------------|
5|---------------------------------------------|
6|---------------------------------------------|

   Full                           
1|----------------------------------------------------------|
2|-----12-15p12----12h15p12----12---------------------------|
3|-14b----------14----------14----14-14p12----12h14-12~~~\--|
4|-----------------------------------------14---------------|
5|----------------------------------------------------------|
6|----------------------------------------------------------|

1|-----------------------------|
2|-12----14-14--15--14---------|
3|-12----14-14--15--14---------|
4|-----------------------------|
5|-----------------------------|
6|-----------------------------|

   Full                           Full
1|-12--12-15p12----12-15p12--------------------------------------------|
2|-15b----------15----------15p12-----12h15p12-------------------------|
3|--------------------------------14b----------14p12----12h14p12-14-12-|
4|---------------------------------------------------14----------------|
5|---------------------------------------------------------------------|
6|---------------------------------------------------------------------|

    1/2    1/2     1/2     1/2     w/Fill 1 & Rhy Fill 4 (see end of tab)
1|--------------------------------|-------------------------|
2|--------------------------------|-------------------------|
3|-14b-14--14b-14--14b-14--14b-12-|-------------------------|
4|--------------------------------|-14~~~~~~~~~~~~~~~~~~~~~-|
5|--------------------------------|-------------------------|
6|--------------------------------|-------------------------|

1|-----------------------------|-12-------------------12\---|
2|------------------------12---|-12-------------------12\---|
3|------------------------12---|----------------------------|
4|-(14)~~~~~~~~~~~~~~~~~~------|----------------------------|
5|-----------------------------|----------------------------|
6|-----------------------------|----------------------------|

				end solo
1|-\X--------------------------|----------------------------|
2|-\X--------------------------|----------------------------|
3|-----------------------------|----------------------------|
4|-----------------------------|----------------------------|
5|-----------------------------|----------------------------|
6|-----------------------------|----------------------------|
	
					  adlib with feedback next 10 bars
1|-----------------------------|----------------------------|
2|-----------------------------|----------------------------|
3|-----------------------------|----------------------------|
4|-----------------------------|----------------------------|
5|-----------------------------|----------------------------|
6|-----------------------------|----------------------------|

					  Bridge w/Fill 1(8x)

1|-----------------------------|----------------------------|
					I wish I may, 		I
1|-----------------------------|----------------------------|
	Wish	I   might		   have this wish I  wish
1|-----------------------------|----------------------------|
	tonight               I    want that star,	I
1|-----------------------------|----------------------------|
	want it    now.       I    want it  all and I don't care how.
1|-----------------------------|----------------------------|
2|-----------------------------|----------------------------|
3|-----------------------------|----------------------------|
4|--h2-------------------------|---h5-----------------------|
5|-----------------------------|----------------------------|
6|-----------------------------|----------------------------|
 |			Careful      | what you wish			| 
1|--------0--------------0-----|------------------0---------|
2|------------(3)/5------------|---3-----------------3/5----|
3|-----------------------------|----------------------------|
4|-----------------------------|----------------------------|
5|-----------------------------|----------------------------|
6|--0--------------------------|----------------------------|

1|-----------------------------|----------------------------|
2|-----------------------------|----------------------------|
3|-----------------------------|----------------------------|
4|--h4-------------------------|--h3------------------------|
5|-----------------------------|----------------------------|
6|-----------------------------|----------------------------|
 |   Careful	1/2		 | what you say       Careful |
1|-------------2---------------|-----------------0----------|
2|--2-------------2b-----(2)\--|-\1-------------------------|
3|-----------------------------|----------------------------|
4|-----------------------------|----------------------------|
5|-----------------------------|----------------------------|
6|-----------------------------|---------------------3---1--|

1|-----------------------------|----------------------------|
2|-----------------------------|----------------------------|
3|-----------------------------|----------------------------|
4|--h2-------------------------|--h5------------------------|
5|-----------------------------|----------------------------|
6|-----------------------------|----------------------------|
 |what you wish you may		 | regret it 	Careful	|
1|---------------3----------3--|----------------0---3----0--|
2|--------(3)/5-----(3)/5------|-(5)\3----------------------|
3|-----------------------------|-----------0----------------|
4|-----------------------------|----------------------------|
5|-----------------------------|----------------------------|
6|--0--------------------------|----------------------------|

									D.S. al Coda
									(goto the */*)
1|-----------------------------|----------------------------|
2|-----------------------------|----------------------------|
3|-----------------------------|----------------------------|
4|--h4-------------------------|--h7------------------------|
5|-----------------------------|----------------------------|
6|-----------------------------|-----------------------19\--|
 |	What you wish you just	 |  might get it			|
1|----------0------------------|--0----------0------0-------|
2|---------------2b-------2----|-------------1------1-------|
3|-----------------------------|----------------------------|
4|-----------------------------|----------------------------|
5|-----------------------------|----------------------------|
6|--2--------------------------|--------2-------------------|

CODA

   Full  Full  Full
1|-13----13----13--------------|----------------------------|
2|-16b---16b---16b-----16------|----------------------------|
3|-----------------------------|----------------------------|
4|-----------------------------|----------------------------|
5|-----------------------------|-2--------------------------|
6|-----------------------------|-0--------------------------|
   name. Where's your crown King	Nothing?

1|-----------------------------|----------------------------|
2|-----------------------------|----------------------------|
3|-----------------------------|----------------------------|
4|-----------------------------|----------------------------|
5|-(2)-------------------------|-(2)------------------------|
6|-(0)-------------------------|-(0)------------------------|


1|-----------------------------|
2|-----------------------------|
3|-----------------------------|
4|-----------------------------|
5|-(2)-------------------------|
6|-(0)-------------------------|
 		Nothing.

OUTRO
w/Rhy. Fig. 1 (Gtr 2 4x, Gtr. 3 3.5x)

1|-----------------------------|----------------------------|
2|----0--0---------0--0--------|---0--2p0---0-2-0---0-2-0---|
3|----0--0---------0--0--------|---0--2p0---0-2-0---0-2-0h1-|
4|----------2~~~---------2~~~--|-2--------2-------2---------|
5|-----------------------------|----------------------------|
6|-0---------------------------|----------------------------|
					   Mm,  no  you're just 
									Full
1|-----------------------------|----------------------------|
2|----0--0---------0--0--------|---0------------------------|
3|----0--0---------0--0--------|---0-0h2p0---0h2p0---4b-----|
4|----------2~~~---------2~~~--|-----------2-------2----5~~-|
5|-----------------------------|----------------------------|
6|-0---------------------------|----------------------------|
    nothing.			  Where's your crown   King
 								 Full
1|-----------------------------|----------------------------|
2|----0--0---------0--0--------|---0-2p0---2p0--------------|
3|----0--0---------0--0--------|---0-2p0---2p0---2b--2--0---|
4|----------2~~~---------2~~~--|---------2-----2------------|
5|-----------------------------|----------------------------|
6|-0---------------------------|----------------------------|
   Nothing                        No,   you're just
w/Rhy. Fill 5
							            Full
1|-----------------------------|----------------------------|
2|----0--0---------0--0--------|---0------------------------|
3|----0--0---------0--0--------|---0--0h2p0---0h2p0---4b----|
4|----------2~~~---------2~~~--|------------2-------2----5~~|
5|-----------------------------|----------------------------|
6|-0---------------------------|----------------------------|
nothing							Absolutly
Free Time

1|-----------------------------|----------------------------||
2|-----------------------------|----------------------------||
3|-----------------------------|----------------------------||
4|-----------------------------|----------------------------||
5|-----------------------------|----------------------------||
6|-----------------------------|----------------------------||
	nothing				Off to never never land....
End

Rhy. Fill 1

1|-----------------------------|
2|-----------------------------|
3|-----------------------9-----|
4|-----------------------------|
5|-X--2--5--2------8--7--7-----|
6|-X--0--3--0--/6--6--5--------|

Rhy. Fill 3

			  1/2
1|-----------------------------|
2|-----------------------------|
3|--(7)---5----7----7b---------|
4|--(5)---7--------------------|
5|--(0)---0---------6----------|
6|-------------0----6----------|

Rhy. Fill 4

	   \.5/ \.5/    				\.5/
1|-----------------------------|----------------------------|
2|-----------------------------|----------------------------|
3|-----------------------------|----------------------------|
4|-----------------------------|----------------------------|
5|-----------------------------|----------------------------|
6|-0---------------------------|-(0)------------------------|


1|-----------------------------|----------------------------|
2|-----------------------------|----------------------------|
3|-----------------------------|----------------------------|
4|-----------------------------|----------------------------|
5|-----------------------------|----------------------------|
6|-(0)-------------------------|-(0)---------*-*-*-*--x-x---|


1|-----------------------------|
2|-----------------------------|
3|-----------------------------|
4|-----------------------------|
5|-----------------------------|
6|-19\-------------------------|

Rhy. Fill 5

		    1/2             Free Time
1|-----------------------------|----------------------------|
2|-----------------------------|----------------------------|
3|-----------------------------|----------------------------|
4|--------5--7--7b---5--7------|-(7)/9~~~~~~~~~~~~~~~~~~~~~~|
5|----/7-----------------------|----------------------------|
6|-0---------------------------|----------------------------|

6.Hero Of The Day

Opening part

e:---------------------------------------------------------------------------|
B:-------------------------------------------------0-----0--------0--------0-|
G:----------------2--------2--------2--------2--------1-----1--------1-------|
D:-------------2--------2--------2--------2--------------------2--------2----|
A:----0-----0--------2--------4--------5-------------------------------------|
E:-2-----2--------------------------------------0----------------------------|

e:---------------------------------------------------------------------------|
B:-------------------------------------------------0-----0--------0--------0-|
G:----------------2--------2--------2--------2--------1-----1--------1-------|
D:-------------2--------2--------2--------2-----2--------------2--------2----|
A:----0-----0--------2--------4--------5-------------------------------------|
E:-2-----2-------------------------------------------------------------------|
e:----------------|
B:-2p0------------|
G:------2--1-/-2--|
D:----------------|
A:----------------|
E:----------------|

Distortion riff

e:----------------------------------------------------------------------|
B:----------------------------------------------------------------------|
G:--------2--------2--------2--------2----------------------------------|
D:-----2--------2--------2--------2--------4-h-6--6--6-----4-h-6--6--6--|
A:--0--------2--------4--------5-----------7---7--7--7-----7---7--7--7--|
E:--------------------------------------0---------------0---------------|

Fast Riff 

e:------------------------------------|
B:------------------------------------|
G:------------------------------------|
D:------------------------------------|
A:-----4--4--4--4--4--4--44--5--4--54-|
E:--0--2--2--2--2--2--2--22--3--2--32-|

solo:

e:----------------------------------------------------------------------|
B:-------------------10----------------10-15-14-14-13-------------------|
G:----11-9-11-9-11-9----11-9-11-9-11-9----------------------------------|
D:----------------------------------------------------------------------|
A:----------------------------------------------------------------------|
E:----------------------------------------------------------------------|

e:----------------------------------------------------------------------|
B:-------------------10----------------10-17-15-15-17-19-21-------------|
G:----11-9-11-9-11-9----11-9-11-9-11-9----------------------------------|
D:----------------------------------------------------------------------|
A:----------------------------------------------------------------------|
E:----------------------------------------------------------------------|

7.Bleeding Me




|--------------------------------------------------------------------|   
|--------------------------------------------------------------------|   
|--------------------------------------------------------------------|   
|--------5p0------------------5-------------5p0----------------------|   
|----/7-------7~~---7-------5----7~~----/7-------7~~-----7------4--2-|   
|-0--------------0-----0--5----------0----------------0-----0h5----3-|   
                                                                            
                                                                          
                                                                          
|--------------------------------------------------------------------|  
|--------------------------------------------------------------------|   
|--------------------------------------------------------------------|   
|--------5p0------------------5-------------5p0----------------------|   
|----/7-------7~~---7-------5----7~~----/7-------7/5-----5-----5-----|   
|-0--------------0-----0--5----------0----------------3----3-2---2-0-|   



|--------------------------------------------------------------------|   
|--------------------------------------------------------------------|   
|--------------------------------------------------------------------|   
|--------5p0------------------5-------------5p0----------------------|   
|----/7-------7~~---7-------5----7~~----/7-------7~~-----7------4--2-|   
|-0--------------0-----0--5----------0----------------0-----0h5----3-|


|--------------------------------------------------------------------|
|--------------------------------------------------------------------|
|--------------------------------------------------------------------|
|--------5p0------------------5-------------5h7--7b------------------|
|----/7-------7~~---7-------5----7~~----/7--------------5-----5------|
|-0--------------0-----0--5----------0---------------3----3-2---2-0--|

With this
as the backing

|-0------0-------0--------0----------0------0--------0-------0-------|
|-8------8-------8--------8----7-----8------8--------8-------8-----7-|
|-9------9-------9--------9----------9------9--------9-------9-------|
|--------------------------------------------------------------------|
|--------------------------------------------------------------------|
|--------------------------------------------------------------------|


|-0------0-------0--------0----------0------0--------0-------0-------|
|-8------8-------8--------8----7-----8------8--------8-------8-----7-|
|-9------9-------9--------9----------9------9--------9-------9-------|
|--------------------------------------------------------------------|
|--------------------------------------------------------------------|
|--------------------------------------------------------------------|

Verse 1

|--------------------------------------------------------------------|   
|--------------------------------------------------------------------|   
|--------------------------------------------------------------------|   
|--------5p0------------------5-------------5p0----------------------|   
|----/7-------7~~---7-------5----7~~----/7-------7~~-----7------4--2-|   
|-0--------------0-----0--5----------0----------------0-----0h5----3-|


|-----------------------------------------------------------------------| 
|-----------------------------------------------------------------------|
|----------------------------------------------------x--7--7/9--9/12--9-| 
|--------5p0------------------5-------------5p0-------------------------|
|----/7-------7~~---7-------5----7~~----/7-------5~~-x--5--5/7--7/10--7-|  
|-0--------------0-----0--5----------0----------------------------------|


|------------------------------------------------------------------------|
|------------------------------------------------------------------------|
|------------------------------------------------------------------------|
|--------5p0------------------5-------------5p0---------------5--7b--5~~-|
|----/7-------7~~---7-------5----7~~----/7-------5~~-----5h7-------------|
|-0--------------0-----0--5----------0----------------0------------------|


|--------------------------------------------------------------------|   
|--------------------------------------------------------------------|   
|--------------------------------------------------------------------|   
|--------5p0------------------5-------------5p0----------------------|   
|----/7-------7~~---7-------5----7~~----/7-------7/5-----5-----5-----|   
|-0--------------0-----0--5----------0----------------3----3-2---2-0-|   

Verse backing

|-------------------------------12-------------------------------------7-|
|-------------------------------12--------------------------------8----7-|
|-------------------------12---------------------------------9---------9-|
|-------------------14---------------------------------------------------|
|------------------------------------------------------------------------|
|------------------------------------------------------------------------|


|-------------------------------12---------------------------------------|
|-------------------------------12---------------------------------------|
|-------------------------12---------------------------------------------|
|-------------------14---------------------------------------------------|
|------------------------------------------------------------------------|
|------------------------------------------------------------------------|

Chorus
|-------------------------------------------------|
|-------------------------------------------------|
|-9-9-x-9-9---7-7-x-7-7---7-7-x-7-7---9-9-x-9-9---|   
|-9-9-x-9-9---7-7-x-7-7---7-7-x-7-7---9-9-x-9-9---|    
|-7-7-x-7-7---5-5-x-5-5---5-5-x-5-5---7-7-x-7-7---|
|-------------------------------------------------|


|--------------------------------------------------------------------------|
|--------------------------------------------------------------------------|
|----------12b~~----------------------------7------------------------------|  
|------12-----------------5--7b----------5-----7b~~------5--7b---7p5-------|  
|-/14-----------------/7-------------/7-------------------------------7~~~-|
|--------------------------------------------------------------------------|

Verse 2 
|--------------------------------------------------------------------|   
|--------------------------------------------------------------------|   
|--------------------------------------------------------------------|   
|--------5p0------------------5-------------5p0----------------------|   
|----/7-------7~~---7-------5----7~~----/7-------7~~-----7------4--2-|   
|-0--------------0-----0--5----------0----------------0-----0h5----3-|


|--------------------------------------------------------------------|
|--------------------------------------------------------------------|
|--------------------------------------------------------------------|
|--------5p0------------------5-------------5h7--7b------------------|
|----/7-------7~~---7-------5----7~~----/7--------------5-----5------|
|-0--------------0-----0--5----------0---------------3----3-2---2-0--|

|------------------------------------------------------------------------|
|------------------------------------------------------------------------|
|------------------------------------------------------------------------|
|--------5p0------------------5-------------5p0---------------5--7b--5~~-|
|----/7-------7~~---7-------5----7~~----/7-------5~~-----5h7-------------|
|-0--------------0-----0--5----------0----------------0------------------|


|------------------------------------------------------------------------------| 
|------------------------------------------------------------------------------|
|----------------------------------------------------x--7--7/9--9/12--12/11--9-| 
|--------5p0------------------5-------------5p0--------------------------------|
|----/7-------7~~---7-------5----7~~----/7-------5~~-x--5--5/7--7/10--10/9---7-|  
|-0--------------0-----0--5----------0-----------------------------------------|


|--------------------------------------------------------------------|   
|--------------------------------------------------------------------|   
|--------------------------------------------------------------------|  
|--------5p0------------------5-------------5p0----------------------|   
|----/7-------7~~---7-------5----7~~----/7-------7~~-----7------4--2-|   
|-0--------------0-----0--5----------0----------------0-----0h5----3-|   
                                                                         
                                                                               
|--------------------------------------------------------------------|   
|--------------------------------------------------------------------|   
|--------------------------------------------------------------------|   
|--------5p0------------------5-------------5p0----------------------|   
|----/7-------7~~---7-------5----7~~----/7-------7/5-----5-----5-----|   
|-0--------------0-----0--5----------0----------------3----3-2---2-0-|

Chorus

|-------------------------------------------------|
|-------------------------------------------------|
|-9-9-x-9-9---7-7-x-7-7---7-7-x-7-7---9-9-x-9-9---|   
|-9-9-x-9-9---7-7-x-7-7---7-7-x-7-7---9-9-x-9-9---|     
|-7-7-x-7-7---5-5-x-5-5---5-5-x-5-5---7-7-x-7-7---|
|-------------------------------------------------|


|--------------------------------------------------------------------------|
|--------------------------------------------------------------------------|
|----------12b~~----------------------------7------------------------------|
|------12-----------------5--7b----------5-----7b~~------5--7b---7p5-------|
|-/14-----------------/7-------------/7-------------------------------7~~~-|
|--------------------------------------------------------------------------|


|------------------------------------------------------------|
|------------------------------------------------------------|
|------------------------------------------------------------|
|-/9--9--9-----/7--7--7-----/7--7--7--------------x--x--x----|
|-/7--7--7-----/5--5--5-----/5--5--5-----7--7--7--x--x--x----|
|----------------------------------------5--5--5--x--x--x----|


|------------------------------------------------------------|
|------------------------------------------------------------|
|------------------------------------------------------------|
|-/9--9--9-----/7--7--7-----/7--7--7-------------------------|
|-/7--7--7-----/5--5--5-----/5--5--5-----7--7--7-------------|
|----------------------------------------5--5--5--0--3~~~----|


|------------------------------------------------------------|
|------------------------------------------------------------|
|------------------------------------------------------------|
|-/9--9--9--9b--7--7--7-----/7--7--7-------------------------|
|-/7--7--7------5--5--5-----/5--5--5-----7--7--7-------------|
|----------------------------------------5--5--5--0--3~~~----|


|---------------------------------------------------------------|
|---------------------------------------------------------12b---|
|---------------------------------------------------------12b---|   
|-/9--9--9------7--7/9--7~~--/7--7--7-----------------12--------|  
|-/7--7--7------5------------/5--5--5-----7--7--7/14------------|
|-----------------------------------------5--5--5---------------|


|---------------------------------------------|
|---------------------------------------------|
|-----7--------------7------------------------|   
|-/9-----7~~------5-----7b~~--5--7b--7p5------|     
|-------------/7--------------------------7~~-|
|---------------------------------------------|


|------------------------------------------------------------|
|------12--12b-----------------------------------------------|
|------12--12b-------7--------------7------------------------|
|----------------/9-----7~~------5-----7b~~--5--7b--7p5------|
|-/14------------------------/7--------------------------7~~-|
|------------------------------------------------------------|

Middle Solo

|---------------------------------------------------------------------------|
|---------------------------------------------------------------------------|
|-4/9--12\11/12\9--12\11/12\9--12\11/12/14--11/12\9--12\11/12\9--12\11/12\9-|
|---------------------------------------------------------------------------|
|---------------------------------------------------------------------------|
|---------------------------------------------------------------------------|

|-------------|
|-------------|
|-12\11/12/14-|
|-------------|
|-------------|
|-------------|


|-10/12--15\14/15\12--15\14/15\12--15\14/15/17--14/15\12--15\14/15\12-|
|---------------------------------------------------------------------|
|---------------------------------------------------------------------|
|---------------------------------------------------------------------|
|---------------------------------------------------------------------|
|---------------------------------------------------------------------|


|-15\14/15\12--15\14/15/17--19///-------------------------------------|
|---------------------------------------------------------------------|
|---------------------------------------------------------------------|
|---------------------------------------------------------------------|
|---------------------------------------------------------------------|
|---------------------------------------------------------------------|


Chorus

|------------------------------------------------------------|
|------------------------------------------------------------|
|------------------------------------------------------------|
|-/9--9--9-----/7--7--7-----/7--7--7--------------x--x--x----|
|-/7--7--7-----/5--5--5-----/5--5--5-----7--7--7--x--x--x----|
|----------------------------------------5--5--5--x--x--x----|


|------------------------------------------------------------|
|------------------------------------------------------------|
|------------------------------------------------------------|
|-/9--9--9-----/7--7--7-----/7--7--7-------------------------|
|-/7--7--7-----/5--5--5-----/5--5--5-----7--7--7-------------|
|----------------------------------------5--5--5--0--3~~~----|


|------------------------------------------------------------|
|------------------------------------------------------------|
|------------------------------------------------------------|
|-/9--9--9--9b--7--7--7-----/7--7--7-------------------------|
|-/7--7--7------5--5--5-----/5--5--5-----7--7--7-------------|
|----------------------------------------5--5--5--0--3~~~----|


|---------------------------------------------------------------|
|---------------------------------------------------------------|
|---------------------------------------------------------------|   
|-/9--9--9--9b--7--7/9--7~~--/7--7--7---------------------2~~---|     
|-/7--7--7------5------------/5--5--5-----7--7--7---------2~~---|
|-----------------------------------------5--5--5--0--3~--0~~---|



|----------------------------------------------------------------------|
|----------------------------------------------------------------------|
|----------------------------------------------------------------------|  Play 4
|-7h9-----9-----9-----9--------10p9--9~~~--9-----9-----9----------10p9-|   Times
|-7-------7-----7-----7---7h10-------7~~~--7-----7-----7-----7h10------|
|-0---0-0-0-0-0-0-0-0-0-0------------------0-0-0-0-0-0-0-0-0-----------|

Chorus

|-----------------------------------------------------------------|
|------------------------------------------------------7b---------|
|---------------------------------------------5-----5--7b--5------|
|-/9--9--9-----/7--7--7-----/7--7--7----5--7-----7------------7---|
|-/7--7--7-----/5--5--5-----/5--5--5------------------------------|
|-----------------------------------------------------------------|


|------------------------------------------------------------------|
|------------------------------------------8b--8b--8b--------------|
|---------------------------------------5--7b--7b--7b---7p5--------|
|-/9--9--9-----/7--7--7-----/7--7----7-----------------------7~~---|
|-/7--7--7-----/5--5--5-----/5--5----------------------------------|
|------------------------------------------------------------------|


|------------------------------------------------------------|
|------------------------------------------------------------|
|------------------------------------------------------------|
|-/9--9--9--9b--7--7--7-----/7--7--7-------------------------|
|-/7--7--7------5--5--5-----/5--5--5-----7--7--7-------------|
|----------------------------------------5--5--5--0--3~~~----|


|-----------------------------------------------------------|
|-----------------------------------------------------------|
|-----------------------------------------------------------|   
|-/9--9--9--9b--7--7/9--7~~--/7--7--7-----------------------|     
|-/7--7--7------5------------/5--5--5-----7--7--7-----------|
|-----------------------------------------5--5--5--0--3~~~--|

Solo:

|-----------------------------------------------------------
|-----------------------------------------------------------
|----12~----------14-12--------------------------------12b~-
|-14-----12-14-14-------14-12~--14-14~-12-14-14~-14-12-12b~-
|-----------------------------------------------------------
|-----------------------------------------------------------


-------------------------------------------------------------------
-------------------------------------------------------------------
----------------14-12-------14b-12-----14b-12----------------------
14-14-12-14-14~-------14-12--------14~--------14-12----12h14-12----
----------------------------------------------------14----------14-
-------------------------------------------------------------------

|-15-12----12-------------------------------------------------------------
|-------15----15-12----12-------------------------------------------------
|-------------------14----14-12----12-14b-14p12----12-14-12-------12------
|-------------------------------14--------------14----------14-12----14~~-
|-------------------------------------------------------------------------
|-------------------------------------------------------------------------


|-12h15p12----12-----12h15p12----12-----12h15p12----12-----
|----------15----15b----------15----15b----------15----15b-
|----------------------------------------------------------
|----------------------------------------------------------
|----------------------------------------------------------
|----------------------------------------------------------


-----------------------------------------------
-15p12-12-12-15p12-12-12-15p12-12-12-15p12-----
-----------------------------------------------
-----------------------------------------------
-----------------------------------------------
-----------------------------------------------


|----------------------------------------------------------
|-12h15p12----12h15p12----12h15p12-12h15p12----12h15p12----
|----------14----------14-------------------14----------14-
|----------------------------------------------------------
|----------------------------------------------------------
|----------------------------------------------------------


------------------------------------------------
12h15p12-12h15p12----12h15p12-12h15p12--15b-15b-
------------------14----------------------------
------------------------------------------------
------------------------------------------------
------------------------------------------------


|--------------------------------------
|-12--14--15--14--12-14---14-15-14-12--
|-12--14--15--14--12-14---14-15-14-12--
|--------------------------------------
|--------------------------------------
|--------------------------------------


----------------------------------------------
15b~-15-12-------------15b~-15-12-------------
-----------14-12------------------14-12-------
-----------------14-12------------------14-12-
----------------------------------------------
----------------------------------------------



|---------------------------------
|-15b-15b-12-15b-12-15--15-12-15b-
|---------12-----12-15--15-12-----
|---------------------------------
|---------------------------------
|---------------------------------


|----------------------------------------------------------------------
|-----------------------------------------------15-12------------------
|-9--9--9--12/14--12--14--12--11------12-14-14b-------14-14b-12----14b-
|---------------------------------/14---------------------------14-----
|-7--7--7--10/12--10--12--10--9----------------------------------------
|----------------------------------------------------------------------


|------------------------------------------------
|------------------------------------------------
|-9--9--9--12/14--12--14--12--11~/12-12/14-14/16-
|------------------------------------------------
|-7--7--7--10/12--10--12--10--9~~/10-10/12-12/14-
|------------------------------------------------


-------------------------------------
-----------------------------14-12~~-
----12-14-14b-12----------12-14-12~~-
/14--------------14-12-14------------
-------------------------------------
-------------------------------------

Distorted
|--------------------------------------------------------------------|   
|--------------------------------------------------------------------|   
|--------------------------------------------------------------------|   
|--------5p0------------------5-------------5p0----------------------|   
|----/7-------7~~---7-------5----7~~----/7-------7~~-----7------4--2-|   
|-0--------------0-----0--5----------0----------------0-----0h5----3-|   
                                                                           
                                                                                
|--------------------------------------------------------------------|   
|--------------------------------------------------------------------|   
|--------------------------------------------------------------------|   
|--------5p0------------------5-------------5p0----------------------|   
|----/7-------7~~---7-------5----7~~----/7-------7/5-----5-----5-----|   
|-0--------------0-----0--5----------0----------------3----3-2---2-0-| 

Clean
|--------------------------------------------------------------------|   
|--------------------------------------------------------------------|   
|--------------------------------------------------------------------|   
|--------5p0------------------5-------------5p0----------------------|   
|----/7-------7~~---7-------5----7~~----/7-------7~~-----7------4--2-|   
|-0--------------0-----0--5----------0----------------0-----0h5----3-|


|--------------------------------------------------------------------|
|--------------------------------------------------------------------|
|--------------------------------------------------------------------|
|--------5p0------------------5-------------5h7--7b------------------|
|----/7-------7~~---7-------5----7~~----/7--------------5-----5------|
|-0--------------0-----0--5----------0---------------3----3-2---2-0--|


|--------------------------------------------------------------------|   
|--------------------------------------------------------------------|   
|--------------------------------------------------------------------|   
|--------5p0------------------5-------------5p0----------------------|   
|----/7-------7~~---7-------5----7~~----/7-------7~~-----7------4--2-|   
|-0--------------0-----0--5----------0----------------0-----0h5----3-|


|------------------------------------------------------------------------|
|------------------------------------------------------------------------|
|------------------------------------------------------------------------|
|--------5p0------------------5-------------5p0---------------5--7b--5~~-|
|----/7-------7~~---7-------5----7~~----/7-------5~~-----5h7-------------|
|-0--------------0-----0--5----------0----------------0------------------|


|--------------------------------------------------------------------|   
|--------------------------------------------------------------------|   
|--------------------------------------------------------------------|   
|--------5p0------------------5-------------5p0----------------------|   
|----/7-------7~~---7-------5----7~~----/7-------7~~-----7------4--2-|   
|-0--------------0-----0--5----------0----------------0-----0h5----3-|   
                                                                           
                                                                             
|--------------------------------------------------------------------|   
|--------------------------------------------------------------------|   
|--------------------------------------------------------------------|   
|--------5p0------------------5-------------5p0----------------------|   
|----/7-------7~~---7-------5----7~~----/7-------7/5-----5-----5-----|   
|-0--------------0-----0--5----------0----------------3----3-2---2-0-|

8.Cure

Eb|------||-------------------------|-------------------------||
Bb|------||-------------------------|-------------------------||
Gb|------||-------------------------|-------------------------|o
Db|------||-------------------------|-------------------------|o
Ab|--(2)-||-----2--------2----------|----5~----------5~----2--||
Eb|--(0)-||-----0--3~----0-----x--5-|-6--------5--6--------0--||


Pre-Chorus 1:

     |     |     |     |        |     |     |     |
Eb|--------------------------|--------------------------|
Bb|--------------------------|--------------------------|
Gb|--------------------------|-----------3--3-----------|
Db|--3-----------------------|--3--3--3--3--3-----------|
Ab|--3--3--3--3--3--3--3--3--|--3--3--3--3--3-----3--2--|
Eb|--1--1--1--1--1--1--1--1--|--1--1--1--1--1-----1--0--|
        pm.................... . . .  .  .  


     |     |     |     |        |     |     |     |
Eb|--------------------------|--------------------------|
Bb|--------------------------|--------------------------|
Gb|--------------------------|--------------------------|
Db|--------------------------|--------------------------|
Ab|-----0--1-----3--2-----1--|--0--1--0-----3--2-----2--|
Eb|--------------1--0--------|-----------0--1--0-----0--|


     |     |     |     |        |       |       |      |
Eb|--------------------------|-------------------------------|
Bb|--------------------------|-------------------------------|
Gb|--------------------------|--------------15--15-----------|
Db|--3-----------------------|-/15--15--15--15--15-----------|
Ab|--3--3--3--3--3--3--3--3--|-/15--15--15--15--15-----3--2--|
Eb|--1--1--1--1--1--1--1--1--|-/13--13--13--13--13-----1--0--|
        pm.................... . . .  .  .  


     |     |     |     |        |     |     |     |
Eb|--------------------------|--------------------------|
Bb|--------------------------|--------------------------|
Gb|--------------------------|--------------------------|
Db|--------------------------|--------------------------|
Ab|-----0--1-----3--2-----1--|--0--1--0-----3--2-----2--|
Eb|--------------1--0--------|-----------0--1--0-----0--|


     |     |     |     |        |     |     |     |
Eb|--------------------------|--------------------------||
Bb|--------------------------|--------------------------||
Gb|--------------------------|--------------------------||
Db|--------------------------|--------------------------||
Ab|-----0--1-----3--2-----1--|--0--1--0-----3--2-----2--||
Eb|--------------1--0--------|-----------0--1--0-----0--||


Bridge:

     |     |     |     |        |     |     |     |
Eb|--------------------------|---------------------------|
Bb|--------------------------|---------------------------|
Gb|--------------------------|---------------------------|
Db|--------------------------|---------------------------|
Ab|-----2-----2-----2--x-x-x-|-----2-----2-----2--x-x-x--|
Eb|--3--0-/6--0-----0--------|--3--0-/6--0-----0---------|


     |     |     |     |        |     |     |     |        |
Eb|--------------------------|---------------------------|--------||
Bb|--------------------------|---------------------------|--------||
Gb|--------------------------|---------------------------|--------||
Db|--------------------------|---------------------------|--------||
Ab|-----2-----2-----2--x-x-x-|-----2-----7--6--5~--------|--------||
Eb|--3--0-/6--0-----0--------|--3--0-/6--------------7---|--6--5--||


Verse 2: Play first chord first time only, this time it
         lands on the down beat?! Repeat 8 times.
                                  
     |     |     |     |      |     |     |     |
Eb|-------------------------|-------------------------||
Bb|-------------------------|-------------------------||
Gb|-------------------------|-------------------------|o
Db|-------------------------|-------------------------|o
Ab|-(2)-2--------2----------|----5~----------5~----2--||
Eb|-(0)-0--3~----0-----x--5-|-6--------5--6--------0--||


Pre-Chorus 2:

     |     |     |     |        |     |     |     |
Eb|--------------------------|--------------------------|
Bb|--------------------------|--------------------------|
Gb|--------------------------|-----------3--3-----------|
Db|--3-----------------------|--3--3--3--3--3-----------|
Ab|--3--3--3--3--3--3--3--3--|--3--3--3--3--3-----3--2--|
Eb|--1--1--1--1--1--1--1--1--|--1--1--1--1--1-----1--0--|
        pm.................... . . .  .  .  


     |     |     |     |        |     |     |     |
Eb|--------------------------|--------------------------|
Bb|--------------------------|--------------------------|
Gb|--------------------------|--------------------------|
Db|--------------------------|--------------------------|
Ab|-----0--1-----3--2-----1--|--0--1--0-----3--2-----2--|
Eb|--------------1--0--------|-----------0--1--0-----0--|


     |     |     |     |        |       |       |      |
Eb|--------------------------|-------------------------------|
Bb|--------------------------|-------------------------------|
Gb|--------------------------|--------------15--15-----------|
Db|--3-----------------------|-/15--15--15--15--15-----------|
Ab|--3--3--3--3--3--3--3--3--|-/15--15--15--15--15-----3--2--|
Eb|--1--1--1--1--1--1--1--1--|-/13--13--13--13--13-----1--0--|
        pm.................... . . .  .  .  

     |     |     |     |        |     |     |     |
Eb|--------------------------|--------------------------|
Bb|--------------------------|--------------------------|
Gb|--------------------------|--------------------------|
Db|--------------------------|--------------------------|
Ab|-----0--1-----3--2-----1--|--0--1--0-----3--2-----2--|
Eb|--------------1--0--------|-----------0--1--0-----0--|


     |     |     |     |        |     |     |     |
Eb|--------------------------|--------------------------||
Bb|--------------------------|--------------------------||
Gb|--------------------------|--------------------------||
Db|--------------------------|--------------------------||
Ab|-----0--1-----3--2-----1--|--0--1--0-----3--2-----2--||
Eb|--------------1--0--------|-----------0--1--0-----0--||


Bridge:

     |     |     |     |        |     |     |     |
Eb|--------------------------|---------------------------|
Bb|--------------------------|---------------------------|
Gb|--------------------------|---------------------------|
Db|--------------------------|---------------------------|
Ab|-----2-----2-----2--x-x-x-|-----2-----2-----2--x-x-x--|
Eb|--3--0-/6--0-----0--------|--3--0-/6--0-----0---------|


     |     |     |     |        |     |     |     |        |
Eb|--------------------------|---------------------------|--------||
Bb|--------------------------|---------------------------|--------||
Gb|--------------------------|---------------------------|--------||
Db|--------------------------|---------------------------|--------||
Ab|-----2-----2-----2--x-x-x-|-----2-----7--6--5~--------|--------||
Eb|--3--0-/6--0-----0--------|--3--0-/6--------------7---|--6--5--||


Chorus 1: Finally!

     |     |     |     |        |     |     |     |
Eb|--------------------------|---------------------------|
Bb|--------------------------|---------------------------|
Gb|--------------------------|---------------------------|
Db|--------------------------|---------------------------|
Ab|-----2-----2--2--2--2-----|-----7--6--5~--------------|
Eb|-/6--0-----0--0--0--0-----|-/6--------------7--6--5---|


     |     |     |     |        |     |     |     |
Eb|--------------------------|---------------------------|
Bb|--------------------------|---------------------------|
Gb|--------------------------|---------------------------|
Db|--------------------------|---------------------------|
Ab|-----2-----2--2--2--2-----|-----7--6--5~--------------|
Eb|-/6--0-----0--0--0--0-----|-/6--------------7--6--5---|


     |     |     |     |        |     |     |     |
Eb|--------------------------|---------------------------|
Bb|--------------------------|---------------------------|
Gb|--------------------------|---------------------------|
Db|--------------------------|---------------------------|
Ab|-----2-----2--2--2--2-----|-----7--6--5~--------------|
Eb|-/6--0-----0--0--0--0-----|-/6--------------7--6--5---|


     |     |     |     |        |     |     |     |
Eb|--------------------------|---------------------------|
Bb|--------------------------|---------------------------|
Gb|--------------------------|---------------------------|
Db|--------------------------|---------------------------|
Ab|-----2-----2--2--2--2-----|-----7-----------7---------|
Eb|-/6--0-----0--0--0--0-----|-/6-----6--5~-------6--5---|


     |     |     |     |        |     |     |     |
Eb|--------------------------|---------------------------|
Bb|--------------------------|---------------------------|
Gb|--------------------------|---------------------------|
Db|--------------------------|-----2---------------------|
Ab|-----7-----------7--------|-----2---------------------|
Eb|-/6-----6--5~-------6--5--|--3--0---------------------|


     |     |     |     |          |     |     |     |
Eb|--------------------------|--------------------------||
Bb|--------------------------|--------------------------||
Gb|--------------------------|--------------------------||
Db|--------------------------|--------------------------||
Ab|--------------------------|-----7-----------7--------||
Eb|--------------------------|-/6-----6--5~-------6--5--||

      
Solo : Play first chord first time only, this time it
       lands on the down beat?! Sound familar? ;)
                                  
     |     |     |     |      |     |     |     |
Eb|-------------------------|-------------------------||
Bb|-------------------------|-------------------------||
Gb|-------------------------|-------------------------|o
Db|-------------------------|-------------------------|o
Ab|-(2)-2--------2----------|----5~----------5~----2--||
Eb|-(0)-0--3~----0-----x--5-|-6--------5--6--------0--||


     |     |     |     |       |     |     |     |
Eb|-------------------------|--------------------------|
Bb|-------------------------|--------------------------|
Gb|-------------------------|--------------------------|
Db|-------------------------|--------------------------|
Ab|--2--2--------2--2-------|--2--2--------2--2--------|
Eb|--0--0--3~----0--0--3~---|--0--0--3~----0--0--3~----|


     |     |     |     |      |     |     |     |
Eb|-------------------------|--------------------------|
Bb|-------------------------|--------------------------|
Gb|-------------------------|--------------------------|
Db|-------------------------|--------------------------|
Ab|--2--2--------2----------|----5~----------5~----2---|
Eb|--0--0--3~----0-----x--5-|-6--------5--6--------0---|


     |     |     |     |        |       |       |       |
Eb|--------------------------|--------------------------------|
Bb|--------------------------|--------------------------------|
Gb|--------------------------|--------------15--15--15\-------|
Db|--3-----------------------|-/15--15--15--15--15--15\-------|
Ab|--3--3--3--3--3--3--3--3--|-/15--15--15--15--15--15\-------|
Eb|--1--1--1--1--1--1--1--1--|-/13--13--13--13--13--13\-------|
        pm.................... . . .  .  .  


     |     |     |     |      
Eb|--------------------------||
Bb|--------------------------||
Gb|--------------------------||
Db|--------------------------||
Ab|-----7-----------7--------||
Eb|-/6-----6--5~-------6--5--||


Chorus 2:

     |     |     |     |        |     |     |     |
Eb|--------------------------|---------------------------|
Bb|--------------------------|---------------------------|
Gb|--------------------------|---------------------------|
Db|--------------------------|---------------------------|
Ab|-----2-----2--2--2--2-----|-----7--6--5~--------------|
Eb|-/6--0-----0--0--0--0-----|-/6--------------7--6--5---|


     |     |     |     |        |     |     |     |
Eb|--------------------------|---------------------------|
Bb|--------------------------|---------------------------|
Gb|--------------------------|---------------------------|
Db|--------------------------|---------------------------|
Ab|-----2-----2--2--2--2-----|-----7--6--5~--------------|
Eb|-/6--0-----0--0--0--0-----|-/6--------------7--6--5---|


     |     |     |     |        |     |     |     |
Eb|--------------------------|---------------------------|
Bb|--------------------------|---------------------------|
Gb|--------------------------|---------------------------|
Db|--------------------------|---------------------------|
Ab|-----2-----2--2--2--2-----|-----7--6--5~--------------|
Eb|-/6--0-----0--0--0--0-----|-/6--------------7--6--5---|


     |     |     |     |        |     |     |     |
Eb|--------------------------|---------------------------|
Bb|--------------------------|---------------------------|
Gb|--------------------------|---------------------------|
Db|--------------------------|---------------------------|
Ab|-----2-----2--2--2--2-----|-----7-----------7---------|
Eb|-/6--0-----0--0--0--0-----|-/6-----6--5~-------6--5---|


                              Hold this chord for the
                              next 4 measures.
     |     |     |     |        |     |     |     |
Eb|--------------------------|---------------------------|
Bb|--------------------------|---------------------------|
Gb|--------------------------|---------------------------|
Db|--------------------------|-----9---------------------|
Ab|-----7-----------7--------|-----7---------------------|
Eb|-/6-----6--5~-------6--5--|--3--0---------------------|


                              Rotate volume knob rhythmically.
     |     |     |     |        |     |     |     |
Eb|--------------------------|--------------------------|
Bb|--------------------------|--------------------------|
Gb|--------------------------|--------------------------|
Db|--------------------------|--------------------------|
Ab|--------------------------|--------------------------|
Eb|--------------------------|--------------------------|
                                v  ^  v  ^  v  ^
                               

Interlude: "I do believe..."

     |     |     |     |        |     |     |     |
Eb|--------------------------|----------------------------|
Bb|--------------------------|----------------------------|
Gb|--------------------------|----------------------------|
Db|--------------------------|--8-7~--------------7/8\7/8-|
Ab|-----------------2-----2--|--8-7~--------------7/8\7/8-|
Eb|-----------------0--3--0--|--6-5~--------------5/6\5/6-|


     |     |     |     |        |     |     |     |
Eb|--------------------------|----------------------------|
Bb|--------------------------|----------------------------|
Gb|--------------------------|----------------------------|
Db|-/7-----9-----------------|--8-7~--------------7/8\7/8-|
Ab|-/7-----9--------2-----2--|--8-7~--------------7/8\7/8-|
Eb|-/5-----6--------0--3--0--|--6-5~--------------5/6\5/6-|


     |     |     |     |        |     |     |     |
Eb|--------------------------|----------------------------|
Bb|--------------------------|----------------------------|
Gb|--------------------------|----------------------------|
Db|-/7-----9-----------------|--8-7~--------------7/8\7/8-|
Ab|-/7-----9--------2-----2--|--8-7~--------------7/8\7/8-|
Eb|-/5-----6--------0--3--0--|--6-5~--------------5/6\5/6-|


     |     |     |     |        |     |     |     |
Eb|--------------------------|----------------------------|
Bb|--------------------------|----------------------------|
Gb|--------------------------|----------------------------|
Db|-/7-----9-----------------|--8-7~--------------7/8\7/8-|
Ab|-/7-----9--------2-----2--|--8-7~--------------7/8\7/8-|
Eb|-/5-----6--------0--3--0--|--6-5~--------------5/6\5/6-|


     |     |     |     |        |     |     |     |
Eb|--------------------------|--------------------------|
Bb|--------------------------|--------------------------|
Gb|--------------------------|--------------------------|
Db|--7b8---------------------|--------------------------|
Ab|--7b8---------------------|-----------------7~-------|
Eb|--5b6------------------0--|--3---5b6~-------------0--|


     |     |     |     |        |     |     |     |
Eb|--------------------------|--------------------------|
Bb|--------------------------|--------------------------|
Gb|--------------------------|--------------------------|
Db|--------------------------|--------------------------|
Ab|-----------------5~-------|-----------------4~-------|
Eb|--3---5b6~-------------0--|--3---5b6~-------------0--|


     |     |     |     |        |     |     |     |
Eb|--------------------------|--------------------------|
Bb|--------------------------|--------------------------|
Gb|--------------------------|--------------------------|
Db|--------------------------|--------------------------|
Ab|-----------------2--------|-----------------7~-------|
Eb|--3---5b6-----3--0-----0--|--3---5b6~-------------0--|


     |     |     |     |        |     |     |     |
Eb|--------------------------|--------------------------|
Bb|--------------------------|--------------------------|
Gb|--------------------------|--------------------------|
Db|--------------------------|--------------------------|
Ab|-----------------5~-------|-----------------4~-------|
Eb|--3---5b6~-------------0--|--3---5b6~-------------0--|


     |     |     |     |        |     |     |     |
Eb|--------------------------|--------------------------|
Bb|--------------------------|--------------------------|
Gb|--------------------------|--------------------------|
Db|--------------------------|--------------------------|
Ab|-----------------2--------|-----------7--------------|
Eb|--3---5b6-----3--0-----0--|--3--5--6-----6--5~----0--|


     |     |     |     |        |     |     |     |
Eb|--------------------------|--------------------------|
Bb|--------------------------|--------------------------|
Gb|--------------------------|--------------------------|
Db|--------------------------|--------------------------|
Ab|-----------5--------------|-----------4--------------|
Eb|--3--5--6-----6--5~----0--|--3--5--6-----6--5-----0--|


     |     |     |     |        |     
Eb|--------------------------|--------||
Bb|--------------------------|--------||
Gb|--------------------------|--------||
Db|--------------------------|--------||
Ab|-----------------2-----2--|-----2--||
Eb|--3---5b6-----3--0-----0--|--3--0--||


Chorus 3:

     |     |     |     |        |     |     |     |
Eb|--------------------------|---------------------------|
Bb|--------------------------|---------------------------|
Gb|--------------------------|---------------------------|
Db|--------------------------|---------------------------|
Ab|-----2-----2--2--2--2-----|-----7--6--5~--------------|
Eb|-/6--0-----0--0--0--0-----|-/6--------------7--6--5---|


     |     |     |     |        |     |     |     |
Eb|--------------------------|---------------------------|
Bb|--------------------------|---------------------------|
Gb|--------------------------|---------------------------|
Db|--------------------------|---------------------------|
Ab|-----2-----2--2--2--2-----|-----7--6--5~--------------|
Eb|-/6--0-----0--0--0--0-----|-/6--------------7--6--5---|


     |     |     |     |        |     |     |     |
Eb|--------------------------|---------------------------|
Bb|--------------------------|---------------------------|
Gb|--------------------------|---------------------------|
Db|--------------------------|---------------------------|
Ab|-----2-----2--2--2--2-----|-----7--6--5~--------------|
Eb|-/6--0-----0--0--0--0-----|-/6--------------7--6--5---|


     |     |     |     |        |     |     |     |
Eb|--------------------------|---------------------------|
Bb|--------------------------|---------------------------|
Gb|--------------------------|---------------------------|
Db|--------------------------|---------------------------|
Ab|-----2-----2--2--2--2-----|-----7--6--5~--------------|
Eb|-/6--0-----0--0--0--0-----|-/6--------------7--6--5---|


     |     |     |     |        |     |     |     |
Eb|--------------------------|---------------------------|
Bb|--------------------------|---------------------------|
Gb|--------------------------|---------------------------|
Db|--------------------------|---------------------------|
Ab|-----2-----2--2--2--2-----|-----7--6--5~--------------|
Eb|-/6--0-----0--0--0--0-----|-/6--------------7--6--5---|


     |     |     |     |        |     |     |     |
Eb|--------------------------|---------------------------|
Bb|--------------------------|---------------------------|
Gb|--------------------------|---------------------------|
Db|--------------------------|---------------------------|
Ab|-----2-----2--2--2--2-----|-----7--6--5~--------------|
Eb|-/6--0-----0--0--0--0-----|-/6--------------7--6--5---|

     |     |     |     |        |     |     |     |
Eb|--------------------------|---------------------------|
Bb|--------------------------|---------------------------|
Gb|--------------------------|---------------------------|
Db|--------------------------|---------------------------|
Ab|-----2-----2--2--2--2-----|-----7--6--5~--------------|
Eb|-/6--0-----0--0--0--0-----|-/6--------------7--6--5---|


     |     |     |     |        |     |     |     |
Eb|--------------------------|---------------------------|
Bb|--------------------------|---------------------------|
Gb|--------------------------|---------------------------|
Db|--------------------------|---------------------------|
Ab|-----2-----2--2--2--2-----|-----7-----------7---------|
Eb|-/6--0-----0--0--0--0-----|-/6-----6--5~-------6--5---|


                              Hold this chord for the
                              next 4 measures.
     |     |     |     |        |     |     |     |
Eb|--------------------------|---------------------------|
Bb|--------------------------|---------------------------|
Gb|--------------------------|---------------------------|
Db|--------------------------|-----2---------------------|
Ab|-----7-----------7--------|-----2---------------------|
Eb|-/6-----6--5~-------6--5--|--3--0---------------------|


     |     |     |     |        |     |     |     |
Eb|--------------------------|---------------------------|
Bb|--------------------------|---------------------------|
Gb|--------------------------|---------------------------|
Db|--------------------------|---------------------------|
Ab|--------------------------|-----7-----------7---------|
Eb|--------------------------|-/6-----6--5~-------6--5---|
                               

     |     |     |     |        |     |     |     |
Eb|--------------------------|---------------------------||
Bb|--------------------------|---------------------------||
Gb|--------------------------|---------------------------||
Db|-----9-----------9--------|---------------------------||
Ab|--8-----8--7~-------8--7--|--2-----------2------------||
Eb|--------------------------|--0-----3~----0------------||


==================================================================
Notation:
 x = Mute by gently placing left hand on string(s)
     and striking with pick.
pm = Palm mute.
 ~ = Vibrato or slight string bend (it varies throughout this one).
 / = Slide up.
 \ = Slide Down.
 b = Bend
===================================================================




"Cure" by Metallica
Solo tabbed by Olivier Gandou  (gandou@isnpgs.inpg.fr)

h: hammer
p: pull-off
b: bend 1/2
r: release bend
/: slide

Tune down 1/2 step.
Last week, I found Cure tabs, but the solo was missing. So I wrote it,
but I'm not sure it is right. If you have proposals, e-mail me...



   *    *      *     *     *    *      *     *    *    *     *     *        
e-------------------------I----------------------I----------7-----7-----7-I
b-------------------------I-----------------8-7--I------------8-8---8-7---I
g--7h999x7h9p7h9p7h9-9p7~-I-7h999x7h9p7h9p7-7-7--I-7h999x7h9--7-7---7-7---I
d--7h999x7h9p7h9p7h9-9p7~-I-7h999x7h9p7h9p7------I-7h999x7h9--------------I
a-------------------------I----------------------I------------------------I
e-------------------------I----------------------I------------------------I

   *          *           *           *     *     *   *     * 
e-----------------------------------------I------------------------I
b--8/10-10-10-10/12-12-12-12/15-15-15-15~~I-8-------8-------8------I
g--7/9--9--9--9//11-11-11-11/14-14-14-14~~I-7-9p7---7-9p7---7-9p7--I
d-----------------------------------------I------------------------I
a-----------------------------------------I------------------------I
e-----------------------------------------I-------0-------0--------I


  *   *     *     *     *     *    *     *         *     *     *      * 
e---------------------I-------------------------I---------------------------I
b---8-------8-------8-I-------8-10b11-11-11-11--I--11-11-11r10-8---------15-I
g---7-9p7---7-9p7---7-I-9p7---7--9b10-10-10-10--I--10-10-10r9----9---/16----I
d---------------------I-------------------------I---------------------------I
a---------------------I-------------------------I---------------------------I
e-0-------0-------0---I-----0-------------------I---------------------------I

   *     *     *    *       *   *    *    *      *      *  *  * 
e-----15-17b18---18---18--I--18---18---18-r-17-I-15---------------I-15\------I
b--17-----------------18--I--18---18---18-r-17-I----17~~~~--------I----\-----I
g-------------------------I--------------------I------------------I-----\----I
d-------------------------I--------------------I------------------I------\---I
a-------------------------I--------------------I------------------I-------\--I
e-------------------------I--------------------I------------------I--------\-I


9.Poor Twisted Me

Intro:
Distorted, with delay (timing's off):
|-------------------------------------------------------------------
|------------------------5--0--------------------7b-----------------
|------------------------5-----------------------7b-----------------
|-----7----------x-------5--------------7-------------------------7-
|----------------x--------------------------------------------------
|-/5-------------x------------------/5------------------------/5----


|--------------------------------------------------------------------
|---------------5--0-------------------5-----------------------------
|---------------5----------------------5-----------------------------
|--x---x------x-5-------------7--------5-----7p5-------------7-----7-
|--x---x------x-----------------------------------7--5---------------
|--x---x------x-----------/5-----------------------------/5-----5----


|--------------------------------------------------------------------
|------------------5---------------------------------7---------------
|-----------7------5---------------------------------7---------------
|-x--7---x--7---x--5----------7-----5-----x--7----x--7----7p5--------
|---------------------------------------------------------------7----
|-------------------------/5-----5-----------------------------------


|------------------------------------------------------------------------
|---------------------------------5--0-----------------------------------
|-------------------------7-------5----------------------7-7---5-5---3-2-
|----7-----7-----x--7--x--7----x--5---------7-----7---x--7-7---5-5---3-2-
|------------------------------------------------------------------------
|-5-----5-------------------------------/5-----5-------------------------


|--------------------------------------------------------------------
|--------------------------------------------------------------------
|------------------------------7------x--5---------------------------
|-----7-----7--------7---------7------x--5---------7-----7---------7-
|--------------------------------------------------------------------
|-/5-----5--------5---------5------------------/5-----5---------5----


|--------------------------------------------------------------------
|----------------------------------------------------------------5---
|----7-----x---5h7p5-----------------------------------7----x----5---
|----7-----x----------------7-----7---------7----------7----x----5---
|--------------------------------------------------------------------
|-5---------------------/5-----5---------5----------5----------------


|--------------------------------------------------------------------
|--------------------------------------------------------------------
|----------------------5---5------7----7b-----7------7\--------------
|-----7-----7-----x----5---5------7----7b-----7------7\--------------
|--------------------------------------------------------------------
|-/5-----5-----------------------------------------------------------

Verse 1:

|------------------------------------------------------------------------------
|------------------------------------------------------------------------------
|------------------------------------------------------------------------------
|-----7-----7---------------------------7-----7------------------------7-----7-
|------------------------------------------------------------------------------
|-/5-----5--------------------------/5-----5-----------------------/5-----5----
                 Oh poor twisted me               Oh poor twisted me

|------------------------------------------------------------------------------
|------------------------------------------------------------------------------
|-----------------------------------3--3-----5--5-----3------------------------
|-----------------------5-----5-----3--3-----5--5-----3----------5-----5-------
|------------------------------------------------------------------------------
|---------------5////3-----3----------------------------------3-----3----------
  I feast on sympathy                 I chew on suffer

|------------------------------------------------------------------------------
|------------------------------------------------------------------------------
|-----3--3-----5--5----3-------------------------------------------------------
|-----3--3-----5--5----3----------7-----7--------------------------7-----7-----
|------------------------------------------------------------------------------
|------------------------------5-----5--------------------1/////5-----5--------
    Yeah, I chew on agony                  Swallow whole the pain       

|-------------------------------------------------------------------------------
|-------------------------------------------------------------------------------
|----------5--5--5--5--5--5//7-----7\\\5---------------------/12-12-12-12-12-12-
|----7-----5--5--5--5--5--5//7-----7\\\5---------------------/12-12-12-12-12-12-
|-------------------------------------------------------------------------------
|-5-----------------------------------------------------------------------------
    But oh, its too good to be           that all this misery          just for,

|------------------------------------------------------------------------------
|-----------------------------------------------------------5------------------
|--/9-9-9-9-9-9-9-9-9-9----------------------------7----x---5------------------
|--/9-9-9-9-9-9-9-9-9-9-------7-----7--------7-----7----x---5-------7-----7----
|------------------------------------------------------------------------------
|-------------------------/5-----5--------5-----5---------------/5-----5-------
      oh, poor twisted me

|------------------------------------------------------------------------------
|--5---------5---------5---------5--x--7--5--7---5-----------------------------
|--5---------5---------5---------5--x--7--5--7---5-----------------------------
|------7--5------7--5------7--5--------------------------7-----7--------7------
|------------------------------------------------------------------------------
|----------------------------------------------------/5-----5--------5---------


|------------------------------------------------------------------------------
|--------------5---------------------------------------------------------------
|-----7----x---5-------------------7--7----5--5----3--3------------------------
|-----7----x---5-------7-----7-----7--7----5--5----3--3------------------------
|------------------------------------------------------------------------------
|--5---------------/5-----5----------------------------------------------------

Verse 2:  Use same stuff as above
After verse 2:

|-----------------------------------------------------------------------------------
|----------------8----8--8--8--------8-------------------------5--------5-----------
|----------------7b---7--7--7p5--7b--5----------------x--5-----5--------5--5--------
|------7-----7------------------------------7-----7---------7------5h7--------7--7\-
|-----------------------------------------------------------------------------------
|--/5-----5------------------------------5-----5------------------------------------

Bridge:
|---------------------------------------------------------------------------------
|---------------------------------------------------------------------------------
|--11/12-12-12-12--11/12-12-12-12--11/12-12-12-12--11/12-12-12-12--11/12-12-12-12-
|---------------------------------------------------------------------------------
|--9//10-10-10-10--9//10-10-10-10--9//10-10-10-10--9//10-10-10-10--9//10-10-10-10-
|---------------------------------------------------------------------------------
          To  finaly  reach  the  shore,  survive  the  storm.  Now  you're  bare 

|------------------------------------------------------------------------------
|------------------------------------------------------------------------------
|--11/12-12-12-12--11/12-12-12-12---11--10--9-9-9-9--8/9-9-9-9--8/9-9-9-9------
|------------------------------------------------------------------------------
|--9//10-10-10-10--9//10-10-10-10---9---8---7-7-7-7--6/7-7-7-7--6/7-7-7-7------
|------------------------------------------------------------------------------  
   and cold.  The  sea  was  warm, , , so  warm, you bathe your soul again

Guitar Solo:
|-----------------------------5------------------------------------------------
|--5b-------------------5-----5------5b-------------------/10\\\\--------------
|--5b-------------5-----5------------5b--------------5-------------------------
|--------7--5--7----------------------------7--5--7----------------------------
|------------------------------------------------------------------------------
|------------------------------------------------------------------------------


|----------------------------5-5----5----5--5~------5---5-------------------5--
|-----5-5--------5-5------8b-----8b---8b----8~---8b---8---8b-5----5----5----5--
|--7b-----8~---7-----8~----------------------------------------7b---7b---7b----
|------------------------------------------------------------------------------
|------------------------------------------------------------------------------
|------------------------------------------------------------------------------


|------------------------------------------8\\---------------------------------
|--------------------------------------8---8\\---------------------------------
|--7b---7b---7b---5--------------------8---8\\---------------------------------
|-------------------7-7--7~~------/10------------------------------------------
|------------------------------------------------------------------------------
|------------------------------------------------------------------------------


|------------------------------------------------------------------------------
|-------8--8---8---10p8----10p8----10p8----8--------------------7--5-----------
|-------8--8---8---10p8----10p8----10p8----8--------------5-----7--5-----------
|--/10------------------10------10------10--------7p5--------7-----------------
|------------------------------------------------------7-----------------------
|------------------------------------------------------------------------------


|--------------------------------------------------------------5---5--------------
|------------7--5-----------5----5----5----5----5----5-------5---8---8-5----------
|--------5---7--5-----------5----5----5----5----5----5----7b-------------7-5------
|--7p5-----7---------7p5-----------------------------------------------------5~~--
|------7-------------------7------------------------------------------------------
|---------------------------------------------------------------------------------


Outro:
|-------------------------------------------------------------5--5--5--5----------
|-------------------------------------5-----------------5--5--5--5--5--5----------
|---------------------------7----x----5-----------------5--5--7--7--7--7----------
|------7-----7-------7------7----x----5-------7-----7-----------------------------
|---------------------------------------------------------------------------------
|--/5-----5-------5------5-----------------5-----5--------------------------------


|------------------------------------------------------------------------------------
|-------------------------------------0---------------------7b--7b-------------------
|---------------------------7---x--5--0--------------x-x-x--7b--7b---5---------------
|-----7-----7-------7-------7---x--5--------7-----7--x-x-x-------------7p5-----------
|------------------------------------------------------------------------------------
|--5-----5-------5-------5---------------5-----5-------------------------------------


|------------------------------------------------------------------------------
|------------------------------------------------------------------------------
|------------------------------------------------------------------------------
|-----7-----7------------------------------------------------------------------
|------------------------------------------------------------------------------
|--5-----5---------------------------------------------------------------------

10.Wasting My Hate

CHORDS:
  E5:     F5:     D5:     F5k:    E5k:
|-----| |-----| |-----| |-----| |-----|
|-----| |-----| |-----| |-----| |-----|
|--9--| |-10--| |--7--| |-----| |-----|
|--9--| |-9---| |--7--| |--3--| |-----|
|--7--| |-8---| |--5--| |--3--| |-----|
|-----| |-----| |-----| |--1--| |-----|

Intro: clean tone (Guitar I)
              Riff A.   h     h            p                 h
||-----------|--------------------|------------------|--------------------|
||-----------|--------------------|------------------|--------------------|
||--X--------|--------------------|------------------|--------------------|
||-----X-----|--------------------|------------------|--------------------|
||--------X--|--------------5--7--|--7---7--5-----5--|--5--------5--------|
||-----------|--0--0--5--7--------|------------7-----|-----5--7-----5-----|
Backwards rake-|

     p         p             h     h            p                h     h
|--------------------|-----------------|------------------|---------------|
|--------------------|-----------------|------------------|---------------|
|--------------------|-----------------|------------------|---------------|
|--------------------|-----------------|------------------|---------------|
|--------------------|-----------5--7--|--7---7--5-----5--|--5-------5----|
|--5--0--3--5--7--0--|--0--5--7--------|------------7-----|----5--7-----5-|
     p      b1/2
|---------------------||
|---------------------|| (End Riff A.)
|---------------------||
|---------------------||
|---------------------||
|--5--0--5--3------0--||


Chorus: w/Riff A.
Good day,____  how do,____ and I send__ a smile___ to you___

Don't___  waste,  waste__ your breath, and I won't waste

        p      h
|-------------------------||    
|-------------------------||    (Guitar I)
|-------------------------||
|-------------------------||
|-------------------------||
|--5--5--0---3--5--7---0--||
      my hate__ on you.


Faster (168 BPM)
Guitar I & II (dist. tone)
   p.m         p.m        p.m         p.m        p.m
|-----------|----------------------|----------------------||
|-----------|----------------------|----------------------||
|-----7--9--|-----7--9-------7--9--|-----7--9-------7--9--||
|-----7--9--|-----7--9-------7--9--|-----7--9-------7--9--||
|--0--5--7--|--0--5--7----0--5--7--|--0--5--7----0--5--7--||
|-----------|----------------------|----------------------||

Guitar I
 Riff B
          p.m      p.m      p.m      p.m      p.m      p.m      p.m
|------------------------|--------------------------|---------------------|
|------------------------|--------------------------|---------------------|
|------------------------|--------------------------|---------------------|
|------------------------|--------------------------|---------------------|
|------7-----7--6-----5--|--------------------------|---------------------|
|--0------0--------0-----|--0--0--7--7--7--6--0--5--|--5--5--5--0--5--4---|
             p.m               p.m  p.m      p.m      p.m      p.m     p.m
|----------------------------|---------------------|----------------------|
|----------------------------|---------------------|----------------------|
|----------------------------|---------------------|----------------------|
|----------------------------|---------------------|----------------------|
|--5-/-7--7-----5-/-7--7-----|----7----7--6-----5--|----------------------|
|--3-/-5--5--0--3-/-5--5--0--|-0----0--------0-----|--0--0--7--7--7--6--0-|
            p.m     p.m            p.m
|----------------------|---------------------------|
|----------------------|---------------------------| (End Riff B.)
|----------------------|---------------------------|
|-----X----------------|---------------------------|
|-----X----------------|-5-/-7--7-----5-/-7--7-----|
|--5--X--5--0--5--4--0-|-3-/-5--5--0--3-/-5--5--0--|
                                             Yeah.

 Guitars I & II
        p.m   p.m      p.m      p.m      p.m      p.m     p.m    p.m   p.m
||---------------------------|--------------------------|-----------------|
||---------------------------|--------------------------|-----------------|
||*--------------------------|--------------------------|-----------------|
||*--------------------------|--------------------------|-----------------|
||---------7-----7--6-----5--|--------------------------|---------------5-|
||---0--0-----0--------0-----|--0--0--7--7--7--6--0--5--|-5--5--5--0--4-3-|

|----------------------------    |--------------------------------
|1.          p.m                 |2.
|----------------------------||  |--------------------------------|
|----------------------------||  |--------------------------------|
|---------------------------*||  |--------------------------------|
|---------------------------*||  |--------------------------------|
|--5-/-7--7-----5-/-7--7-----||  |--5--/--7--7-----5--/--7--7-----|
|--3-/-5--5--0--3-/-5--5--0--||  |--3--/--5--5--0--3--/--5--5--0--|

Listen to record for chords timing.
(see chords on top of tab)
1st Verse:
(Rhy. Fig. 1)
E5              F5           E5                 F5
Ain't gonna waste my hate,     ain't gonna waste my hate on you
E5              F5        A  D5  E5    A  D5  E5    A  D5  E5
I think I'll keep it for my                 self._____________________
A  D5  E5   A  D5  E5.

 Riff C. (Guitar III)
|--------------------------|--------------------------|-------------------|
|--------------------------|--------------------------|-------------------|
|--------------------------|--------------------------|-------------------|
|--------------------------|--------------------------|--0--0--0--0--0--0-|
|--------------------------|--------------------------|-------------------|
|--0--0--0--0--0--0--0--0--|--1--1--1--1--1--1--1--1--|-------------------|
            Ain't gonna give no more                        ain't got time

|--------------------------|--------------------------|----------------|
|--------------------------|--------------------------|----------------|
|--------------------------|--------------------------|----------------|
|--------------------------|--------------------------|----------------|
|--0--0--0--0--0--0--0--0--|--------------------------|----------------|
|--------------------------|--0--0--0--0--0--0--0--0--|--1--1--1--1--1-|
   to help you score.            I think it's time you pleased yourself.
                                                (End Riff C.)
                                                 Guitar III out.       
        

A  D5  E5     A  D5  E5     A  D5  E5     A  D5  E5.        w/Riff A.
                                           yourself.        (1st 4 bars only)

Hlaf Time Feel
Chorus
%S%
 Riff A1 (Guitars I & II)                                     End Riff A1.  
          h     h           p                h              p         p
|-------------------|-----------------|----------------|--------------------|
|-------------------|-----------------|----------------|--------------------|
|-------------------|-----------------|----------------|--------------------|
|-------------------|-----------------|----------------|--------------------|
|-------------5--7--|-7---7--5-----5--|-5--------5-----|--------------------|
|-0--0--5--7--------|-----------7-----|----5--7-----5--|--5--0--3--5--7--0--|
         Good day_______   how do and I   send a smile      to you

 Guitar II  w/Riff A1.
        h     h         b1/2                                   h
|-----------------|------------------|--------------|------------------|
|-----------------|------------------|--------------|------------------|
|-----------------|------------------|--------------|------------------|
|-----------------|------------------|--------------|------------------|
|-----------5--7--|--7--9---9--7--9--|--9--9--9--7--|--7--7--5--7--7---|
|--0--5--7--------|------------------|--------------|----------------0-|
   Don't waste   waste your breath     and I won't waste my hate on you

                           2nd time to Coda I
                           3rd time to Coda II
                                                   (end Half Time feel)
|------------------------|-----------------------|---------------------|
|------------------------|-----------------------|---------------------|
|------------------------|-----------------------|---------------------|
|------------------------|-----------------------|---------------------|
|------------------------|-----------------------|---------------------|
|--(0)-------------------|--(0)------------------|---------------------|
   Waste my hate on ____               you.____                 Hate !

w/Riff B (Guitars I & II)

Listen to record for chords timing.
(see chords on top of tab)
2nd Verse:

E5              F5           E5                 F5
Think you're worthy now?      You think enough even raise the brow
E5              F5        A  D5  E5    A  D5  E5    A  D5  E5
and to laugh and tip the two pronged_  crown ?                        
A  D5  E5   A  D5  E5.

w/Riff C
E5k
Well I see my hands I see my feet
D5                              F5k
I feel that blood that pumps in beat
E5k                     A  D5  E5     A  D5  E5    A  D5  E5
But where the hell's my mind goin' now?
D5   E5
Dead gone now.

w/Riff A. (1st 4 bars only) Guitars I & II            D.S. al Coda I
                                                                 %S%

Coda I:
|-------|-----|----------------------------------|---------------------|
|-------|-----|----------------------------------|---------------------|
|-------|-----|----------------------------------|---------------------|
|-------|-----|----------------------------------|---------------------|
|-------|-----|----------------------------------|---------------------|
|--(0)--|--0--|--(0)-----------------------------|--(0)----------------|
                Think I'll keep it for my self

    p.m      p.m      p.m         p.m      p.m
||---------------------------|--------------------------||
||---------------------------|--------------------------||  4 times.
||*-----7--9-----7--9-----7--|--9-----7--9-----10--10--*||
||*-----7--9-----7--9-----7--|--9-----7--9-----10--10--*||
||---0--5--7--0--5--7--0--5--|--7--0--5--7--0---8---8---||
||---------------------------|--------------------------||


Listen to record for chords timing.
(see chords on top of tab)

3rd Verse:

E5  E5k                         F5k  E5k                            F5k
    Ain't gonna waste my hate             But I'm so greedy when they say
E5k                        A  D5  E5    A E5 D5  A E5 D5  A E5 D5  A D5 E5
    Better to give than to receive
w/Riff C.
E5k                           D5                        A5          F5k    
    Ain't gonna waste my hate no. Ain't got time to waste my hate on you
E5k                          A5 D5 E5
    I think I'll keep it all for my

  p.m                 * Guitar II indicated to left of slashes in TAB
|--------------------------------|-------------------------------------|
|---------------------*----------|-------------------------------------|
|-----7--9----12-----12/7--12/9--|--12--12--12--12--12--12--12--12-----|
|-----7--9----12-----12/7--12/9--|--12--12--12--12--12--12--12--12-----|
|--0--5--7-----0--------5-----7--|-------7---7---7---7---7---7---7-----|
|--------------------------------|-------------------------------------|
 self___________

w/Riff A. (1st 4 bars only) Guitars I & II            D.S. al Coda II

Coda II:
|-------------|-----|-------|-------|----------------------------------|
|-------------|-----|-------|-------|----------------------------------|
|-------------|-----|-------|-------|----------------------------------|
|-------------|-----|-------|-------|----------------------------------|
|------15--\--|-----|-------|-------|----------------------------------|
|-(0)--15--\--|--0--|--(0)--|--(0)--|--(0)--(10)--/--(24)--------------|
                  Think I'll keep it for my self             Yeah!

Guitars I & II
  p.m      p.m      p.m         p.m      p.m
|--------------------------|----------------------------||
|--------------------------|----------------------------||
|-----7--9-----7--9-----7--|--9-----7--9--------10--10--||
|-----7--9-----7--9-----7--|--9-----7--9--------10--10--||
|--0--5--7--0--5--7--0--5--|--7--0--5--7--0--0---8---8--||
|--------------------------|----------------------------||
                                                Hate !
11.Mama Said

Main Riff (clean):
|-1---1-0-1-1-1-3--3-1--1-0--0--0--0----0---0-0--0-0-----------------|
|-3---3-3-3-3-3-3--3-3--3-3--1--1--1h3--1---1-1--0-1-----------------|
|-2---2-2-2-2-2-2--2-2--2-2--0--0--0----2---2-2--2-2-----------------|
|-0---0-0-0-0-0-0--0-0--0-0--2--2--2----2---2-2--2-2-----------------|
|----------------------------3--3--3----0---0-0--0-0-----------------|
|--------------------------------------------------------------------|


Chorus part 1(clean, let ring):
|-1----3----0----3---3--3-3--3-3--3-3-3-3----------------------------|
|-3----3----1----3---3--3-3--3-3--3-3-3-3----------------------------|
|-2----0----2----0---0--0-0--0-0--0-0-0-0----------------------------|
|-0----2----2----0---0--0-0--0-0--0-0-0-0----------------------------| x3
|------3----0----2---2--2-2--2-2--2-2-2-2----------------------------|then:
|------0---------3---3--3-3--3-3--3-3-3-3----------------------------|

|-1--3-----3--0---0--0-0--0-0--0-0-----------------------------------|
|-3--3--3--3--1---1--1-1--1-1--1-1-----------------------------------|
|-2--0--3--0--2---2--2-2--2-2--2-2-----------------------------------|
|-0--2--1--0--2---2--2-2--2-2--2-2-----------------------------------|
|----3-----2--0---0--0-0--0-0--0-0-----------------------------------|
|----0-----3---------------------------------------------------------|

Chorus, part 2:
|--------------------------------------------------------------------|
|-15----15-----------15----15-15-------------------------------------|
|-14^^^-14^r-12-14^H----14----14r-12~--------------------------------|
|--------------------------------------------------------------------|
|--------------------------------------------------------------------|
|--------------------------------------------------------------------|

Chorus, part 2a:
|--------------------------------------------------------------------|
|--------------------------------------------------------------------|
|-15----15-----------15-15-15-15-------------------------------------|
|-14^^^-14^r-12-14^H----------14r-12~--------------------------------|
|--------------------------------------------------------------------|
|--------------------------------------------------------------------|

Bridge:
|-1---1-0--3--3-3--3-3-3-3--3--3-3---1--1-1--1-1-1-1-----------------|
|-3---3-0--3--3-3--3-3-3-3--3--3-3---1--1-1--1-1-1-1-----------------|
|-2---2-0--0--0-0--0-0-0-0--0--0-0---2--2-2--2-2-2-2-----------------|
|-0---0----0--0-0--0-0-0-0--2--2-2---3--3-3--3-3-3-3-----------------|
|----------2--2-2--2-2-2-2--3--3-3---3--3-3--3-3-3-3-----------------|
|----------3--3-3--3-3-3-3--0--0-0---1--1-1--1-1-1-1-----------------|

12.Thorn Within

Tempo=116
              Rhy Fig 1                          end Rhy Fig 1  
|------------|--------------------|---------------------------|
|------------|-*------------------|-------------------------*-|
|------------|--------------------|---------------------------|
|------------|-----sl-------------|---------------------------|
|------5-----|-*--5/-7------------|--(7)--------------5-----*-|
|---0--3--0--|----3/-5------------|--(5)-----------0--3--0----|
         PM                                             PM

 w/ Rhy Fig 1 
 Rhy Fig 1A                               end Rhy Fig 1A
|---------------------------|---------------------------|
|-*-------------------------|-------------------------*-|
|--------------7----8----7--|--(7)----------------------|
|-----sl-------5----5----5--|--(5)----------------------|
|-*--5/-7-------------------|-------------------5-----*-|
|----3/-5-------------------|----------------0--3--0----|
                                                  PM

 w/ Rhy Figs 1 & 1A
 Rhy Fig 1B                                end Rhy Fig 1B
|---------------------------|----------------------------|
|-*-------------------------|--------------------------*-|
|--------------7----8----7--|--(7)--5--------------------|
|-----sl-------5----5----5--|--(5)--5----7---------------|
|-*--5/-7-------------------|------------7-------5-----*-|
|----3/-5-------------------|-----------------0--3--0----|

                                                                          3 times
 Riff A                                                                end Riff A
|--------------------------|--------------------------|--------------------------|
|-*------------------------|--------------------------|------------------------*-|
|--------------------------|--------------------------|--------------------------|
|--------------------------|--------------------------|--------------------------|
|-*----4~~-----3~~-----2~~-|-(2)-----1~~-----0--------|-4--4--4-4----5---4-----*-|
|---2-------2-------2------|------2-------2-------2-0-|-2--2--2-2-0--3---2--0----|
                                                 PM-------------------|

|------------------------|--------------------|------------------------|
|------------------------|--------------------|------------------------|
|------------------------|--------------------|--4----------3-------2--|
|------------------------|--------------------|------------------------|
|-----4~~-----3~~-----2--|--(2)---------------|--2----------1-------0--|
|--2-------2-------2-----|---------------0-0--|--0---------------------|

|------------------------|--------------------|------------------------|
|------------------------|--------------------|------------------------|
|--(2)-------------------|--(2)---------------|--(2)-------------------|
|--(-)-------------------|--(-)---------------|--(-)-------------------|
|--(0)-------------------|--(0)---------------|--(0)-------------------|
|------------------------|--------------------|------------------------|

 Verse
 (let ring) clean w/ chorus
|---------------0--------|---------------------------|--------------------|
|-*------------------0---|--(0)----------------------|--------------------|
|------------------------|---------------------------|--2-h-4-------------|
|---------2--------------|----------------------0----|--2-h-4-------------|
|-*--0-------------------|-------------------3-------|--------------------|
|------------------------|---------------------------|--------------------|
          Forgive...                                         for...  

|------------2---(2)/--3---2----|--0-------0------------0--|----0------------|
|-------------------------------|--0----0---------------2--|----2------------|
|--(4)---X---4---(4)/--5---4----|--4--------------------3--|----3------------|
|--(4)---X----------------------|--5--------------------4--|----4------------|
|-------------------------------|--------------------------|-----------------|
|-------------------------------|--------------------------|-----------------|
                                       Find...

                                          Rhy Fig 2A
|-------------2-----|--------------------|------------0---------|
|-------------------|--2-----------------|-----------------0----|
|-------4-----------|--3-----------------|-------2--------------|
|--4----------------|--4-----------------|--2-------------------|
|-------------------|--------------------|----------------------|
|-------------------|--------------------|----------------------|
|       I feel...
|
|                                         Rhy Fig 2
|-------------------|--------------------|----------------------|
|-------------------|--------------------|----------------------|
|-------------------|--------------------|----------------------|
|-------------------|--------------------|----------------------|
|-------------------|--------------5-----|--5/-7----------------|
|-------------------|-----------0--3--0--|--3/-5----------------|

|----------------------|--------------------|---------------2--2/-3--2--|
|----------------------|--------------------|---------------------------|
|----------------------|--2-h-4-------------|--(4)-------X--4--4/-5--4--|
|----------------0-----|--2-h-4-------------|--(4)-------X--------------|
|--------------3----3--|--------------------|---------------------------|
|----------------------|--------------------|---------------------------|
|
|
| 
|----------------------|--------------------|---------------------------|
|----------------------|--------------------|---------------------------|
|----------------------|--------------------|---------------------------|
|----------------------|--------------------|---------------------------|
|--(7)-----------7-----|--7/-9--------------|--(9)----------------9--9--|
|--(5)--------0--5--0--|--5/-7--------------|--(7)-------------0--7--7--|

                                                                     end Rhy Fig 2A
|--0----------------|------------------|-----------------|-------------------------|
|--0----------------|------------------|-----------------|-------------------------|
|--4--------4-------|--3-------6-------|--4-------7------|--6-----------9----------|
|--5----------------|------------------|-----------------|-------------------------|
|-----------2-------|--1-------4-------|--2-------5------|--4-----------7----------|
|-------------------|------------------|-----------------|-------------------------|
|
|
|                                                                     end Rhy Fig 2
|-------------------|------------------|-----------------|-------------------------|
|-------------------|------------------|-----------------|-------------------------|
|-------------------|------------------|--4---4---4---4--|-----2--2--2--2--2-------|
|-------------------|------------------|--4---4---4---4--|-----2--2--2--2--2-------|
|--9\-5----------5--|--5\-4---------4--|--2---2---2---2--|--0--0--0--0--0--0-------|
|--7\-3----------3--|--3\-2---------2--|-----------------|-------------------/12\--|

 Chorus
 ------
 SS 
 w/ Riff A (6 times)      Note: 3rd time to Coda (before Rhy Fill 1)

 Then

 Rhy Fill 1                                        end Rhy Fill 1
|--------------------------------|-------------------------------|
|--------------------------------|-------------------------------|
|------------12---12\------------|----12---12\-------------------|
|------------12---12\------------|----12---12\-------------------|
|--5---5-----10---10\-----5---5--|----10---10\-----5-------5-----|
|--3---3------------------3---3--|----------------3---0---3---0--|
                                                     PM      PM

 Half time feel                     end Half time feel
  ____________________________________________________
 |1.                                                  |
  w/ Rhy Fig 1B (2 times)
  ____________________________________________________
 |2.
  w/ Rhy Fig 1B (2 times) Rhy Fill 1 (2 times)

 Guitar Solo
|---------------------------------|------------------------------|
|--8-b10-----------r8--------5----|--(5)-------------------------|
|----------------------------5----|--(5)-------------------5/-7--|
|---------------------------------|-------7-~-~-----5-h-7--------|
|---------------------------------|------------------------------|
|---------------------------------|------------------------------|

|--------------------------|----------------------|-----------------------------|
|--10b12-r10--7------------|----------------------|-----------------------------|
|-------------7-----7/-11--|--9h11-~-~-----(11)\--|--11--b12--11--9-------------|
|----------------9---------|----------------------|------------------12--11--9--|
|--------------------------|----------------------|-----------------------------|
|--------------------------|----------------------|-----------------------------|

|----------------------------|----------------------------|----------------------|
|----------------------------|----------------------------|----------------------|
|----------------------------|-------------------------9--|----------------------|
|--8-~-~--8--8--9---11---12--|--9-~-~--9--9--11---12------|--11-~-~--------------|
|----------------------------|----------------------------|----------------5-----|
|----------------------------|----------------------------|-------------0--3--0--|

 3rd verse w/ Rhy Figs 2 & 2A

 then D.S. al Coda SS

 Coda
|--------------------------|-------------------------------|
|--------------------------|-------------------------------|
|----------12--12\---------|----12--12\--------------------|
|----------12--12\---------|----12--12\--------------------|
|--5--5----10--10\---5--5--|----10--10\---5-5-5-5-5-5-5-5--|
|--3--3--------------3--3--|--------------3-3-3-3-3-3-3-3--|
                                         PM..............| 

 Outro
 w/ Riff A (1st 2 bars only) (12 times)

13.Ronnie

eb|-----------------------------------------------------------------------------
Bb|----------------------------------1b-----------------------------------------
Gb|-----2h3---2~-------2h3---2~---------------2h3---2~-------2h3---2~-----------
Db|-----------------------------------------------------------------------------
Ab|--0--------------0-------------0--------0--------------0---------------------
Eb|-----------------------------------------------------------------------------
                                                                              

eb|----------------------------------------------------------------------------|
Bb|-----5b6r5-----------------------------------1b-----8--8--8-----------------|
Gb|-----6b7r6------2h3---2~------2h3---2~--------------7b-7b-7brp5---5-7-------|
Db|----------------------------------------------------------------7-----------|
Ab|--0------------------------0--------------0------0--------------------------|
Eb|----------------------------------------------------------------------------|
                                                                              

Bridge
-------

eb|-----------------------------|----------------------------------------------|
Bb|-----------------------------|----------------------------------------------|
Gb|-----2----2----2-------------|--5--4-------------7--------------------------|
Db|--------------------0h2------|--5--4--2--5--x-x--7--------------------------|
Ab|---0----0----0----3-----3p0--|--3--2--2--5--x-x--5--------------------------|
Eb|-----------------------------|--------0--3--x-x-----------------------------|
                                                                              

Verses
-------

eb|----------------------------------------------------------------------------|
Bb|------------x-x------x-x--------------------x-x-----------------------------|
Gb|------------x-x--9---x-x--9--9--------------x-x--9--9--7--7--5--------------|
Db|------------x-x--9---x-x--9--9--------------x-x--9--9--7--7--5--------------|
Ab|--6/7h10p7--x-x--7---x-x--7--7----6/7h10p7--x-x--7--7--5--5--3--------------|
Eb|----------------------------------------------------------5-----------------|
                                                                              

Misc Fill
----------

eb|---------------------------------|
Bb|---------8--8--8-----------------|
Gb|---------7b-7b-7brp5---5-7-------|
Db|---------------------7-----------|
Ab|---------------------------------|
Eb|---------------------------------|

14.The Outlaw Torn

Intro Riff:
===========
With wah
|--------------------------------|
|--------------------------------|
|-10~\---------------------------|
|-10~\-10-10--10-10--10-10--10---|
|-8~~\-8--8---8--8---8--8---8----|
|------0--0---0--0---0--0---0----|
|      PM......................	 |
|				 | 6 Times
|				 |
|--------------------------------|
|--------------------------------|
|-10~\---------------------------|
|-10~\-10-10--10-10--10-10--10---|
|-8~~\-7--7---7--7---7--7---7----|
|------0--0---0--0---0--0---0----|
       PM.....................
Then

Both guitars
With Wah
|-------------------------|
|-------------------------|
|-10-10-10-10-10-10-10-10-|
|-10-10-10-10-10-10-10-10-|
|-8--8--8--8--8--8--8--8--|
|-------------------------|

Then


Chorus riff:
============
with Heavy distortion
 (D5)/E5        (D5)/E5         G5\F#5 B5    G5\F#5 B5    G5\F#5/G5 B5
|----------------------------------------------------------------------------|
|----------------------------------------------------------------------------|
|----------------------------------------------------------------------------|
|----------------------------------------------------------------------------|
|-(7)/9~-X-9--X----9--(7)/9~-X-9--X-9--12\11--------12\11---------11/12/11---|
|-(5)/7~-X-7--X----7--(5)/7~-X-7--X-7--10\9--12~-12-10\9--12~-12--9-/10/9----|
|-----0--X-0--X-(0)0---0--0--X-0--X-0--------10~-10-------10~-10----------10-|
|	 	 PM			    	  	  	             |
|								             | 4 Times
|						    		             | 
|----------------------------------------------------------------------------|
|----------------------------------------------------------------------------|
|----------------------------------------------------------------------------|
|----------------------------------------------------------------------------|
|-(7)/9~-X-9--X----9--(7)/9~-X-9--X-9----------------------------------------|
|-(5)/7~-X-7--X----7--(5)/7~-X-7--X-7--10\9---------10\9----------9-/10/9----|
|-----0--X-0--X-(0)0---0--0--X-0--X-0--------10~-10-------10~-10----------12-|
                 PM


Then
 (D5)/E5
|-------------------------------|-|-|-|-|
|-------------------------------|-|-|-|-|
|-(7)/9~~~~~~~~~~~~~~~~~~~~-X\--|-|-|-|-|
|-(7)/9~~~~~~~~~~~~~~~~~~~~-X\--|-|-|-|-|
|-(5)/7~~~~~~~~~~~~~~~~~~~~-X\--|-|-|-|-|
|-------------------------------|-|-|-|-|


Verse 1:
========
And now I wait my whole lifetime
For You
And now I wait my whole lifetime
For You
 (D5)/E5
|-------------------------------|
|-------------------------------|
|-(7)/9~~~~~~~~~~~~~~~~~~~~-X\--|
|-(7)/9~~~~~~~~~~~~~~~~~~~~-X\--|
|-(5)/7~~~~~~~~~~~~~~~~~~~~-X\--|
|-------------------------------|


Verse 2:
========
I ride the dirt, I ride the tide
For you
I search the outside, search the inside
For you


Pre Chorus:
===========
A5/B5
|----------------------------------------|
|----------------------------------------|
|----------------------------------------|
|-7/9~~~~~~~~~~~~~~~~~~~~~~~~~~~~~~~~~---|
|-7/9~~~~~~~~~~~~~~~~~~~~~~~~~~~~~~~~~---|
|-5/7~~~~~~~~~~~~~~~~~~~~~~~~~~~~~~~~~---|
For you To take back what you left me

I know I'll always burn to be
The one who seeks so I may find
And now I wait my whole life-


Chorus: (The rythm changes sometimes but I'm too lazy to figur it out.)
=======
 (D5)/E5        (D5)/E5         G5\F#5 B5    G5\F#5 B5    G5\F#5/G5 B5
|----------------------------------------------------------------------------|
|----------------------------------------------------------------------------|
|----------------------------------------------------------------------------|
|----------------------------------------------------------------------------|
|-(7)/9~-X-9--X----9--(7)/9~-X-9--X-9--12\11--------12\11---------11/12/11---|
|-(5)/7~-X-7--X----7--(5)/7~-X-7--X-7--10\9--12~-12-10\9--12~-12--9-/10/9----|
|-----0--X-0--X-(0)0---0--0--X-0--X-0--------10~-10-------10~-10----------10-|
|	 	 PM			    	  	  	             |
|								             | 4Times
|						    		             | 
|----------------------------------------------------------------------------|
|----------------------------------------------------------------------------|
|----------------------------------------------------------------------------|
|----------------------------------------------------------------------------|
|-(7)/9~-X-9--X----9--(7)/9~-X-9--X-9----------------------------------------|
|-(5)/7~-X-7--X----7--(5)/7~-X-7--X-7--10\9---------10\9----------9-/10/9----|
|-----0--X-0--X-(0)0---0--0--X-0--X-0--------10~-10-------10~-10----------12-|
                 PM
1. -time_________________________________			   Outlaw of
2. Torn__________________________________                     
3.								   Outlaw of
4. Torn 							   And I'm Torn


Verse 3:
========
So on I wait my whole lifetime
For You
So on I wait my whole lifetime
For You
 (D5)/E5
|-------------------------------|
|-------------------------------|
|-(7)/9~~~~~~~~~~~~~~~~~~~~~-\--|
|-(7)/9~~~~~~~~~~~~~~~~~~~~~-\--|
|-(5)/7~~~~~~~~~~~~~~~~~~~~~-\--|
|-------------------------------|

Verse 4:
=========
The more I search, the more my need
For you
The more I bless, the more I bleed
For You

Pre Chorus:
===========
A5/B5
|-----------------------------------------------------------------------------|
|-----------------------------------------------------------------------------|
|-----------------------------------------------------------------------------|
|-7/9~~~~~~~~~~~~~~~~~~~~~~~~~~~~~~~---7/9~~~~~~~~~~~~~~~~~~~~~~~~~~~~~~~~~---|
|-7/9~~~~~~~~~~~~~~~~~~~~~~~~~~~~~~~---7/9~~~~~~~~~~~~~~~~~~~~~~~~~~~~~~~~~---|
|-5/7~~~~~~~~~~~~~~~~~~~~~~~~~~~~~~~---5/7~~~~~~~~~~~~~~~~~~~~~~~~~~~~~~~~~---|
   You make me smash the clock and feel___     I'd rather die behind the wheel__

|------------------------------------------------------------------------------|
|------------------------------------------------------------------------------|
|------------------------------------------------------------------------------|
|-(9)\5/7------------------------------5/7~~~~~~~~~~~~~~~~~~~~~~~~~~~~~~~~~~~--|
|-(9)\5/7------------------------------5/7~~~~~~~~~~~~~~~~~~~~~~~~~~~~~~~~~~~--|
|-(7)\3/5~~~~~~~~~~~~~~~~~~~~~~~-------3/5~~~~~~~~~~~~~~~~~~~~~~~~~~~~~~~~~~~--|
_____       Time was never on my side_____ So on I wait my whole lifetime________


Chorus
======

Bridge:
=======
|---------------------------------------------------------------------|
|---------------------------------------------------------------------|
|-7/9~~~~~~~~-7/9~~~~~~-----------\-7~--7-7-----7~-7-7---7~-7-7-------|
|-7/9~~~~~~~~-7/9~~~~~~-----------\-7~--7-7-----7~-7-7---7~-7-7-------|
|-5/7~~~~~~~~-5/7~~~~~~-----------\-5~--5-5-----5~-5-5---5~-5-5-------|
|-0~~~~~~~~~~-0~~~~~~~~-----------------------------------------------|
  Hear me - And if close my mind in fear	Please pry it open

|---------------------------------------------------------------------|
|---------------------------------------------------------------------|
|-7/9~~~~~~~~-7/9~~~~~~-----------\-7~--7-7-----4~-4-4---4~-4-4-------|
|-7/9~~~~~~~~-7/9~~~~~~-----------\-7~--7-7-----4~-4-4---4~-4-4-------|
|-5/7~~~~~~~~-5/7~~~~~~-----------\-5~--5-5-----2~-2-2---2~-2-2-------|
|-0~~~~~~~~~~-0~~~~~~~~-----------------------------------------------|
  See me  - And if my face becomes sincere	Beware

|---------------------------------------------------------------------|
|---------------------------------------------------------------------|
|-7/9~~~~~~~~-7/9~~~~~~-----------\-7~--7-7-----7~-7-7---7~-7-7-------|
|-7/9~~~~~~~~-7/9~~~~~~-----------\-7~--7-7-----7~-7-7---7~-7-7-------|
|-5/7~~~~~~~~-5/7~~~~~~-----------\-5~--5-5-----5~-5-5---5~-5-5-------|
|-0~~~~~~~~~~-0~~~~~~~~-----------------------------------------------|
  Hold me - And when I start to come undone     Stitch me together

|---------------------------------------------------------------------|-----------------|
|---------------------------------------------------------------------|-----------------|
|-7/9~~~~~~~~-7/9~~~~~~-----------\-7~--7-7-----7~-7-7---7~-7-7-------|-/9~~~~~~~~~~~~~~|
|-7/9~~~~~~~~-7/9~~~~~~-----------\-7~--7-7-----7~-7-7---7~-7-7-------|-/9~~~~~~~~~~~~~~|
|-5/7~~~~~~~~-5/7~~~~~~-----------\-5~--5-5-----5~-5-5---5~-5-5-------|-/7~~~~~~~~~~~~~~|
|-0~~~~~~~~~~-0~~~~~~~~-----------------------------------------------|--0--------------|
  Save me - And when you see me strut		Remind me of what left this outlaw torn 


Interlude:
|-------------------------------------------------------------------------------------|
|-------------------------------------------------------8-10b(12)-8-10b(12)-10b(12)~~-|
|-------0-3b(4)--0-----------0-3b(4)-0----------/9~~~~--------------------------------|
|-2~~~~------------2~~~\-2~~~----------2~~~~-\----------------------------------------|
|-------------------------------------------------------------------------------------|
|-------------------------------------------------------------------------------------|

|----------------------------------------------------------------------------------|
|--------8-10b(12)-8-10b(12)-10b(12)~~~--8-10b(12)-8-------8-10b(12)-8--10b(12)~~~-|
|-/9~~~~---------------------------------------------9-\-7-------------------------|
|----------------------------------------------------------------------------------|
|----------------------------------------------------------------------------------|
|----------------------------------------------------------------------------------|
|----------------------------------------------------------------------------------|

|------------------------------------------------------------------------------------------|
|------------------------------------------------------------------------------------------|
|------0-2~~-4-----------------0-2~~-4---------------------2-4-----4-2-------4-2--4-5~-7~~-|
|-2~~~---------0~-5-2~~~~--2~~~--------0~-5-2~~~~------0-0-----0-0-------------------------|
|--------------------------------------------------2~~----------------3b(5)r3--------------|
|------------------------------------------------------------------------------------------|
(In the Interlude and the first part of the outro you should use the volume-pedal or 
just the volume-controller at the first an the last note. You should do it to emphasize
the notes in the middle. Listen to the song and you know what I mean.)


Solo: with Wah 
====
The chorus-riff is played 4 times under the solo.
I know that the solo isn't perfectly figured out. But there so many effects
that solo is very difficult to figure out. I think there some notes that are 
right. 

 (D5)/E5        (D5)/E5         G5\F#5 B5    G5\F#5 B5    G5\F#5/G5 B5
|----------------------------------------------------------------------------|
|----------------------------------------------------------------------------|
|----------------------------------------------------------------------------|
|----------------------------------------------------------------------------|
|-(7)/9~-X-9--X----9--(7)/9~-X-9--X-9--12\11--------12\11---------11/12/11---|
|-(5)/7~-X-7--X----7--(5)/7~-X-7--X-7--10\9--12~-12-10\9--12~-12--9-/10/9----|
|-----0--X-0--X-(0)0---0--0--X-0--X-0--------10~-10-------10~-10----------10-|
|	 	 PM			    	  	  	             |
| (   Pick it as fast as you can     )					     |
|----------------------------------------------------------------------------|
|-12-12-12-12-12-12-12-12-12-12-12-12-12--12--12--12--12--12--12--12--12b~~~-|
|-12-12-12-12-12-12-12-12-12-12-12-12-11b-11b-11b-11b-11b-11b-11b-11b-12b~~~-|
|----------------------------------------------------------------------------|
|----------------------------------------------------------------------------|
|----------------------------------------------------------------------------|


 (D5)/E5        (D5)/E5         G5\F#5 B5    G5\F#5 B5    G5\F#5/G5 B5
|----------------------------------------------------------------------------|
|----------------------------------------------------------------------------|
|----------------------------------------------------------------------------|
|----------------------------------------------------------------------------|
|-(7)/9~-X-9--X----9--(7)/9~-X-9--X-9--12\11--------12\11---------11/12/11---|
|-(5)/7~-X-7--X----7--(5)/7~-X-7--X-7--10\9--12~-12-10\9--12~-12--9-/10/9----|
|-----0--X-0--X-(0)0---0--0--X-0--X-0--------10~-10-------10~-10----------10-|
|	 	 PM			    	  	  	             |
|									     |
|----------------------------------------------------------------------------|
|-15--15--15--15--15--15--15--15---------------------------------------------|
|-14b-14b-14b-14b-14b-14b-14b-14b---12-------12------------------------------|
|----------------------------------------14~-----14~--X-/14~-X-/14~-X-/14~---|
|----------------------------------------------------------------------------|
|----------------------------------------------------------------------------|

 (D5)/E5        (D5)/E5         G5\F#5 B5    G5\F#5 B5    G5\F#5/G5 B5
|----------------------------------------------------------------------------|
|----------------------------------------------------------------------------|
|----------------------------------------------------------------------------|
|----------------------------------------------------------------------------|
|-(7)/9~-X-9--X----9--(7)/9~-X-9--X-9--12\11--------12\11---------11/12/11---|
|-(5)/7~-X-7--X----7--(5)/7~-X-7--X-7--10\9--12~-12-10\9--12~-12--9-/10/9----|
|-----0--X-0--X-(0)0---0--0--X-0--X-0--------10~-10-------10~-10----------10-|
|	 	 PM			    	  	  	             |
|slide-echo-artificial-harmic-part: I'm tabbed it wrong ... If you don't like|
|my tab, just slide down in way						     |
|									     |
|-17\----<15>\---14\---<12>\------<10>\-----<9>\------<7>\-----x\-----0/22/--|
|----------------------------------------------------------------------------|
|----------------------------------------------------------------------------|
|----------------------------------------------------------------------------|
|----------------------------------------------------------------------------|
|----------------------------------------------------------------------------|

 (D5)/E5        (D5)/E5         G5\F#5 B5    G5\F#5 B5    G5\F#5/G5 B5
|----------------------------------------------------------------------------|
|----------------------------------------------------------------------------|
|----------------------------------------------------------------------------|
|----------------------------------------------------------------------------|
|-(7)/9~-X-9--X----9--(7)/9~-X-9--X-9--12\11--------12\11---------11/12/11---|
|-(5)/7~-X-7--X----7--(5)/7~-X-7--X-7--10\9--12~-12-10\9--12~-12--9-/10/9----|
|-----0--X-0--X-(0)0---0--0--X-0--X-0--------10~-10-------10~-10----------10-|
|	 	 PM			    	  	  	             |
|									     |
|--------------------------------/15~----/15~--/15-/15----/15-----/15-22b(24)|
|------------------------------------------------------17~----17~------------|
|-----12-14~~~-----12-14~~~--14~-----14~-------------------------------------|
|-/14-----------14-----------------------------------------------------------|
|----------------------------------------------------------------------------|
|----------------------------------------------------------------------------|
Bridge
======


Outro:
=======
|    Use the volume-controller again     | the other Guitar just strum down the E5 
|----------------------------------------|------------------------------------------------|
|----------------------------------------|------------------------------------------------|
|-------0-3b(4)-0--------0-3b(4)~~~~~~~~-|-------------------------------------0-2-4-2-0--|
|-2~~~~-----------2~~~~~-----------------|----2--2--2---2-4-5-4-0----2--2--2--------------|
|----------------------------------------|---2--2--2--2-------------2--2--2--2------------|
|----------------------------------------|--0--0--0--0-------------0--0--0--0-------------|


|--------------------------------------------------------------------------|
|--------------------------------------------------------------------------|
|--------------------------------------0-2-4-2-0h2p0-----------------------|
|---2--2--2---2-4-5-4-0-----2--2--2---------------------2-2-2---2-4-5-4-0--|
|--2--2--2--2--------------2--2--2--2------------------2-2-2-2-------------|
|-0--0--0--0--------------0--0--0--0------------------0-0-0-0--------------|

|----------------------------------------------------------------------|
|----------------------------------------------------------------------|
|------------0-2-4-2-0-------------------------------------------------|
|---2-2-2-----------------2-2-2---2-4-5-4-0-----2-2-2---2-2h5-2-2h7\5~-|
|--2-2-2-2---------------2-2-2-2---------------2-2-2-2-----------------|
|-0-0-0-0---------------0-0-0-0---------------0-0-0-0------------------|


| This part is played two times  |
|--------------------------------|
|--------------------------------|
|------------------------0-4-2-0-|
|-2~-2-2-2-5-2--2~-2-2-2---------|
|-2~------------2~---------------|
|-0~------------0~---------------|

|---------------------------------------------------8-----8---8-|
|----------8---------10-12-10-8~----------8---------8-----8---8-|
|-/9-9-9-9---9~--9-9--------------9-9-9-9---9~--9-9---9-9---9---|
|---------------------------------------------------------------|
|---------------------------------------------------------------|
|---------------------------------------------------------------|

|-------------------------------------------------------------|
|-------------------------------------------------------------|
|-------------------------------------------------------------|
|---2-2-2--2-4-5-4-0----2-2-2--5p4p2-5/7~---2-2-2--2-4-5-4-0--|
|--2-2-2-2-------------2-2-2-2-------------2-2-2-2------------|
|-0-0-0-0-------------0-0-0-0-------------0-0-0-0-------------|

|----------------------------------------------------------------------------|
|----------------------------------------------------------------------------|
|---------------------------------------------------------3b(4)r3-3b(4)r3-0~-|
|---2-2-2--5h7-5h7-5h7-5h7~----2-2-2--2-4-5-4-0----2-2-2---------------------|
|--2-2-2-2--------------------2-2-2-2-------------2-2-2-2--------------------|
|-0-0-0-0--------------------0-0-0-0-------------0-0-0-0---------------------|

|-------------------------------------------------------------------------|
|-------------------------------------------------------------------------|
|------------------------------5h7-555-4h5-444-7\5~------------0-2-4-2-0~-|
|---2-2-2--2-4-5-4-0----2-2-2--------------------------2-2-2--------------|
|--2-2-2-2-------------2-2-2-2------------------------2-2-2-2-------------|
|-0-0-0-0-------------0-0-0-0------------------------0-0-0-0--------------|

|        This part is played two times           |
|------------------------------------------------|
|-12-12~-----------------------------------------|
|-12-12~-9---------------------------------------|
|----------12p9----------------------------------|
|--------------12p10~--------10-12b(14)r12b(14)~-|
|----------------------12-12---------------------|

|------------------8-----10\8------------------8-XX-12-XX-12-12-|
|---------8--------8-----10\8----------8-------8-XX-12-XX-12-12-|
|-9-9-9-9---9~-999---999-------9-9-9-9---9~-9-9-----------------|
|---------------------------------------------------------------|
|---------------------------------------------------------------|
|---------------------------------------------------------------|

|--------------------------------|
|--------------------------------|
|--------------------------------| Fade out
|---2-2-2--2-4-5-4-0~----2-2-2---|
|--2-2-2-2--------------2-2-2-2--|
|-0-0-0-0--------------0-0-0-0---|
comments
print report bad tab
I want to post or [tab]
guest
You may want to rate the tab now too:
select rating
Please do not post tabs as comments. Select "correction" instead!