Oops, an error
Loading. Please wait.

Master Of Puppets Tab

163,453 views 318 this week
5 commentsread comments
1 2 3 4 5
accurate
x 12
Autoscroll
+/-
esc
set tempo
stop
Contributor
Hey! There's an official Ultimate Guitar app which is ideal
for learning songs when you're away from computer. Get the app
WARNING: You are trying to view
                                    content from Ultimate-Guitar.com
                                    in an unauthorized application,
                                    which is prohibited.

                                    Please use an official Ultimate
                                    Guitar Tabs application for iPhone,
                                    iPad or Android to access legitimate
                                    chords, guitar, bass, and drum tabs
                                    from Ultimate-Guitar.com database.

                                    Type "ultimate guitar tabs" in Apple
                                    App Store's or Android Market's
                                    search to find the application.
MASTER OF PUPPETS
1.Battery
2.Master Of Puppets
3.The Thing That Should Not Be
4.Welcome Home(Sanitarium)
5.Disposable Heroes
6.Leper Messiah
7.Orion
8.Damage Inc.


1.Battery

Intro
        Rhy. Fig. 1
Acous.|--------------------|---------------|--------------|----------------|
gtr.1 |--------------------|---------------|--------------|----------------|
      |--------------------|-----------0---|--------------|----------------|
      |----3-2-----2-------|--2-----0--0---|--3-2---2-----|--2----0--0-----|
      |----2-------0-------|--0--------5---|--2-----0-----|--0-------5-----|
      |----0-------1-------|--2--------3---|--0-----1-----|--2-------3-----|

      Play w/Rhy. Fig 1   ~~~~~~~                 ~~~~                  ~~~
Acous.|-----------------------|-----------------------|--------------------|
gtr.2 |-----------------------|-----------------------|--------------------|
      |---4-5-------4---5-----|---4-5----------5--4---|-4-5-----4-4h5p4----|
      |-------7-----------7---|(7)----7---5-----------|-----7-----------7--|
      |-----------------------|-----------------------|--------------------|
      |-----------------------|-----------------------|--------------------|
       ~~~                ~~~~
      |-----------------------|     Play gtr.2 over gtr.3 with Rhy. Fig. 1 
      |-----------------------|     and the second time through add gtr.4
      |---4-5----------5--4---|     
      |(7)----7---5-----------|
      |-----------------------|
      |-----------------------|

                          ~~~~~~~                 ~~~~                  ~~~
Acous.|-----------------------|-----------------------|--------------------|
gtr.3 |---3-5-------3---5-----|---3-5----------5--3---|-3-5-----3-3h5p3----|
      |-------5-----------5---|(5)----5---4-----------|-----5-----------5--|
      |-----------------------|-----------------------|--------------------|
      |-----------------------|-----------------------|--------------------|
      |-----------------------|-----------------------|--------------------|
       ~~~                ~~~~
      |-----------------------|
      |---3-5----------5--3---|
      |(5)----5---4-----------|
      |-----------------------|
      |-----------------------|
      |-----------------------|

                          ~~~~~~~~                ~~~~~~                ~~~
Acous.|---3-5-------3---5-----|---3-5----------5--3---|-3-5-----3-3h5p3----|
gtr.4 |-------5-----------5---|-5-----5---3-----------|-----5-----------5--|
      |-----------------------|-----------------------|--------------------|
      |-----------------------|-----------------------|--------------------|
      |-----------------------|-----------------------|--------------------|
      |-----------------------|-----------------------|--------------------|
       ~~~                ~~~~
      |---3-5----------5--3---|        
      |-5-----5---3-----------|
      |-----------------------|
      |-----------------------|
      |-----------------------|             Now it changes to electrics.
      |-----------------------|          All electrics play over each other.

Elec. |-----------------------|-----------------------|  
gtr.1 |-----------------------|-----------------------|
      |-----------------------|-----------------------|repeat
      |2--2-2-2-2--3-(3)------|------------5-(5)------|
      |2--2-2-2-2--3-(3)------|5--5-5-5-5--5-(5)------|
      |0--0-0-0-0--1-(1)------|2--2-2-2-2--3-(3)------|
       >  P.M.---| >           > P.M-----| >                  
              ~~~~~~      ~~~~~~~~         ~~~~   ~~~~~~~~~    ~~~~~     ~~
Elec. |-----------------------|-----------------------|--------------------|
gtr.2 |-----------------------|-----------------------|*-------------------|
      |---4-5-------4---5-----|---4-5----------5--4---|(4)-4-5------4--5---|
      |-------7-----------7---|(7)----7----5----------|--------7---------7-|      
      |-----------------------|-----------------------|*-------------------|
      |-----------------------|-----------------------|--------------------|
       ~~~         ~~~~   ~~~~ ~~~         ~~~~    ~~~
       |1.2._________________| |3.___________________|                     
      |-----------------------|-----------------------|
      |----------------------*|-----------------------|
      |---4-5----------5--4---|---4-5----------5---4--|
      |(7)----7----5----------|(7)----7----5----------|
      |----------------------*|-----------------------|
      |-----------------------|-----------------------|
      
              ~~~~~~      ~~~~~~~~         ~~~~   ~~~~~~~~~~    ~~~~     ~~        
Elec. |-----------------------|-----------------------|--------------------|
gtr.3 |---3-5-------3---5-----|---3-5----------5--3---|*(3)-3-5-----3--5---|
      |-------5-----------5---|(5)----5----4----------|---------5--------5-|
      |-----------------------|-----------------------|--------------------|
      |-----------------------|-----------------------|*-------------------|
      |-----------------------|-----------------------|--------------------|
       
       ~~~         ~~~~   ~~~~ ~~~         ~~~~    ~~~
       |1.2._________________| |3.___________________|                     
      |-----------------------|-----------------------|
      |---3-5----------5--3--*|---3-5----------5---3--|
      |(5)----5----4----------|(5)----5----4----------|
      |-----------------------|-----------------------|
      |----------------------*|-----------------------|
      |-----------------------|-----------------------|
              
              ~~~~~       ~~~~~~~~         ~~~~   ~~~~~~~~~    ~~~~~     ~~
Elec. |---3-5-------3---5-----|---3-5----------5--3---|(3)-3-5------3--5---|
gtr.4 |-------5-----------5---|(5)----5----3----------|*-------5---------5-|
      |-----------------------|-----------------------|--------------------|
      |-----------------------|-----------------------|--------------------|
      |-----------------------|-----------------------|*-------------------|
      |-----------------------|-----------------------|--------------------|

       ~~~         ~~~~~   ~~~ ~~~         ~~~~    ~~~
       |1.2._________________| |3.___________________|
      |---3-5-----------5--3--|---3-5----------5---3--|
      |(5)----5----3---------*|(5)----5----3----------|    
      |-----------------------|-----------------------|
      |-----------------------|-----------------------|
      |----------------------*|-----------------------|
      |-----------------------|-----------------------|

       Riff A
Elec. |-----------------------|
gtr.1 |-----------------------|
  &   |---------4-------------|
gtr.2 |----2----4----5----4---|
      |----2----2----5----6---|
      |----0---------3--------|
           
tempo=190                       gtr.2 plays Rhy. Fig. 1 the first time 
                             and doubles gtr.1 second on the first 4 bars
Elec. |-----------------------------------|---------------------------------|
gtr.1 |*----------------------------------|---------------------------------|
      |-----------------------------------|---------------------------------|
      |----------------------8---8---7----|----------------------5---5---4--|
      |*---------------------8---8---7----|----------------------7---7---5--|
      |--0---0-0-0---0-0-0---6---6---5----|--0---0-0-0---0-0-0--------------|
        P.M.--------------|                 P.M.--------------|

      |-----------------------------------|---------------------------------|
      |-----------------------------------|---------------------------------|
      |-----------------------------------|---------------------------------|
      |--5-------------------8---8---7----|------4------5-------5------6----|
      |--7-------------------8---8---7----|------4------5-------5------6----|
      |------0-0-0---0-0-0---6---6---5----|--0---2------3---0---3------4----|
            P.M.----------|                 P.M.           P.M.

Rhy.  |-----------------------------------|---------------------------------|
Fig.2 |-----------------------------------|---------------------------------|
plays |-----------------------------------|---------------------------------|
over  |----------------------8---8---7----|----------------------5---5---4--|
these |----------------------8---8---7----|----------------------7---7---5--|
4 bars|--0---0-0-0---0-0-0---6---6---5----|--0---0-0-0---0-0-0--------------|
        P.M.--------------|                 P.M.--------------|

      |-----------------------------------|---------------------------------|
      |-----------------------------------|--------------------------------*|
      |-----------------------------------|---------------------------------|
      |--5-------------------8---8---7----|--8---7------7------7------7-----|
      |--7-------------------8---8---7----|--8---7------7------7------7----*|
      |------0-0-0---0-0-0---6---6---5----|--6---5------5------5------5-----|
            P.M-----------|        
       Rhy. Fig. 2
      |-----------------------------------|---------------------------------|
      |-----------------------------------|---------------------------------|
      |----------------------3---3---2----|---------------------------------|
      |--2-------------------3---3---2----|--2-------------------5---5---4--|
      |--2-------------------1---1---0----|--2-------------------7---7---6--|
      |--0--------------------------------|--0------------------------------|
         >                                

      |-----------------------------------|---------------------------------|
      |-----------------------------------|---------------------------------|
      |----------------------3---3---2----|---------------------------------|
      |--5-------------------3---3---2----|--8---7------7------7------7-----|
      |--7-------------------1---1---0----|--8---7------7------7------7-----|
      |-----------------------------------|--6---5------5------5------5-----|
                                                   (gtrs. double)
       Rhy. Fig. 3                                  
      |-----------------------|-----------------------|---------------------|
      |-----------------------|-----------------------|---------------------|
      |-----------------------|-----------------------|--2------------------|
      |--2--------------------|--5--------------------|--2---------3--3--4--|
      |--2--------------------|--5--------------------|--0---------3--3--6--|
      |--0--------------------|--3--------------------|------------1--1-----|

      Play all over main riff
 
      Play Rhy. Fig. 2 for the first four bars starting with "Lashing out the action"

      Play Rhy. Fig. 2 for the for the four bars starting with "Hypnotizing power"

      Play Rhy. Fig. 3 starting with "smashing through the boundries"

      After that play Rhy. Fig. 2 for the first for bars which starts with the "y" in battery

      Then play Rhy. Fig. 3 starting with "Pounding out aggression"

      Then play Rhy. Fig. 2 but only the first two bars starting with the "y" in battery      

      "Cannot kill the family, battery has grounded"  
      |-----------------------|-----------------------|
      |-----------------------|-----------------------|<-You need to add a beat to the third
      |--------------4--------|-----------------------|  bar of Rhy. Fig. 2 when it is played
      |----2---------4--------|----5----------5---4---|  two bars after "Cannot kill the family,
      |----2---------2--------|----5----------7---6---|  battery has grounded"
      |----0------------------|----3------------------|

      Then play Rhy. Fig. 2 but only the first 3 bars starting with "me!" 
                        
                          Bat-ter
      |-----------------------------|     After that play Rhy. Fig. 2 but only the first 
      |-----------------------------|     3 bars and don't add that beat to the third bar
      |----------3----2----3--------|     After those 3 bars play Rhy. Fig. 4
      |--5-------3----2----3---3----|
      |--7-------1----0----1---3----|     
      |------------------------1----|  

         bat -ter - y
Rhy.  |-----------------------------|
Fig.4 |-----------------------------|
      |---3---------2---------------|
      |---3----3----2---------------|
      |---1----3----0---------------|
      |--------1--------------------|     


Fill  |-----12--17p12-15p12-14p12--12-17p12-15p12-|-14p12--12-17p12-15p12-14p12--12-17p12-15p12|
Solo  |-15^Full------------------15---------------|------15--------------------15--------------|
w/Rhy.|-------------------------------------------|--------------------------------------------|
Fig. 3|-------------------------------------------|--------------------------------------------|
      |-------------------------------------------|--------------------------------------------|
      |-------------------------------------------|--------------------------------------------|

      |-14p12-------------------------------------|------------------| Play an E5 before the 
      |------14p12-14p12-------------14^half------|------------------| interlude for 2 bars
      |------------------14--12------14^full------|--12\-------------|
      |--------------------------14---------------|------------------|
      |-------------------------------------------|------------------|
      |-------------------------------------------|------------------|   

Interlude
 
      |----------|---------|---------|-------------|---------|---------|---------|-------------|
      |----------|---------|---------|-------------|---------|---------|---------|-------------|
      |----------|---------|---------|-------------|---------|---------|---------|-------4--4--|
      |-2--------|(2)------|-5-------|(5)---5----5-|-2-------|(2)------|-5-------|(5)----4--4--|
      |-2--------|(2)------|-5-------|(5)---5----5-|-2-------|(2)------|-5-------|(5)----2--2--|
      |-0--------|(0)------|-3-------|(3)---3--3-3-|-0-------|(0)------|-3-------|(3)----------|
     
Rhy.  |-----------------------|--------------------|---------------------|---------------------|
gtr.1 |*----------------------|--------------------|---------------------|--------------------*|    
      |-----------------------|------------5----7--|---------------------|--------2-(2)----4---|
      |*2--------2--2---------|-2--2----2--5----7--|-5---------5--5------|5-5-----2-(2)----4--*|
      |-2--------2--2---------|-2--2----2--3----5--|-5---------5--5------|5-5-----0-(0)----2---|
      |-0--------0--0----x--x-|-0--0----0----------|-3---------3--3--x-x-|3-3------------------|
                                                                                        play x3
Lead  |-----------------------|--------------------|---------------------|---------------------|
gtr.2 |*----------------------|--------------------|---------------------|--------------------*|
      |-----------------------|--------------------|---------------------|---------------------|
      |*------4--5------------|------5-------------|--------4--5---------|-----5-----4--5--7--*|
      |-7--7--------7-------7-|-7-------7--3--3-5/7|-7p5----------7----7-|--7-----7------------|
      |-----------------------|--------------------|-----7---------------|---------------------|
       P.M.------------------------------------|     --t-- P.M.--------------------------|

Rhy.  |-----------------------|--------------------|---------|---------|-----------------------|
gtr.1 |-----------------------|--------------------|---------|---------|-----------------------|
      |-----------------------|-----------------4--|---------|---------|-----------------------|
      |-2--------2--2---------|-2------5-(5)----4--|-5-------|(5)------|--3--2----2----2----2--|
      |-2--------2--2---------|-2------5-(5)----2--|-5-------|(5)------|--3--2----2----2----2--|
      |-0--------0--0----x--x-|-0------3-(3)-------|-3-------|(3)------|--1--0----0----0----0--|   
                                                                          
Lead  |-----------------------|--------------------|---------|---------|-----------------------|
gtr.2 |-----------------------|--------------------|---------|---------|-----------------------|
      |-----------------------|-----------------4-/|-7-------|(7)------|-----------------------|
      |-------4--5------------|-2------------------|---------|---------|-----------------------|
      |-7--7--------7---------|--------2-----------|---------|---------|-----------------------|
      |-----------------------|--------------------|---------|---------|-----------------------|

Guitar Solo
         Rhy.Fig.5
Rhy.  |------------------------------|----------------------------------|
gtr.1 |------------------------------|----------------------------------|
      |------------------4---3---2---|-----4---3---2-------4---3---2----|
      |------------------4---3---2---|-----4---3---2-------4---3---2----|
      |------------------2---1---0---|-----2---1---0-------2---1---0----|
      |-0--0-0-0--0-0-0--------------|-0---------------0----------------|
       P.M.------------|              P.M.            P.M.
        
       w/wah wah
Lead  |------------------------------|----------------------------------|
gtr.2 |-14^Half-----14^Half--14^Half-|-14^Half-----14^Half-14-----------|
      |-14^Full-----14^Full--14^Full-|-14^Full-----14^Full-14--14-12h14-|
      |------------------------------|----------------------------------|
      |------------------------------|----------------------------------|
      |------------------------------|----------------------------------|
                              (end Rhy.Fig.5)
Rhy.  |--------------------------------------|--------------------------------------|
gtr.1 |--------------------------------------|--------------------------------------|
      |-------------------------4---3---2----|-------4-----------3---------2--------|
      |-------------------------4---3---2----|-------4-----------3---------2-----5--|
      |-------------------------2---1---0----|-------2-----------1---------0-----5--|
      |-0--0--0--0---0--0--0-----------------|-0---------------------------------3--|
       P.M.-----------------|                 P.M.

Lead  |--------------------------------------|--------------------------------------|
gtr.2 |--------------15p12-15-p-12--15--12---|-12h15p12----12h15p12----12--15^Full--|
      |12--12h14p12------------------------15|----------15----------15--------------|
      |--------------------------------------|--------------------------------------|
      |--------------------------------------|--------------------------------------|
      |--------------------------------------|--------------------------------------|

     w/Rhy.Fig.5(3 bars)                              ~~~~
      |---15^Full-(15)^1.5-----------|-15^1.5--r------------15-------------|
      |------------------------------|-15^1.5---------17--17--17p15--17-15-|
      |------------------------------|-----------------------------16------|
      |------------------------------|-------------------------------------|
      |------------------------------|-------------------------------------|
      |------------------------------|-------------------------------------|    
                                                              ===t===
                                                Bb5    A5    A5     A5  A5 
                                                                ~~~~~~~~~~~
      |----------------------------------------|---------------------------|
      |-17----15-12--12-15-12h15p12--12h15p12--|-12h15p12----15-15^Full----|
      |----/16-----14--------------14--------14|---------------------------|
      |----------------------------------------|---------------------------|
      |----------------------------------------|---------------------------|
      |----------------------------------------|---------------------------|

     w/Rhy.Fig.5(3 bars)
     |------------------------------------|------------------------------------------|
     |------------------------------------|------------------------------------------|   
     |-4p2p0-4p2p0-4p2p0-4-----4p2p0-2h4--|4p2p0-4p2p0-4p2p0-2h4-0--4p2p0-4p2p0-4p2p0|
     |-----------------------0-----------0|------------------------------------------|
     |------------------------------------|------------------------------------------|
     |------------------------------------|------------------------------------------|
       ==t== ==t== ==t==       ==t==       ==t== ==t== ==t==        ==t== ==t== ==t==
                                                          E(open6)B5      Bb5
     |--------------------------------------------------|-------------------------
     |--------------------------------------------------|-------------------------
     |-4p2p0-4p2p0-6p4p0-6p4p0-8p6p0-8p6p0-10p8p0-10p8p0|-12p10p0-12p10p0-12p10p0-
     |--------------------------------------------------|-------------------------
     |--------------------------------------------------|-------------------------
     |--------------------------------------------------|-------------------------
       ==t== ==t== ==t== ==t== ==t== ==t== ==t=== ==t===  ===t=== ===t=== ===t===

      A5          G5    F5  w/Rhy.Fig.5(3 bars)
     ---------------------|-12--15--14--12h14p12--12------------|
     ---------------------|---------------------15--15-12h14p12-|
     -12p10p0-14\---------|-------------------------------------|
     ---------------------|-------------------------------------|
     ---------------------|-------------------------------------|
     ---------------------|-------------------------------------|
      ===t===                           ===t=== --t--- ---t----
      |--------------------------------|------------------------------|
      |-14p12--------------------------|------------------------------|
      |------14-12---------------------|----------------9--12---------|
      |------------14--12--------------|---------9--12---------12--9--|
      |--------------------14--13--12--|-10--11-----------------------|
      |--------------------------------|------------------------------|
        ---t---           P.M.---------------------------------------|
        Bb5  A5      A5      A5      A5     E5
                A.H.      ~~~~~~~~~~                  ~~~~~~~ A.H.
      |----------------------------------|----------------------------|
      |----------------------------------|--------7--10^Full---10--8--|
      |----------------------------------|-----7----------------------|
      |--12--14--12--14--(14)----(14)\---|7/9-------------------------|
      |----------------------------------|----------------------------|
      |----------------------------------|----------------------------|

        G5                          A5                       F#5          ~~~~~~~~
      |---------------------------|-------------------------|--------------------|
      |-7-----7--8--7h8p7---------|-------------------------|--------------------|
      |----9-------------9--7--6--|-7---7^F-7---6---4---7---|-6------------------|
      |---------------------------|-------------------------|-----7---6---7^Full-|
      |---------------------------|-------------------------|--------------------|
      |---------------------------|-------------------------|--------------------|
                    ==t==           - - t - -   - - t - -     - - t - -
        E5          ~~~~~~~~          G5  ~~~~~~~          ~~~~~~~~~~~~
      |-----------------------------|-----15^Full-15p12-15p12----------|
      |---------12--15^Full-15p12---|-12-------------------------------|
      |-----12-------------------14-|----------------------------------|
      |/14--------------------------|----------------------------------|   
      |-----------------------------|----------------------------------|
      |-----------------------------|----------------------------------|
                            ---t---
        A5                                                                 F#5
      |-20p15-20p15---------------14-14--------|------------------------------|
      |----------------------10/12-----12\10---|-10---------------------------|  
      |-------------17p16p14----------------12-|----12-11h12-11h12p11p9-9\----|
      |----------------------------------------|------------------------------|
      |----------------------------------------|------------------------------|
      |----------------------------------------|------------------------------|
                    ---t----           ---t---   ---t--===== ===t====
                                          Play x4
      |--------------------|---------------------|--------------|---------------|
      |*-------------------|--------------------*|--------------|---------------|
      |-------3----4----3--|-4----3----4---------|--------------|---------------|
      |*-3----3----4----3--|-4----3----4----4---*|--3-----------|------3--3--4--|
      |--3----1----2----1--|-2----1----2----4----|--3-----------|------3--3--6--|
      |--1-----------------|----------------2----|--1-----------|------1--1-----|
         >    >    >    >    >    >         >       >                 P.M--|

 Outro
                                             play 7x
      |----------------------|----------------------|----------------------|
      |*---------------------|---------------------*|----------------------|
      |-------3----4----3----|--4----3----4---------|-------3----4----3----|
      |*-3----3----4----3----|--4----3----4----4---*|--3----3----4----3----|
      |--3----1----2----1----|--2----1----2----4----|--3----1----2----1----|
      |--1-------------------|-----------------2----|--1-------------------|
         >    >    >    >       >    >    >    >       >    >    >    >

      |-----------|--------|-----------------------|-----------------------|
      |-----------|--------|-----------------------|-----------------------|
      |--4--------|-(4)----|-----------------------|-----------------------|
      |--4--------|-(4)----|--4--3----3----3----3--|--2--------------------|
      |--2--------|-(2)----|--4--3----3----3----3--|--2--------------------|
      |-----------|--------|--2--1----1----1----1--|--0--------------------|
         >                    >  >    >    >    >     >

2.Master Of Puppets

Intro
-----------------------|
-----------------------|
-9--------7---6---5~~--|
-9--------7---6---5~~--|
-7--------5---4---3~~--|
-0---------------------|

(4 Times)
-----------------------|-------------|-----------------------------------|
-----------------------|-------------|-----------------------------------|
-----------------------|--7---6---5--|-----------------------------------|
-----------------------|--7---6---5--|-----------------------------------|
------7--------6-------|--5---4---3--|-----------------------------------|
-0-0------0-0-----0-0--|-------------|--0-0-7-0-0-6-0-0-5-0-4-0-3-0-2-0--|
 \' \'      \' \'     \' \'                   \' \'   \' \'   \' \'   \'   \'   \'   \' 

(2Times)                
------------------------------------------------------------------|
------------------------------------------------------------------|
------------------------------------------------------------------|
------------------------------------------------------------------|
-----2-----3-----4-----3-----2-2-----2-----3-----5/4---5/4---5/4--|
-0-1---0-1---0-1---0-1---0-1-----0-1---0-1-----0-3/2-0-3/2-0-3/2--|
 \'     \'     \'     \'     \'       \'     \'       \'     \'     \'


-----------------------------------------------------------------|
-----------------------------------------------------------------|
-----------------------------------------------------------------|
------------------------------------------------------------4----|
-----2-----3-----4-----3-----2-2-----2-----3-----4-----3----2----|
-0-1---0-1---0-1---0-1---0-1-----0-1---0-1---0-1---0-1----0------|
 \'     \'     \'     \'     \'       \'     \'     \'     \'      \'
------------------------------------------------------------------|
------------------------------------------------------------------|
------------------------------------------------------------------|
------------------------------------------------------------------|
-----2-----3-----4-----3-----2-2-----2-----3-----5/4---5/4---5/4--|
-0-1---0-1---0-1---0-1---0-1-----0-1---0-1-----0-3/2-0-3/2-0-3/2--|
 \'     \'     \'     \'     \'       \'     \'       \'     \'     \'
------------------------------------------------------------------|
------------------------------------------------------------------|
------------------------------------------------------------------|
-------------------------------------------------------------4----|
-----2-----3-----4-----3-----2-2-----2-----3-----4-----3-----2----|
-0-1---0-1---0-1---0-1---0-1-----0-1---0-1---0-1---0-1----0-------|  
 \'     \'     \'     \'     \'       \'     \'     \'     \'      \'         

----------------------------------------------|
----------------------------------------------|
----------------------------------------------|
----------------------------------------------|
-----2-----3-----4-----3-----2-2-----2-----3--|
-0-1---0-1---0-1---0-1---0-1-----0-1---0-1----|
 \'     \'     \'     \'     \'       \'     \'          
----------------------------------------|
----------------------------------------|
----------------------------------------|
-------------------------------------2--|
--5/4---5/4---5/4---5/4---5/4---5/4--2--|
--3/2-0-3/2-0-3/2-0-3/2-0-3/2-0-3/2--0--|
      \'     \'     \'     \'     \' 

Lead In
----------------------------------------|
----------------------------------------|
----------------------------------------|
------8------8------8------8------8~~~--|
----7------7------7------7------7-------|
--0------0------0------0------0---------|
  \'   *  \'   *  \'   *  \'   *  \'   *  

* = Here it is a Semi-Harmonic (Give it a slightest touch of your thumb)
                                                                       

Verse (First Part)(6 Times)
------------------------------------------------------------|
------------------------------------------------------------|
------------------------------------------------------------|
------------------5/7--8/7--5/7-------------------5/7--5/7--|
------------------5/7--8/7--5/7-------------------5/7--5/7--|
-0-0-0-0-0-0-0-0--3/5--6/5--3/5--0-0-0-0-0-0-0-0--3/5--3/5--|
 \' \' \' \' \' \' \' \'                 \' \' \' \' \' \' \' \'             

First Part With the Lyrics:

-End of passion play, crumbling away
-I\'m your source of self-destruction
-Veins that pump with fear, sucking darkest clear
-Leading on your death\'s construction


Verse (Second Part)(2 Times)
------------------------------------------------------------|
------------------------------------------------------------|
------------------------------------------------------------|
------------------4-4---5/4-4-4-------------------4----4----|
------------------0-2---3/2-0-2-------------------0h2--0h2--|
-2-2-2-2-2-2-2-2----------------2-2-2-2-2-2-2-2-------------|
 \' \' \' \' \' \' \' \'                \' \' \' \' \' \' \' \'     

Second Part with the Lyrics:

-Taste me, you will see
-More is all you need
-You\'re dedicated to
-How I\'m killing you


Lead in To Pre-Chorus
------------------|
------------------|
-4-4-4-4-4-4-4-4--|
-4-4-4-4-4-4-4-4--|
-2-2-2-2-2-2-2-2--|
------------------|
 \' \' \' \' \' \' \' \'                                                                             

Pre-Chorus (3 Times)
---------------------------------------------------------------------|
---------------------------------------------------------------------|
-9---------7--9-----------------------------------------------8------|
-9---------7--9--------9--------------------10---9------------8---9--|
-7---------5--7---7-9-----10-9h10-----------10---9------------6---9--|
-0----0-0---------------------------8-8-8-8--8---7---8-8-8-8------7--|
      \' \'         \' \'               \' \' \' \'          \' \' \' \'          
   
Then This
-----------------------------------------------------------------------------|
-----------------------------------------------------------------------------|
-9---------7--9--------------------------------------------------------------|
-9---------7--9--------9--------------------10---9-----7--5--4------4--------|
-7---------5--7---7-9-----10-9h10-----------10---9-----9--7--6------6--7--6--|
-0----0-0---------------------------8-8-8-8--8---7---------------------8--7--|
      \' \'         \' \'               \' \' \' \'            \'  \'  \'      \'  \'  \'     
Pre-Chorus with the Lyrics:

-Come crawling faster
-Obey your master
-Your life burns faster
-Obey your master


Lead In to Chorus
--------|--------|
--------|--------|
--------|--------|
--2--2--|--3--3--|
--2--2--|--3--3--|
--0--0--|--1--1--|

Lead In to Chorus with the Lyrics:

-Master!
-Master!
      
Chorus (First Part)                                                                 
--------------------------------------------------|
--------------------------------------------------|
--------------------------------------------------|
----------------------------5~-------4-------2~---|
--2~-----------------5~-----3~--0-0--2--0-0--0~---|
--0~--0-0--2p0--0-0--3~---------------------------|                             
      \' \'       \' \'             \' \'     \' \'

--------------------------------------------------|
--------------------------------------------------|
--------------------------------------------------|
--7~-------5-------4~-------9~-------7-------5~---|
--5~-------3-------2~-------7~-------5-------3~---|
------3-3-----3-3---------------0-0-----0-0-------|
      \' \'     \' \'           \' \'     \' \'

First Chorus Part with the Lyrics:
-Master of puppets, I\'m pulling your strings
-Twisting your mind and smashing your dreams
-Blinded by me, you can\'t see a thing
-Just call my name, \'cause I\'ll hear you scream


Chorus (Second Part)
--------|--------|-------------------------|--------|--------|
--------|--------|-------------------------|--------|--------|
--------|--------|-------------------------|--------|--------|
--2--2--|--3--3--|---------------------5~--|--2--2--|--3--3--|
--2--2--|--3--3--|--2~-----------------3~--|--2--2--|--3--3--|
--0--0--|--1--1--|--0~--0-0--2p0--0-0------|--0--0--|--1--1--|
                        \' \'       \' \'

Second Chorus Part with the Lyrics:
-Master!
-Master!
-Just call my name, \'cause I\'ll hear you scream
-Master!
-Master!


------------------------------------------------------------------|
------------------------------------------------------------------|
------------------------------------------------------------------|
-------------------------------------------------------------4----|
-----2-----3-----4-----3-----2-2-----2-----3-----4-----3-----2----|
-0-1---0-1---0-1---0-1---0-1-----0-1---0-1---0-1---0-1----0-------|  
 \'     \'     \'     \'     \'       \'     \'     \'     \'      \'         

----------------------------------------------|
----------------------------------------------|
----------------------------------------------|
----------------------------------------------|
-----2-----3-----4-----3-----2-2-----2-----3--|
-0-1---0-1---0-1---0-1---0-1-----0-1---0-1----|
 \'     \'     \'     \'     \'       \'     \'          
--------------------------------------|
--------------------------------------|
--------------------------------------|
--------------------------------------|
--5/4---5/4---5/4---5/4---5/4---5/4---|
--3/2-0-3/2-0-3/2-0-3/2-0-3/2-0-3/2---|

Verse (First Part)(6 Times)
------------------------------------------------------------|
------------------------------------------------------------|
------------------------------------------------------------|
------------------5/7--8/7--5/7-------------------5/7--5/7--|
------------------5/7--8/7--5/7-------------------5/7--5/7--|
-0-0-0-0-0-0-0-0--3/5--6/5--3/5--0-0-0-0-0-0-0-0--3/5--3/5--|
 \' \' \' \' \' \' \' \'                 \' \' \' \' \' \' \' \'             

First Part With the Lyrics:

-Needlework the way, never you betray
-Life of death becoming clearer
-Pain monopoly, ritual misery
-Chop your breakfast on a mirror


Verse (Second Part)(2 Times)
------------------------------------------------------------|
------------------------------------------------------------|
------------------------------------------------------------|
------------------4-4---5/4-4-4-------------------4----4----|
------------------0-2---3/2-0-2-------------------0h2--0h2--|
-2-2-2-2-2-2-2-2----------------2-2-2-2-2-2-2-2-------------|
 \' \' \' \' \' \' \' \'                \' \' \' \' \' \' \' \'     

Second Part with the Lyrics:

-Taste me, you will see
-More is all you need
-You\'re dedicated to
-How I\'m killing you


Lead in To Pre-Chorus
------------------|
------------------|
-4-4-4-4-4-4-4-4--|
-4-4-4-4-4-4-4-4--|
-2-2-2-2-2-2-2-2--|
------------------|
 \' \' \' \' \' \' \' \'                                                                             

Pre-Chorus (3 Times)
---------------------------------------------------------------------|
---------------------------------------------------------------------|
-9---------7--9-----------------------------------------------8------|
-9---------7--9--------9--------------------10---9------------8---9--|
-7---------5--7---7-9-----10-9h10-----------10---9------------6---9--|
-0----0-0---------------------------8-8-8-8--8---7---8-8-8-8------7--|
      \' \'         \' \'               \' \' \' \'          \' \' \' \'          
   
Then This
-----------------------------------------------------------------------------|
-----------------------------------------------------------------------------|
-9---------7--9--------------------------------------------------------------|
-9---------7--9--------9--------------------10---9-----7--5--4------4--------|
-7---------5--7---7-9-----10-9h10-----------10---9-----9--7--6------6--7--6--|
-0----0-0---------------------------8-8-8-8--8---7---------------------8--7--|
      \' \'         \' \'               \' \' \' \'            \'  \'  \'      \'  \'  \'     
Pre-Chorus with the Lyrics:

-Come crawling faster
-Obey your master
-Your life burns faster
-Obey your master


Lead In to Chorus
--------|--------|
--------|--------|
--------|--------|
--2--2--|--3--3--|
--2--2--|--3--3--|
--0--0--|--1--1--|

Lead In to Chorus with the Lyrics:

-Master!
-Master!
      
Chorus (First Part)                                                                 
--------------------------------------------------|
--------------------------------------------------|
--------------------------------------------------|
----------------------------5~-------4-------2~---|
--2~-----------------5~-----3~--0-0--2--0-0--0~---|
--0~--0-0--2p0--0-0--3~---------------------------|                             
      \' \'       \' \'             \' \'     \' \'

--------------------------------------------------|
--------------------------------------------------|
--------------------------------------------------|
--7~-------5-------4~-------9~-------7-------5~---|
--5~-------3-------2~-------7~-------5-------3~---|
------3-3-----3-3---------------0-0-----0-0-------|
      \' \'     \' \'           \' \'     \' \'

First Chorus Part with the Lyrics:
-Master of puppets, I\'m pulling your strings
-Twisting your mind and smashing your dreams
-Blinded by me, you can\'t see a thing
-Just call my name, \'cause I\'ll hear you scream


Chorus (Second Part)
--------|--------|-------------------------|--------|--------|
--------|--------|-------------------------|--------|--------|
--------|--------|-------------------------|--------|--------|
--2--2--|--3--3--|---------------------5~--|--2--2--|--3--3--|
--2--2--|--3--3--|--2~-----------------3~--|--2--2--|--3--3--|
--0--0--|--1--1--|--0~--0-0--2p0--0-0------|--0--0--|--1--1--|
                        \' \'       \' \'

Second Chorus Part with the Lyrics:
-Master!
-Master!
-Just call my name, \'cause I\'ll hear you scream
-Master!
-Master!
           
                                                                   
Interlude (James)(Clean w/Chorus effect)(2Times)
----------------------0h2p0-------3---------------------------------------------------|
----------------3------------3------------3---3-------0-------0----------0----------0-|
-------0-----2-----2------------2-------0---0---0-----------2---------2----------2----|
-----2----0----------------------------------------2--------------------------1-------|
---2---------------------------------3-------------------0-------0-2--------2---------|
-0------------------------------------------------------------------------------------|
                                                                              
James & Kirk Solo
-----19/22--19--------20---17-------------------20---17-------|
-20---------20---20---22---19---19---19-19-19---22---19---19--|
-21--------------21-------------19---19-19-19-------------19--|
--------------------------------------------------------------|
--------------------------------------------------------------|
--------------------------------------------------------------|

-19---15-------------------19---15--------17---15h17p15-14-------|
-20---17---17---17-17-17---20---17---17---19---17h19p17-16---17--|
-----------17---17-17-17-------------17----------------------17--|
-----------------------------------------------------------------|
-----------------------------------------------------------------|
-----------------------------------------------------------------|


-----------14-------14---16---17---19--|
-16---17--------17--16---17---19---20--|
-16---17--/19---17---------------------|
---------------------------------------|
---------------------------------------|
---------------------------------------|

James Solo
---------------14-15---14-15-17-15-14-19-15-12h15p12----------------|
-17---------17---------------------------------------13-----15b-15b-|
--------------------------------------------------------------------|
--------------------------------------------------------------------|
--------------------------------------------------------------------|
--------------------------------------------------------------------|

-15-14------15-14-------------------------------------------------|
-------12---------12h15p12-------------15b------------------------|
--------------------------------12-14--14b--14b---12----12--------|
-----------------------------------------------------14-----12----|
------------------------------------------------------------------|
------------------------------------------------------------------|

----------------------------------------------------------------------------|
----------------------------------------------------------------------------|
-12----14-12---11--------14---12---11h12p11---------------------------------|
--------------------12----------------------10------------9-10--------9-10--|
-------------------------------------------------------12-------------------|
----------------------------------------------------------------------------|

-----------------------------------15---14--11h12p11-----------/19--|
-------------------------12--------------------------12---10--------|
-------------9--11--12-------12-------------------------------------|
-12--10--12---------------------------------------------------------|
--------------------------------------------------------------------|
--------------------------------------------------------------------|

Now Back to this:
-----19/22--19--------20---17-------------------20---17-------|
-20---------20---20---22---19---19---19-19-19---22---19---19--|
-21--------------21-------------19---19-19-19-------------19--|
--------------------------------------------------------------|
--------------------------------------------------------------|
--------------------------------------------------------------|

-19---15-------------------19---15--------17---15h17p15-14-------|
-20---17---17---17-17-17---20---17---17---19---17h19p17-16---17--|
-----------17---17-17-17-------------17----------------------17--|
-----------------------------------------------------------------|
-----------------------------------------------------------------|
-----------------------------------------------------------------|


-----------14-------14---16---17---19--|
-16---17--------17--16---17---19---20--|
-16---17--/19---17---------------------|
---------------------------------------|
---------------------------------------|
---------------------------------------|

(James)(Distorted)(2Times)
----------------------0h2p0-------3---------------------------------------------------|
----------------3------------3------------3---3-------0-------0----------0----------0-|
-------0-----2-----2------------2-------0---0---0-----------2---------2----------2----|
-----2----0----------------------------------------2--------------------------1-------|
---2---------------------------------3-------------------0-------0-2--------2---------|
-0------------------------------------------------------------------------------------|
 \' \' \' \'  \'  \'  \'  \'                 \'  \'   \'   \'  \'     \'  \'    \' \'  \'     \' \'  \'

Build Up (First Part)
-----------------------------------|
-----------------------------------|
-4-4-4-4-4-4-4-4--4-4-4-4-4-4-4-4--|
-2-2-2-2-2-2-2-2--2-2-2-2-2-2-2-2--|
-2-2-2-2-2-2-2-2--2-2-2-2-2-2-2-2--|
-0-0-0-0-0-0-0-0--0-0-0-0-0-0-0-0--|
 \' \' \' \' \' \' \' \'  \' \' \' \' \' \' \' \'

Build Up (Second Part)(6 Times)
-------------------------------------|
-------------------------------------|
-------------------------------------|
-----------------------------------6-|
--4-4-5-4-4-4-5-4-4--4-4-5-4-4-4-5-4-|
--2-2-3-2-2-2-3------2-2-3-2-2-2-3---|
  \' \' \' \' \' \' \' \' \'  \' \' \' \' \' \' \' \'

Second Part of Build Up with lyrics:

-Master, master
-Where\'s the dreams that I\'ve been after?
-Master, master
-You promised only lies
-Laughter, laughter
-All I hear and see is laughter
-Laughter, laughter
-Laughing at my cries


Lead In
-------------------|
-------------------|
-------------------|
--5~~~----4~~~-----|
--5~~~----4~~~-----|
--3~~~----2~~~-----|


Lead In with Lyrics:

-Fix Me!


Kirk Fast Solo
-17p12----------12-17p12----------12-17p12----------12-15p12----------12--|
-------13-12-13----------13-12-13----------13-12-13----------13-12-13-----|
--------------------------------------------------------------------------|
--------------------------------------------------------------------------|
--------------------------------------------------------------------------|
--------------------------------------------------------------------------|



-17p12----------12-17p12----------12-17p12-------12-12-15p12----|
-------13-13-12----------13-12-13----------13-12-------------13-|
----------------------------------------------------------------|
----------------------------------------------------------------|
----------------------------------------------------------------|
----------------------------------------------------------------|

-----19-19-17-17-17-17-15-15-15-14-14-14-14-17-17-17-15-15-15-14--|
-/17--------------------------------------------------------------|
------------------------------------------------------------------|
------------------------------------------------------------------|
------------------------------------------------------------------|
------------------------------------------------------------------|

-14-14-14-14---------------------------------17h19------------------|
-------------15---17b--17b---------17p15p14---------15p14-----------|
-----------------------------------------------------------16-14-==-|
--------------------------------------------------------------------|
--------------------------------------------------------------------|
--------------------------------------------------------------------|

-x-------------------------------------------------------------|
---------------------------------------------------------------|
---------------------------------------------------------2--4--|
---------------------------------------------------------------|
---------------------------------------------------------------|
---------------------------------------------------------------|

x = This note produced by pulling string off edge of fretboard and
\"fretting\" it against pickup.

---------------------------------------------------------------------|
------------------------------------/15--13--12------13--12----------|
-2b-4--0--2-0h2----------------------------------14----------14--12--|
-----------------4--2---2-h4-----------------------------------------|
---------------------------------------------------------------------|
---------------------------------------------------------------------|

-----------------------------------------------------------|
-------------12----12-12-12-12-12-12-15-13-12-15-13-12-13--|
-11--12--14------------------------------------------------|
-----------------------------------------------------------|
-----------------------------------------------------------|
-----------------------------------------------------------|

-12----------12-------------14-------14-------15-15--------|
----15-15-13----15-13h15-15----17-15----15-17-------17/19--|
-----------------------------------------------------------|
-----------------------------------------------------------|
-----------------------------------------------------------|
-----------------------------------------------------------|

-17-------19-17-------17----------19-17-------17----------19-17--------|
----20-19-------19-19----21-19-19-------19-19----21-19-19-------19-19--|
-----------------------------------------------------------------------|
-----------------------------------------------------------------------|
-----------------------------------------------------------------------|
-----------------------------------------------------------------------|

-17-------------19-17-------------14--14------14------------14--|
----21b-19b-19b-------19b-19b-17b--------17b------17b-17b-------|
----------------------------------------------------------------|
----------------------------------------------------------------|
----------------------------------------------------------------|
----------------------------------------------------------------|

-19-p14------19-p14--14----------14------14------14-14-14------14-14--|
---------17b---------17b-----17b-----17b-----17b-----------17b--------|
----------------------------------------------------------------------|
----------------------------------------------------------------------|
----------------------------------------------------------------------|
----------------------------------------------------------------------|

-----15b-----15b-----15b-----15b-----17b-----17b-----18b-----18b--|
-18b-----18b-----18b-----18b-----20b-----20b-----21b-----21b------|
------------------------------------------------------------------|
------------------------------------------------------------------|
------------------------------------------------------------------|
------------------------------------------------------------------|

-----19b-----19b-22b-----/////-------|
-22b-----22b-------------------------------|
-------------------------------------------|
-------------------------------------------|
-------------------------------------------|
-------------------------------------------|


Post solo (2Times)
----------------------------------------------------------------|
----------------------------------------------------------------|
----------------------------------------------------------------|
-----3-----3-----3-----3-------------3-----3-----3-----3-----4--|
-----3-----3-----3-----3-----2-2-----3-----3-----3-----3-----2--|
-0-0-1-0-0-1-0-0-1-0-0-1-0-0-----0-0-1-0-0-1-0-0-1-0-0-1-0-0----|
 \' \'   \' \'   \' \'   \' \'   \' \'     \' \'   \' \'   \' \'   \' \'   \' \'
Then this - 
------------------------------------------------------------------|
------------------------------------------------------------------|
------------------------------------------------------------------|
------------------------------0-2-4-5------------------0----------|
------------------------0-2-3---------3------3-3-3-2-3---3-2------|
-0-0-0-0-0-0-0-0--0-2-3--------------------------------------3-2--|
 \' \' \' \' \' \' \' \'  \' \' \' \' \' \' \' \'            \' \' \' \' \' \' \' \' \' \'


Two guitars 
-------------------------------------------------------------------------|
-------------------------------------------------------------------------|
----------------------------------------2-4------------------------------|
-------------------------------0-4-2/5--4-5-2------2-2-2-0-2-4-2-0-------|
-------------------------0-2-3--------------3------3-3-3-2-3-5-3-2-3-2---|
-0-0-0-0-0-0-0-0-0-0-2-3-------------------------------------------3-2---|
 \' \' \' \' \' \' \' \' \' \' \' \' \' \' \' \' \' \' \'             \' \' \' \' \' \' \' \' \' \'
------------------------------------------------------------------------|
---------------------------------------------5~~------------------------|
----------------------------------------2-4--5~~------------------------|
-------------------------------0-4-2/5--4-5--5~~------------------------|
-------------------------0-2-3---------------3~~---3-3-3-2-3-5-3-2------|
-0-0-0-0-0-0-0-0-0-0-2-3-------------------------------------------3-2--|
 \' \' \' \' \' \' \' \' \' \' \' \' \' \' \' \' \' \' \'             \' \' \' \' \' \' \' \' \' \'

-------------------------------------|
-------------------------------------|
-4~~--------------------2------------|
-2~~------------5-5-5-4-----5-4-2-4--|
-2~~------------3-3-3-2-3-5-3-2------|
-0~~----------------------------3-2--|
                \' \' \' \' \' \' \' \' \' \' 
             
------------------------------------------------------------------|
------------------------------------------------------------------|
------------------------------------------------------------------|
------------------------------------------------------------------|
-----2-----3-----4-----3-----2-2-----2-----3-----5/4---5/4---5/4--|
-0-1---0-1---0-1---0-1---0-1-----0-1---0-1-----0-3/2-0-3/2-0-3/2--|
 \'     \'     \'     \'     \'       \'     \'       \'     \'     \'

----------------------------------------------|
----------------------------------------------|
----------------------------------------------|
----------------------------------------------|
-----2-----3-----4-----3-----2-2-----2-----3--|
-0-1---0-1---0-1---0-1---0-1-----0-1---0-1----|
 \'     \'     \'     \'     \'       \'     \'          

--------------------------------------|
--------------------------------------|
--------------------------------------|
--------------------------------------|
--5/4---5/4---5/4---5/4---5/4---5/4---|
--3/2-0-3/2-0-3/2-0-3/2-0-3/2-0-3/2---|
      \'     \'     \'     \'     \' 

Verse (First Part)(6 Times)
------------------------------------------------------------|
------------------------------------------------------------|
------------------------------------------------------------|
------------------5/7--8/7--5/7-------------------5/7--5/7--|
------------------5/7--8/7--5/7-------------------5/7--5/7--|
-0-0-0-0-0-0-0-0--3/5--6/5--3/5--0-0-0-0-0-0-0-0--3/5--3/5--|
 \' \' \' \' \' \' \' \'                 \' \' \' \' \' \' \' \'             

First Part With the Lyrics:

-Hell is worth all that, natural habitat
-Just a rhyme without a reason
-Never-ending maze, drift on numbered days
-Now your life is out of season


Verse (Second Part)(2 Times)
------------------------------------------------------------|
------------------------------------------------------------|
------------------------------------------------------------|
------------------4-4---5/4-4-4-------------------4----4----|
------------------0-2---3/2-0-2-------------------0h2--0h2--|
-2-2-2-2-2-2-2-2----------------2-2-2-2-2-2-2-2-------------|
 \' \' \' \' \' \' \' \'                \' \' \' \' \' \' \' \'     

Second Part with the Lyrics:

-I will occupy
-I will help you die
-I will run through you
-Now I rule you, too




Lead in To Pre-Chorus
------------------|
------------------|
-4-4-4-4-4-4-4-4--|
-4-4-4-4-4-4-4-4--|
-2-2-2-2-2-2-2-2--|
------------------|
 \' \' \' \' \' \' \' \'                                                                             

Pre-Chorus (3 Times)
---------------------------------------------------------------------|
---------------------------------------------------------------------|
-9---------7--9-----------------------------------------------8------|
-9---------7--9--------9--------------------10---9------------8---9--|
-7---------5--7---7-9-----10-9h10-----------10---9------------6---9--|
-0----0-0---------------------------8-8-8-8--8---7---8-8-8-8------7--|
      \' \'         \' \'               \' \' \' \'          \' \' \' \'          
   
Then This
-----------------------------------------------------------------------------|
-----------------------------------------------------------------------------|
-9---------7--9--------------------------------------------------------------|
-9---------7--9--------9--------------------10---9-----7--5--4------4--------|
-7---------5--7---7-9-----10-9h10-----------10---9-----9--7--6------6--7--6--|
-0----0-0---------------------------8-8-8-8--8---7---------------------8--7--|
      \' \'         \' \'               \' \' \' \'            \'  \'  \'      \'  \'  \'     
Pre-Chorus with the Lyrics:

-Come crawling faster
-Obey your master
-Your life burns faster
-Obey your master


Lead In to Chorus
--------|--------|
--------|--------|
--------|--------|
--2--2--|--3--3--|
--2--2--|--3--3--|
--0--0--|--1--1--|

Lead In to Chorus with the Lyrics:

-Master!
-Master!
      
Chorus (First Part)                                                                 
--------------------------------------------------|
--------------------------------------------------|
--------------------------------------------------|
----------------------------5~-------4-------2~---|
--2~-----------------5~-----3~--0-0--2--0-0--0~---|
--0~--0-0--2p0--0-0--3~---------------------------|                             
      \' \'       \' \'             \' \'     \' \'

--------------------------------------------------|
--------------------------------------------------|
--------------------------------------------------|
--7~-------5-------4~-------9~-------7-------5~---|
--5~-------3-------2~-------7~-------5-------3~---|
------3-3-----3-3---------------0-0-----0-0-------|
      \' \'     \' \'           \' \'     \' \'

First Chorus Part with the Lyrics:
-Master of puppets, I\'m pulling your strings
-Twisting your mind and smashing your dreams
-Blinded by me, you can\'t see a thing
-Just call my name, \'cause I\'ll hear you scream


Chorus (Second Part)
--------|--------|-------------------------|--------|--------|
--------|--------|-------------------------|--------|--------|
--------|--------|-------------------------|--------|--------|
--2--2--|--3--3--|---------------------5~--|--2--2--|--3--3--|
--2--2--|--3--3--|--2~-----------------3~--|--2--2--|--3--3--|
--0--0--|--1--1--|--0~--0-0--2p0--0-0------|--0--0--|--1--1--|
                        \' \'       \' \'

Second Chorus Part with the Lyrics:
-Master!
-Master!
-Just call my name, \'cause I\'ll hear you scream
-Master!
-Master!


Outro
------------------------------------------------------------|
------------------------------------------------------------|
------------------------------------------------------------|
-2----------------5/7--8/7--5/7--2----------------5/7--5/7--|
-2----------------5/7--8/7--5/7--2----------------5/7--5/7--|
-0-0-0-0-0-0-0-0--3/5--6/5--3/5--0-0-0-0-0-0-0-0--3/5--3/5--|
   \' \' \' \' \' \' \'                   \' \' \' \' \' \' \'             


Ending
----------------------------------|---------|
----------------------------------|---------|
----------------------------------|--4~~~~--|
----------------------------------|--2~~~~--|
-----------------5/4---5/4---5/4--|--2~~~~--|
-----------------3/2-0-3/2-0-3/2--|--0~~~~--|
                     \'     \'

3.The Thing That Should Not Be

riff 1
|----|----------------|----------------|----------------|
|----|----------------|----------------|----------------|
|----|----------------|----------------|----------------|
|----|----------------|----------------|----------------|
|--0-|2---------------|--------------0-|2---------------|
|--0-|2---------------|--------------0-|2---------------|

riff 2
|----------------|----------------|----------------|
|----------------|----------------|----------------|
|----------------|----------------|----------------|
|----------------|----------------|----------------|
|--------------0-|2-----1-------2-|------3---------|
|--------------0-|2-----------2---|----2-----------| 

riff 3
|----------------|----------------|
|----------------|----------------|
|------3-------4-|------5---------|
|------3-------4-|------5---------|
|0-1-2-1-------2-|------3-------0-|
|0-1-2-------2---|----2---------0-|

riff 4
|----------------|----------------|
|----------------|----------------|
|------3-------4-|------5---------|
|------3-------4-|------5---------|
|0-1-2-1-------2-|------3-------0-|
|0-1-2-----1-2---|--1-2-----1-2-0-|

riff 5
|----------------||----------------|----------------|----------------|----------------|
|----------------||----------------|----------------|----------------|----------------|
|--------5---5---||1-------1---1---|2-------2---2---|4---------------|----------------|
|--------5---5---||1-------1---1---|2-------2---2---|4---------------|2---------------|
|7-7-7-7---7-----||--3-3-3---3-----|--4-4-4---4-----|--1-1-1-1-1-1-1-|2---------------|
|7-7-7-7---7-----||--3-3-3---3-----|--4-4-4---4-----|--1-1-1-1-1-1-1-|2---------------|

riff 6
|----------------|----------------|----------------|
|----------------|----------------|----------------|
|2-------3-------|--6-----6-------|----------------|
|2-------3-------|--6-----6-------|----------------|
|0-------1-------|5-6---5-6-0-0-0-|0-0-0-0-0-0-0-0-|
|----------------|5-6---5-6-0-0-0-|0-0-0-0-0-0-0-0-|

Solo: W/Wah
|----------------|----------------|----------------|--------------7-h10|
|----------------|----------------|----------------|-------------------|
|----------------|----------------|----------------|-------------------|
|----------------|----------------|----------------|-------------------|
|----------------|----------------|----------------|-------------------|
|----------------|----------------|----------------|-------------------|

|p7-h10-p7-h10-p7-h10-p7-h10-p7-h10-p7-h10-p7-h10-p7-h10-p7-h10-p7-h10
|---------------------------------------------------------------------
|---------------------------------------------------------------------
|---------------------------------------------------------------------
|---------------------------------------------------------------------
|---------------------------------------------------------------------
T r i l l * *

p7-h10-p7-h10-p7-h10-p7-h10-p7-h10-p7-h10|
-----------------------------------------|
-----------------------------------------|
-----------------------------------------|
-----------------------------------------|
-----------------------------------------|

|p7-h10-p7-h10-------------------------------10-10-10-10|
|--------------/17-b19-~--------------------------------|
|-------------------------------------------------------|
|-------------------------------------------------------|
|-------------------------------------------------------|
|-------------------------------------------------------|

|14-p11-p10-14-p11-p10-14-p11-p10-14-p11-p10-14-p11-p10-14-p11-p10-14-p11
|------------------------------------------------------------------------
|------------------------------------------------------------------------
|------------------------------------------------------------------------
|------------------------------------------------------------------------
|------------------------------------------------------------------------

p10-14-p11-p10|14-p11-p10-14-p11-p10-14-p11-p10---------------|
--------------|---------------------------------13-b16-----\--|
--------------|-----------------------------------------------|
--------------|-----------------------------------------------|
--------------|-----------------------------------------------|
--------------|-----------------------------------------------|

|--------------9-10--9-h10-p-9------------------------|
|--------9-10------------------10--9------------------|
|-9-h10------------------------------11-10------------|
|------------------------------------------12-11--8--7|
|-----------------------------------------------------|
|-----------------------------------------------------|

|----------------------|
|----------------------|
|----------------------|
|8-h9---8~--------\----|
|----------------------|
|----------------------|

\
|---------14-p11-p10-14-p11-p10-14-p11-p10-14-p11-p10|
|----------------------------------------------------|
|0\--------------------------------------------------|
|----------------------------------------------------|
|----------------------------------------------------|
|----------------------------------------------------|
w hammy b a r d o w n

|14-p11-p10-14-p11-p10-14-p11-p10-/-------------|
|-----------------------------------------------|
|------------------------------------12---12~---|
|-----------------------------------------------|
|-----------------------------------------------|
|-----------------------------------------------|

4.Welcome Home(Sanitarium)

Intro
  Moderately Q=98
 4/4
  Gtr I
                                  |-3-|
  W            Q     E    +Q    E S S S E
|----------|-<12>---------------3-3h5p3p2-|
|----------|-------<12>-(<12>)----0-------|
|----------|------------------------------|
|----------|------------------------------|
|----------|------------------------------|
|-0--------|--(0)---(0)-------------------|
  W           +Q    +H            Q


  W            Q     E    +Q    E E. S
|----------|-<12>---------------2-2--3-|
|----------|-------<12>-(<12>)----0----|
|----------|---------------------------|
|----------|---------------------------|
|----------|---------------------------|
|-0--------|--(0)---(0)----------------|
  W           +Q    +H            Q


  H      E    Q.       +H        E    Q.
|-0----<12>--------|-----------<12>--------|
|-----------<12>---|-(<12>)---------<12>---|
|------------------|-----------------------|
|------------------|-----------------------|
|------------------|-----------------------|
|-0----------------|----0------------------|
  W                     W


    +H        E    Q.       +H        E    E    Q
|-----------<12>--------|-----------<12>------------|
|-(<12>)---------<12>---|-(<12>)---------<12>-------|
|-----------------------|---------------------<12>--|
|-----------------------|---------------------------|
|-----------------------|---------------------------|
|----0------------------|----0----------------------|
     W                       W


                                         2/4
    E E E E E E E E   E E E E E E E a E   E E a E E  4x
||------------------|-------------------|------------||
||o-----------------|-------------------|-----------o||
||--------0-------0-|-------0-----------|------------||
||------4-------5---|-----7-------0-----|---0-----0--||
||o---2-------3-----|---5-------4-------|-2---------o||
||--0-------0-------|-0-------5-----5s3-|-----3s5----||


 4/4
  Gtr II
  E E  E  E  Q.      E    E  E  E  E  E  E  Q
|----------------------|-------10s12-15s17-17-----|
|----------------------|-10-12--------------------|
|-----11-12---------12-|--------------------------|
|---9-------14---------|--------------------------|
|-7--------------------|--------------------------|
|----------------------|--------------------------|
|
| Gtr I
| E E  E  E  E  E E  E    E  E  E  E  E  E  E a E
|----------------------|--------------------------|
|----------------------|--------------------------|
|---------0----------0-|-----------0--------------|
|------4----------5----|--------7-----------0-----|
|---2-----------3------|-----5-----------4--------|
|-0----------0---------|--0-----------5-------5s3-|


 2/4            4/4
   +Q.       E   E  E  E  E  S  E.    S  +S      +E
|-(17)---------|---15-15-12-12s14----12-(12)b14r(12)-|
|--------------|-------------------------------------|
|--------------|-------------------------------------|
|--------------|-------------------------------------|
|--------------|-------------------------------------|
|--------------|-------------------------------------|
|
|   E  E a E E   E  E  E  E  E     E  E           E
|--------------|-------------------------------------|
|--------------|-------------------------------------|
|--------------|----------0-----------------------0--|
|------0-----0-|-------4--------------5--------------|
|---2----------|----2--------------3-----------------|
|--------3s5---|-0-----------0-----------------------|


                                  2/4
                    |--3--|
   E  E  E  E  Q    S  S  S    E    E  E    E  E
|----12--------------------------|---------------|
|-15----15-13-12---12h13p12------|---------------|
|-----------------------------14-|-12s11---------|
|--------------------------------|---------12----|
|--------------------------------|------------14-|
|--------------------------------|---------------|
|
|  E  E  E  E  E E  E       a  E    E  E a  E  E
|--------------------------------|---------------|
|--------------------------------|---------------|
|-----------0--------------------|---------------|
|--------7----------0------------|-----0-------0-|
|-----5----------4---------------|--2------------|
|--0-----------5------------5s=3-|-------3s=5----|


 4/4
   S  E.    +H.              S  S  Q    S  S  E.   S  E    E
|-------------------------|-------19---19-----------------17--|
|-------------------------|----17---------17------------------|
|-------------------------|-16---------------16s==14-14-------|
|-12s14----(14)-----------|-----------------------------------|
|-------------------------|-----------------------------------|
|-------------------------|-----------------------------------|
|
|  E     E   E  E E E E E    E     E E  E     E E     E a  E
|-------------------------|-----------------------------------|
|-------------------------|-----------------------------------|
|---------------0-------0-|-------------0---------------------|
|------------4--------5---|----------7----------------0-------|
|--------2----------3-----|--------5------------4-------------|
|--0--------------0-------|--0----------------5---------5s=3--|


 2/4                         4/4
                                        ~~~~
   S  S  S  S    S  S  S  S    Q       +H         S  S  S  S
|-17-15-14------------------|-----------------------------12-|
|----------17---15-14-------|--------------------------13----|
|---------------------16-14-|-12b14r==(12)----------14-------|
|---------------------------|--------------------14----------|
|---------------------------|--------------------------------|
|---------------------------|--------------------------------|
|
|  E     E    a  E     E       E    E   E  E E E  E     E
|---------------------------|--------------------------------|
|---------------------------|--------------------------------|
|---------------------------|--------------0------------0----|
|--------0-------------0----|-----------4---------5----------|
|--2------------------------|-------2----------3-------------|
|-------------3s=5----------|--0-------------0---------------|


                                       2/4
   |--3--|
   S  S  S  E  E.    +S    E E E    E   E E  E   E
|-10h12p10---------------------5------|---3---------|
|----------13-12----(12)\-------------|-------------|
|----------------------------6--------|-4--------6--|
|-------------------------/7-------/5-|-----/7------|
|-------------------------------------|-------------|
|-------------------------------------|-------------|
|
|  E        E  E  E        E E E a  E   E E  a E E
|-------------------------------------|-------------|
|-------------------------------------|-------------|
|-----------------0-------------------|-------------|
|--------------7---------------0------|---0------0--|
|-----------5----------------4--------|-2-----------|
|--0-----------------------5-----5s=3-|------3s5----|


   Verse
    $
   4/4                                   2/4
    E E E E E E E E   E E E E E E E a E   E E a E E  4x
||------------------|-------------------|------------||
||o-----------------|-------------------|-----------o||
||--------0-------0-|-------0-----------|------------||
||------4-------5---|-----7-------0-----|---0-----0--||
||o---2-------3-----|---5-------4-------|-2---------o||
||--0-------0-------|-0-------5-----5s3-|-----3s5----||


   4/4                                   2/4
    PM--------------------------------------------|
    E E E E E E E E   E E E E E E E   E   E E   E E
||------------------|-------------------|------------||
||o-----------------|-------------------|-----------o||
||------------------|-------------------|------------||
||------------------|-------------------|------------||
||o-----2-2-----3-3-|-----5-5-----------|-----------o||
||--0-0-----0-0-----|-0-0-----5-5-5---3-|-3-3---5-3--||
|
|   Gtr I
|   E E E E E E E E   E E E E E E E a E   E E a E E
||------------------|-------------------|------------||
||o-----------------|-------------------|-----------o||
||--------0-------0-|-------0-----------|------------||
||------4-------5---|-----7-------0-----|---0-----0--||
||o---2-------3-----|---5-------4-------|-2---------o||
||--0-------0-------|-0-------5-----5s3-|-----3s5----||


 Chorus
 4/4
  Gtrs II, III
     PM|     PM|     PM|                    PM--------|
                                      |-3-|
  Q  S S S S S S S S S S S S   +H     S S S S S S S S S
|----------------------------|--------------------------|
|----------------------------|--------------------------|
|----------------5s4-----5s4-|-(4)----------------------|
|--------5s4-----5s4-----5s4-|-(4)----0h2p0-------------|
|--------5s4-----3s2-----3s2-|-(2)----------3-2---------|
|-0--x-x-3s2-x-x-----x-x-----|------------------5-3-2-3-|


     PM|     PM|     PM|
  Q  S S S S S S S S S S S S
|------------------------------|
|------------------------------|
|----------------5s4-----5s4---|
|--------5s4-----5s4-----5s4---|
|--------5s4-----3s2-----3s2---|
|-0--x-x-3s2-x-x-----x-x-------|


      PM--------|
  +E  S S S S S S S S E S S E
|-----------------------------|
|-----------------------------|
|-(4)-------------------------|
|-(4)-------------------------|
|-(2)-2-2-2-2-2-2-3-2---2-0-3-|
|---------------------3-----1-|


     PM|     PM|     PM|                  PM--------|
                                    |-3-|
  Q  S S S S S S S S S S S S   H    S S S S S S S S S
|----------------------------|--------------------------|
|----------------------------|--------------------------|
|----------------5s4-----5s4-|-4------------------------|
|--------5s4-----5s4-----5s4-|-4----0h2p0---------------|
|--------5s4-----3s2-----3s2-|-2----------3-2-----------|
|-0--x-x-3s2-x-x-----x-x-----|----------------5-3-2-3---|


                           To Coda
                                    B
                                    Gtr III
  W                          W       W
                                     |
                                     o

                                    Gtr II
     PM|     PM|     PM|
  Q  S S S S S S S S S S E   W       E S S S S S S  E S S S  S  E
|--------------------------|------|----------------------------------|
|--------------------------|------|----------------------------10----|
|----------------5s4-----5-|-4----|-------------------7-7-9s11-------|
|--------5s4-----5s4-----5-|-4----|------------7-7-/9----------------|
|--------5s4-----3s2-----3-|-2----|----5-5-7s9-----------------------|
|-0--x-x-3s2-x-x-----x-x---|------|-/7-------------------------------|


  Gtr II
   S  S  S  S  E  E  H          S  S  E  E  S  S  E  E  S  T  T    E
|-------15-17-22-22-19-------|-17h19p17-15-17h19-17----17-19p17---17-|
|-17-19-------24-24-17-------|-19-20-19-17-19-20-19-19-19-20-19---17-|
|----------------------------|----------------------19---------------|
|----------------------------|---------------------------------------|
|----------------------------|---------------------------------------|
|----------------------------|---------------------------------------|
|
| Gtr I
|  E     E     E  E  E E E E    E     E  E  E     E  E  E       a  E
|----------------------------|---------------------------------------|
|----------------------------|---------------------------------------|
|-----------------0--------0-|--------------0------------------------|
|--------------4---------5---|-----------7--------------0------------|
|--------2-------------3-----|--------5--------------4---------------|
|--0-----------------0-------|--0-----------------5-------------5s=3-|


 2/4          4/4
   H            E      +E   +E   +E   Q.        S  S
|-15---------|-14b15==(15)-(15)r(14)-----------14-15-|
|------------|-15b17==(17)-(17)r(15)-15--------------|
|-16---------|---------------------------------------|
|------------|---------------------------------------|
|------------|---------------------------------------|
|------------|---------------------------------------|
|
|  E E a E E    E       E    E    E      E E E  E
|------------|---------------------------------------|
|------------|---------------------------------------|
|------------|--------------------0-------------0----|
|----0-----0-|---------------4---------------5-------|
|--2---------|----------2------------------3---------|
|------3s5---|--0------------------------0-----------|


               |--3--|
   S  S  S  S  T  T  T  S  S  S  S  S  T  T  S  S  S    S  S
|-17-15-14-15-14h15p14----14---------------------------------|
|----------------------17----17-17-14-15p14----14------------|
|-------------------------------------------16----16---14s12-|
|------------------------------------------------------------|
|------------------------------------------------------------|
|------------------------------------------------------------|
|
|  E     E     E           E     E     E        E    a  E
|------------------------------------------------------------|
|------------------------------------------------------------|
|--------------------------0---------------------------------|
|--------------7--------------------------------0------------|
|--------5-----------------------------4---------------------|
|--0-----------------------------5-------------------5s=3----|


 2/4                         4/4
                                  ~~~~~~~~~~~~~~~
   S  S  S  S    S  S  S  S    S  E.  +Q     +E  E  S  S  S  S
|---------------------------|----------------------------17-----|
|---------------------------|----------------------17s15----15s=|
|-14p12-11-12---11----------|-----------------------------------|
|------------------14-12-11-|-12h14--(14)---(14)----------------|
|---------------------------|-----------------------------------|
|---------------------------|-----------------------------------|
|
|  E     E    a  E     E       E  E    E  E      E  E  E  E
|---------------------------|-----------------------------------|
|---------------------------|-----------------------------------|
|---------------------------|-------------0---------------0-----|
|--------0-------------0----|----------4---------------5--------|
|--2------------------------|-----2-----------------3-----------|
|-------------3s=5----------|--0-----------------0--------------|


   S  S  S  S  S  S  S  S  S S  S S S S   S S
|----15-------14-------12------10-----7-------|
|-14----14s12----12s10----10s8----8s7-----7---|
|-------------------------------------------7-|
|---------------------------------------------|
|---------------------------------------------|
|---------------------------------------------|
|
|  E     E     E     E     E    E   E   a E
|---------------------------------------------|
|---------------------------------------------|
|--------------------0------------------------|
|--------------7--------------------0---------|
|--------5----------------------4-------------|
|--0-----------------------5------------5s3---|


 2/4            4/4
  S S E a  E E   H       E S S E E
|--------------|-------------------|
|--------------|-------------------|
|---7-9-9s11-9-|-9---------9-9-9-9-|
|-9------------|-------------------|
|--------------|-------------------|
|--------------|-------------------|
|
| E   E a  E E   E E E E E E   E E
|--------------|-------------------|
|--------------|-------------------|
|--------------|-------0---------0-|
|-----0------0-|-----4---------5---|
|-2------------|---2-------3-------|
|-------3s=5---|-0-------0---------|


                        D.S. al Coda
                                    &
                       2/4
  E E Q    E E E    E    E E    E E
|--------------5------|----3--------||
|---------------------|-------------||
|-9-7--------6--------|-/4--------6-||
|-----5---/7-------/5-|--------/7---||
|---------------------|-------------||
|---------------------|-------------||
|
| E E E E  E E E a  E    E E a  E E
|---------------------|-------------||
|---------------------|-------------||
|-------0-------------|-------------||
|-----7--------0------|----0------0-||
|---5--------4--------|--2----------||
|-0--------5-----5s=3-|------3s=5---||


                     4/4
  W                   W
|-------------------|----------------------------|
|-------------------|----------------------------|
|-------------------|----------------------------|
|-------------------|----------------------------|
|-------------------|----------------------------|
|-------------------|----------------------------|
|
| Gtrs II, III
|                        PM|     PM|     PM|
| |-3-|
| S S S S S S S S S   Q  S S S S S S S S S S E
|-------------------|----------------------------|
|-------------------|----------------------------|
|-------------------|----------------5s4-----5---|
|-0h2p0-------------|--------5s4-----5s4-----5---|
|-------3-2---------|--------5s4-----3s2-----3---|
|-----------5-3-2-3-|-0--x-x-3s2-x-x-----x-x-----|


                               Q=200
            2/4                 4/4
             |-3-|
  W          S S S S S S S S S   W          +W
|----------|-------------------|----------|------------|
|----------|-------------------|----------|------------|
|-4--------|-------------------|----------|------------|
|-4--------|-0h2p0-------------|-2--------|-(2)--------|
|-2--------|-------3-2---------|-2--------|-(2)--------|
|----------|-----------5-3-2-3-|-0--------|-(0)--------|


              pick scrapes
  +W           S  S  S  S  S  S  S  S  S  S  S  S  S  S  S  S
|------------|----------------------------------------------------|
|------------|----------------------------------------------------|
|------------|----------------------------------------------------|
|-(2)--------|-x\-x\-x\-x\-x--x\-x\-x\-x--x\-x\-x\-x--x--x\-x\----|
|-(2)--------|-x\-x\-x\-x\-x\-x\-x\-x\-x\-x\-x\-x\-x\-x\-x\-x\----|
|-(0)--------|-x\-x\-x\-x\-x\-x\-x\-x\-x--x\-x\-x\-x\-x\-x\-x\----|


  Gtrs II, III
  E E E E E E E E   E E E E E E E E   E E E E E E E E   E E E E E E E E
|-----------------|-----------------|-----------------|-----------------|
|-----------------|-----------------|-----------------|-----------------|
|-----------------|-----------------|-----------------|-----------------|
|-----------------|-----------------|-----------------|-----------------|
|-----------------|-----------------|-----------------|-----------------|
|-0-0-0-0-0-0-0-0-|-0-0-0-0-0-0-0-0-|-0-0-0-0-0-0-0-0-|-0-0-0-0-0-0-0-0-|


    E E E E E E E E   E E E E E E E E   E E E E E E E E   E E E E E E E E   4x
||------------------|-----------------|-----------------|-------------------||
||o-----------------|-----------------|-----------------|------------------o||
||------------------|-----------------|-----------------|-------------------||
||--0h1---0h1-------|-----------------|-0h1---0h1---0h1-|---0h2-------------||
||o-0h1---0h1-------|-----------------|-0h1---0h1---0h1-|---0h2------------o||
||------------0-0-0-|-0-0-0-0-0-0-0-0-|-----------------|---------0-0-0-0---||


    Slower Q=98
    S E S H.        S E S H.        S E S H.        S E S Q  S E S Q
||----------------|---------------|---------------|--------------------||
||o---------------|---------------|---------------|-------------------o||
||----------------|-----7-7-------|---------------|-----5-5------4-4---||
||--0-2-2-2-------|-0-2-7-7-------|-0-2-3-3-------|-0-2-5-5--5-4-4-4---||
||o-0-2-2-2-------|-0-2-5-5-------|-0-2-3-3-------|-0-2-3-3--3-2-2-2--o||
||------0-0-------|---------------|-----1-1-------|--------------------||


                                       Guitar Solo
                                     Q=200
                                        D     Eb          D     Eb    E
                                        Gtr III
  W                                      E     E     E     E     E     E     E     E
                                         |     |           |     |     |     |     |
                                         /     /           /     /     o     /     /

                          Gtr IV        Gtr II
  S S S S S S S S S S S S  S  S  S S     S  S  S  S  S  S  S  S  S  S  S  S  S  S  S  S
|------------------------------------||-------------------------------------------------|
|------------------------------------||-------------------------------------------------|
|------------------------------------||-12-12-12-12-12-12-12-12-12-12-12-12-12-12-12-12-|
|------------------------------------||-------------------------------------------------|
|------------------------------------||-------------------------------------------------|
|-0-0-0-0-0-0-0-0-0-0-0-0-12-11-10-9-||-------------------------------------------------|


   E     E     E     E     E     E     E     E
   |     |     |     |     |     |     |     |
   /     /     /     /     /     /     /     /

   S  S  S  S  S  S  S  S  S  S  S  S  S  S  S  S
|-------------------------------------------------|
|-------------------------------------------------|
|-16-12-12-12-12-12-12-12-12-12-12-12-12-12-12-12-|
|-------------------------------------------------|
|-------------------------------------------------|
|-------------------------------------------------|


  D     Eb          D     Eb          D     Eb            D     E/B        E
   E     E     E     E     E     E     E     E       E     E     E    E     E  E   E  E
   |     |           |     |           |     |             |     |          |  |   |  |
   /     /           /     /           /     /             /     /          o  /   /  /

                                                                 |---3---|
   S  S  S  S  S  S  S  S  S  S  S  S  S  S  S  S    S  S  S  S  E  E    E  Q      E  E
|----------------------------------------------12-|-13-12-12-12-15-12---12-17\-------12-|
|-------------------------13-12-12-12-15-12-12----|------------------------------/12----|
|-14-12-12-12-16-12-12-12-------------------------|-------------------------------------|
|-------------------------------------------------|-------------------------------------|
|-------------------------------------------------|-------------------------------------|
|-------------------------------------------------|-------------------------------------|


  D     Eb       D  Eb    E
   E     E  E     E  E     E  E     E    E     E  E     E  E     E  E     E
   |     |        |  |     |  |     |    |     |  |     |  |     |  |     |
   /     /        /  /     o  /     /    /     /  /     /  /     /  /     /

   S  S  E  S  S  E  S  S  E  S  S  E    S  S  E  S  S  E  S  S  E  S  S  E
|-17p15p12-------12-17p15p12----------|-17p15p12-------12-17p15p12-------12----|
|----------17p15-------------17p15-12-|----------17p15-------------15p12-------|
|-------------------------------------|----------------------------------------|
|-------------------------------------|----------------------------------------|
|-------------------------------------|----------------------------------------|
|-------------------------------------|----------------------------------------|


  D     Eb  D        Eb      D     Eb        D  E/B   E
   E    E E   E        E   E  E    E       E  E  E  E   E  E E E
   |    |     |        |      |    |          |  |      |  | | |
   /    /     /        /      /    /          /  /      o  / / /

                       ~~~~~                        ~~~~~~~
                              |---3---|
   Q.        +E       +Q      E  E    E    E  E  E  E  +Q    E E
|-17b19r====(17)b19==(19)r------17---15-|-14----14---------------|
|----------------------------17---------|----15----15-(15)-------|
|---------------------------------------|--------------------2---|
|---------------------------------------|----------------------4-|
|---------------------------------------|------------------------|
|---------------------------------------|------------------------|


  D Eb    D EbE
  E  E  E E E E E   E   E E E E  E  E E E
  |  |    | | | |   |   | | | |  |  | | |
  /  /    / / o /   /   / / / /  /  / / /

                              ~~~~~~
  E +E  E E E E S S E   E E E E +Q.     E
|---------------------|--------------------|
|---------------------|--------------------|
|-4-(4)-4-2---2-4-2---|-----------------4--|
|-----------4-------4-|-3-2----------------|
|---------------------|-----5-2-(2)--------|
|---------------------|--------------------|


  D    Eb     D    Eb     D         Eb            D E/B         E
  E     E   E E     E   E E         E   E         E E         E E     E    E  E
  |     |     |     |     |         |             | |           |     |    |  |
  /     /     /     /     /         /             / /           o     /    /  /

  E    +E   E E    +E   E S    +S   E   S    +S   E S    +S   E E    +E    E  E
|-------------------------------------|-----------------------------------------|
|-----------5-----------5-----------5-|-----------5-----------5--------------12-|
|-7b9==(9)r---7b9==(9)r---7b9==(9)r---|-7b9==(9)r---7b9==(9)r---7b9==(9)r-14----|
|-------------------------------------|-----------------------------------------|
|-------------------------------------|-----------------------------------------|
|-------------------------------------|-----------------------------------------|


  D     Eb    D Eb    E
   E     E  E E  E     E  E E    E  E  E  E     E   E   E  E
   |     |    |  |     |  | |    |  |  |  |     |   |   |  |
   /     /    /  /     o  / /    /  /  /  /     /   /   /  /

                                          ~~~~~~~~~~~~~~
   |---3----|    |---3----|      |--3--|
   Q     Q  Q    Q     Q  Q      Q  Q  Q  Q        +E      S  S
|---------------15b17r15-14---|-12----12------------------------|
|-15b17r15-12-----------------|----15----15b17====(17)r---17-17-|
|-----------------------------|---------------------------------|
|-----------------------------|---------------------------------|
|-----------------------------|---------------------------------|
|-----------------------------|---------------------------------|


  D     Eb          D     Eb       D   Eb
   E     E     E     E     E     E   E  E
   |     |           |     |         |  |
   /     /           /     /         /  /

   S  S  S  S  S  S  S  S  S  S  E   E  S  S
|-15-------15-17-15----15-19-17-15-/21-19-22-|
|----17-18----------19-----------------------|
|--------------------------------------------|
|--------------------------------------------|
|--------------------------------------------|
|--------------------------------------------|


                                            Q=98
        D     E/B          E
   E     E     E       E    E     E   E   E    W                 W
         |     |            |     |   |   |
         /     /            o     /   /   /

   S  S  S  S  E      +E    Q        +Q        S E S Q  E E Q    S E S Q  E E Q
|-22-19----22-22b24==(24)r-22b24====(24)r---||-----------------|-------------------|
|-------22----------------------------------||-----------------|-------------------|
|-------------------------------------------||-----------------|-----7-7--7--------|
|-------------------------------------------||-----2-2--2------|-----7-7--7--------|
|-------------------------------------------||-0-2-2-2--2------|-0-2-5-5--5--------|
|-------------------------------------------||-----0-0--0------|-------------------|


  D E/E                        D E/D5
  Gtr III
  S E S H.                     S E S H.
  | | | |                      | | | |
  / / / /                      / / / /

  Gtr II
                               ~         PM--|
  Q     E  E  S S S S +S  E.   H         S S S S +S  E.
|----------------------------|--------------------------|
|----------------------------|--------------------------|
|----------------------------|--------------------------|
|----------------------------|--------------------------|
|----------5-/7-7-7-5-(5)-7--|-9---------9-9-9-7-(7)-9--|
|----------------------------|--------------------------|


  D  E/B F5                              D   E/C5   C Bm  B+
   S E   S  H.                            S  E S Q  S E   S  Q
   | |   |  |                             |  | | |  | |   |  |
   / /   /  /                             /  / / /  / /   /  /

         ~~~~~~ PM--|                     ~~~       PM--|
   E   S S +Q   S S S  S  +E  a  a S S   +H         S S S S +S  E.
|--------------------------------------|------------------------------|
|--------------------------------------|------------------------------|
|--------------------------------------|------------------------------|
|--------------------------------------|------------------------------|
|-10---9-8-(8)--8-8-8-10-(10)-8h10p8-7-|-(7)--------6-6-6-7-(7)-9-----|
|--------------------------------------|------------------------------|


  D E/E                      D E/D5
  S E S H.                   S E S H.
  | | | |                    | | | |
  / / / /                    / / / /

  ~         PM--|            ~         PM--|
  H         S S S S +S  E.   H         S S S S +S  E S
|--------------------------|---------------------------|
|--------------------------|---------------------------|
|--------------------------|---------------------------|
|--------------------------|---------------------------|
|-7---------7-7-7-5-(5)-7--|-9---------9-9-9-7-(7)-9-9-|
|--------------------------|---------------------------|


  D  E/B F5                              D   E/C5   C Bm  B+
   S E   S  H.                            S  E S Q  S E   S  Q
   | |   |  |                             |  | | |  | |   |  |
   / /   /  /                             /  / / /  / /   /  /

         ~~~~~~ PM--|                     ~~~       PM--|
   E   S S +Q   S S S  S  +E  a  a S S   +H         S S S S +S  E S
|--------------------------------------|-----------------------------|
|--------------------------------------|-----------------------------|
|--------------------------------------|-----------------------------|
|--------------------------------------|--------------------------5--|
|-10---9-8-(8)--8-8-8-10-(10)-8h10p8-7-|-(7)--------6-6-6-7-(7)-9-7--|
|--------------------------------------|-----------------------------|


    D   E/E                      D E/D5
     S  E S H.                   S E S H.
     |  | | |                    | | | |
     /  / / /                    / / / /

     ~~~        PM--|            ~         PM--|
    +H          S S S S +S  E.   H         S S S S +S  E.
||-----------------------------|--------------------------|
||o----------------------------|--------------------------|
||-----------------------------|-2---------2-2-2-------2--|
||--(5)---------5-5-5-4-(4)-5--|-----------------5-(5)----|
||o-(7)---------7-7-7-5-(5)-7--|-9---------9-9-9-7-(7)-9--|
||-----------------------------|--------------------------|


  D  E/B F5                              D   E/C5   C Bm  B+
   S E   S  H.                            S  E S Q  S E   S  Q
   | |   |  |                             |  | | |  | |   |  |
   / /   /  /                             /  / / /  / /   /  /

         ~~~~~~ PM--|                     ~~~       PM--|
   E   S S +Q   S S S  S  +E  a  a S S   +H         S S S S +S  E S
|--------------------------------------|------------------------------||
|--------------------------------------|-----------------------------o||
|------4-5-(5)--5-5-5--7--(7)-5h=7p5---|------------------------4-----||
|--5---------------------------------5-|-(5)--------4-4-4-5-(5)---5---||
|-10---9-8-(8)--8-8-8-10-(10)-8h10p8-7-|-(7)--------6-6-6-7-(7)-9-7--o||
|--------------------------------------|------------------------------||


 Guitar Solo 2
  D E/E                      D E/B  D5
  S E S H.                   S E     S   H.
  | | | |                    | |     |   |
  / / / /                    / /     /   /

  ~         PM--|
  H         S S S S +S  E.   E    S  S  +Q    S  S  S  S  +S   E.
|--------------------------|--------------------------------------|
|--------------------------|--------------------------------------|
|--------------------------|--------------------------------------|
|--------------------------|--------------------------------------|
|-7---------7-7-7-6-(6)-7--|-9---10-12-(12)--12-12-12-10-(10)-12--|
|--------------------------|--------------------------------------|


  D  E/B   F5
   S  E     S   H.
   |  |     |   |
   /  /     /   /

   S  S  S  S  +S   S  S  E      +E    S      +E    S     +S
|-------------------------------------------------------------|
|-------------------------------------------------------------|
|-------12------------12-14b16==(16)r-14b16==(16)r-14b16r(14)-|
|----------14-(14)-14-----------------------------------------|
|-12s14-------------------------------------------------------|
|-------------------------------------------------------------|


   D  E/B C5           C  Bm    B+
   S  E  S   Q         S  E     S   Q
   |  |  |   |         |  |     |   |
   /  /  /   /         /  /     /   /

   S  E.    +E   S  S  S  S  S  S  +E   S  S
|----------------------------------------------|
|---------------------12-------12-(12)---------|
|-12------------------12-------12-(12)---------|
|----14----(14)-14-14----14-14---------14-14---|
|----------------------------------------------|
|----------------------------------------------|



   D  E/B   E
   S  E     S   H.
   |  |     |   |
   /  /     /   /

                  ~~~~~
                             |----3-----|
   S  S  S  S  +S   S  S  S  S     +S   S  S  S  +S   E  S 
|----------------------------------------------------------|
|-12-------12-(12)-----------------------------------------|
|-12-------12-(12)----12-14-14b16r(14)-12------------12-12-|
|----14-14---------14---------------------14-14-(14)-------|
|----------------------------------------------------------|
|----------------------------------------------------------|


   D            E/B   D5

   S            E     S       H.
   |            |     |       |
   /            /     /       /

                     ~~~~~~~~~~~~                    ~~~~~
                                                          |--3--|
  T      +T    S  S  S      +E    S  S  E.     +S   +E    S  S  S
|--------------12--------------------12-15b17==(17)-(17)r-12h15p12-|
|-----------------12-15b17==(17)r-15-------------------------------|
|-14b16==(16)r-----------------------------------------------------|
|------------------------------------------------------------------|
|------------------------------------------------------------------|
|------------------------------------------------------------------|


  D     E/B     F5
   S    E        S  H.
   |    |        |  |
   /    /        /  /

   |---3---|
   S  S    S  S  S  S   S  S  S      +S   +T   T  S  S      +S   +T   T  S     T  T
|-15p12h==15-------------------------------------------------------------------------|
|------------12----------------------------------------------------------------------|
|---------------14-12-----12-14b16==(16)r(14)p12-14-14b16==(16)r(14)p12-14b16r14p12--|
|----------------------14------------------------------------------------------------|
|------------------------------------------------------------------------------------|
|------------------------------------------------------------------------------------|


  D  E/B           C5              C  Bm    B+
   S  E             S  Q            S  E     S   Q
   |  |             |  |            |  |     |   |
   /  /             /  /            /  /     /   /

   S  S     +T   T  S  E      +E    S  S  S  S  +S   E  S
|---------------------------------------------------------|
|---------------------------------------------------------|
|-14-14b16r(14)p12-14-14b16==(16)r-11-11-11-12-(12)-14s16-|
|---------------------------------------------------------|
|---------------------------------------------------------|
|---------------------------------------------------------|


                                                          H.=H
   W                             W                          W
  Gtrs II, III   Gtr IV        Gtrs II, III   Gtr IV        Gtrs II, IIGtr IV
           ~~~                   ~~~~
   E.   S  H.                   +H         H                S E S H    S  S  S  S
|----------------------------|----------------------------|-----------------------|
|-12S==17-17-----------------|-(17)-----------------------|-----------------------|
|----------------------------|--------7-7-----------------|-----------------------|
|--0-2--2--2-----8\-6\-4\-2\-|---0--2-7-7-----8\-6\-4\-2\-|-0-2-3-3----8\-6\-4\-2-|
|--0-2--2--2-----x--x--x--x--|---0--2-5-5-----x--x--x--x--|-0-2-3-3----x--x--x--x-|
|-------0--0-----x--x--x--x--|----------------x--x--x--x--|-----1-1----x--x--x--x-|
   S E  S  H     S  S  S  S      S  E S H     S  S  S  S


 Outro
  Gtrs II, III
                               PM--|
                               |-3-|
  S E S Q  S E S Q    S E S Q  E E E Q
|-------------------|-------------------|
|-------------------|-------------------|
|-----5-5------4-4--|-------------------|
|-0-2-5-5--5-4-4-4--|-0-2-2-2--------2--|
|-0-2-3-3--3-2-2-2--|-0-2-2-2--2-2-2-2--|
|-------------------|-----0-0--0-0-0-0--|


           PM--|               PM--|
           |-3-|               |-3-|
  S E S Q  E E E Q    S E S Q  E E E Q
|-------------------|--------------------|

|-------------------|--------------------|
|-----7-7--------7--|--------------------|
|-0-2-7-7--7-7-7-7--|-0-2-3-3--------3---|
|-0-2-5-5--5-5-5-5--|-0-2-3-3--3-3-3-3---|
|-------------------|-----1-1--1-1-1-1---|


                                                        Q=98
           PM--|      PM--|    PM--|                    TP
           |-3-|      |-3-|    |-3-|
  S E S Q  E E E Q    E E E Q  E E E Q    Q  Q  Q  Q    W
|-------------------|-------------------|-------------|------|
|-------------------|-------------------|-------------|------|
|-----5-5--------4--|-------4--------4--|-4--2--------|------|
|-0-2-5-5--4-4-4-4--|-4-4-4-4--4-4-4-4--|-4--2--5--4--|-2----|
|-0-2-3-3--2-2-2-2--|-2-2-2-2--2-2-2-2--|-2--0--5--4--|-2----|
|-------------------|-------------------|-------3--2--|-0----|


   TP
  +W           Q   Q  H
|------------|-------------*|
|------------|-------------*|
|------------|-------------*|
|-(2)--------|-2\----------*|
|-(2)--------|-2\----------*|
|-(0)--------|-0\----------*|

5.Disposable Heroes

intro: (in 6/4 time)

 Rhy Fig 1
E|-------------------------|-------------------------|
B|-------------------------|-------------------------|
G|o------------------------|-------------------------|
D|o------------4---5---4---|-------------5---7---4---|
A|-------------4---5---4---|-------------5---7---4---|
E|-0-0-0-0-0-0-2---3---2---|-0-0-0-0-0-0-3---5---2---|
   PM---------|              PM---------|

                                       end Rhy Fig 1
|-------------------------|-------------------------|
|-------------------------|-------------------------|
|-------------------------|-------------------9----o|
|-------------4---5---4---|-------------------9----o|   X lots
|-------------4---5---4---|-------------------7-----|
|-0-0-0-0-0-0-2---3---2---|-0-0-0-0-0-0-0-0-0-------|
  PM---------|              PM---------------|

lead over intro:
  w/ wah-wah
|-------------------------|-------------------------|
|-------------------------|-------------------------|
|o9-----------11--12--11--|-9-----------12--14--11--|
|o9-----------11--12--11--|-9-----------12--14--11--|
|-7-----------9---10--9---|-7-----------10--12--9---|
|-------------------------|-------------------------|
			   ________________________  _________________________
			  | 1.                      | 2.
|-------------------------|-------------------------|-------------------------|
|-------------------------|-------------------------|-------------------------|
|-9-----------11--12--11--|-9---------------12-----o|-9-----------------9-----|
|-9-----------11--12--11--|-9---------------12-----o|-9-----------------9-----|
|-7-----------9---10--9---|-7---------------10------|-7-----------------7-----|
|-------------------------|-------------------------|-0-0-0-0-0-0-0-0-0-------|

Rhy Fig 2 (in 4/4 time)
|---------------------------------|---------------------------------|
|---------------------------------|---------------------------------|
|o--------------------------------|---------------------------------|
|o--------------------------------|---------------------------------|
|---------------------------------|---------------------------------|
|-0---0-0-0---0---0---0---0-0-0-0-|-0---0-0-0---0---0---0---0-0-0-0-|

							     4 times
						       end Rhy Fig 2
|---------------------------------|---------------------------------|
|---------------------------------|---------------------------------|
|---------------------------------|--------------------------------o|
|---------------------------------|--------------------------------o|
|---------------------------------|---------------------------------|
|-0---0-0-0---0---0---0---0-0-0-0-|-0---0-0-0---0---0---0---0-0-0-0-|

With Rhy Fig 2 (2 times)
(wah off)
|---------------------------------|----------------------------------|
|---------------------------------|----------------------------------|
|o-12-----------------------------|-(12)-------------------------14\-|
|o-12-----------------------------|-(12)-------------------------14\-|
|--10-----------------------------|-(10)-------------------------12\-|
|---------------------------------|----------------------------------|

|---------------------------------|----------------------------------|
|---------------------------------|----------------------------------|
|-\11-----------------------------|-(11)-------------------------14\-|
|-\11-----------------------------|-(11)-------------------------14\-|
|-\9------------------------------|-(9)--------------------------12\-|
|---------------------------------|----------------------------------|

|---------------------------------|----------------------------------|
|---------------------------------|----------------------------------|
|-\10-----------------------------|-(10)-------------------------12\-|
|-\10-----------------------------|-(10)-------------------------12\-|
|-\8------------------------------|-(8)--------------------------10\-|
|---------------------------------|----------------------------------|

|---------------------------------|---------------------------------|
|---------------------------------|---------------------------------|
|-\9------------------------------|-(9)----------------------------o|
|-\9------------------------------|-(9)----------------------------o|
|-\7------------------------------|-(7)-----------------------------|
|---------------------------------|---------------------------------|

 Faster:
|---------------------------------|---------------------------------|
|---------------------------------|---------------------------------|
|o--------------------------------|--------------------------------o| X 3
|o6-------------------------------|-6------------------------------o|
|-4---4-4-4-4-4-4-4---4-4-4-4-4-4-|-4---4-4-4-4-4-4-4---4-4-4-4-4-4-|
|---------------------------------|---------------------------------|
  >   PM---------|>   PM---------|  >   PM---------|>   PM---------|

|---------------------------|--------------------------|
|---------------------------|--------------------------|
|---------------------------|--------------7---6---4---|
|---------------------------|--5---4---2---7---6---4---|
|-0--10-p9-p0--9-p7---------|--5---4---2---5---4---2---|
|--------------------10--9--|--3---2---0---------------|
  PM                 PM-----|  \---3---/   \---3---/

play Rhy Fig 2 again 2 times then into verses
the verses are all played solely in the 6th string in
the same rhythm as Rhy Fig 2.

 S/S

1 Bodies  fill  the  fields   I   see
2 Barking    of    machine    gun   fire         does
3 Life  planned  out  before  my  birth

 Rhy Fig 3
|---------------------------|------------------------|
|---------------------------|------------------------|
|---------------------------|------------------------|
|---------------------------|------------------------|
|---------------------------|------------------------|
|0--0-0-0--0--0--0--0-0-0-0-|0--0-0-0--0--0--0-0-0-0-|
 PM... etc.

 hungry   heroes   end.
 nothing   to  me  now
 nothing  could  I  say.                end Rhy Fig 3
|---------------------------|------------------------|
|---------------------------|------------------------|
|---------------------------|------------------------|
|---------------------------|------------------------|
|---------------------------|------------------------|
|3--3-3-3--3--3--3--3-3-3-3-|2--2-2-2--2--2--2-2-2-2-|

 No one   to   play   soldier   now,
 Sounding   of   the   clock   that   ticks       get
 Had   no   chance   to   see   myself
|---------------------------|------------------------|
|---------------------------|------------------------|
|---------------------------|------------------------|
|---------------------------|------------------------|
|---------------------------|------------------------|
|0--0-0-0--0--0--0--0-0-0-0-|0--0-0-0--0--0--0-0-0-0-|

 no one   to   pretend.
 used   to   it  somehow.
 moulded   day   by   day.
|---------------------------|------------------------|
|---------------------------|------------------------|
|---------------------------|------------------------|
|---------------------------|------------------------|
|---------------------------|------------------------|
|3--3-3-3--3--3--3--3-3-3-3-|7--7-7-7--7--7--7-7-7-7-|

the second half of each verse follows the same pattern

Running blind through killing fields,
bred to kill them all.
Victim of what said should be,
a servant till I fall

    Rhy Fig 4
     Soldier       boy,                made   of    clay
   |---------------------------------|---------------------------------|
 4 |---------------------------------|---------------------------------|
 - |---------------------------------|---------------------------------|
 4 |-6-------------------------------|-6-------------------------------|
   |-4---4-4-4-4-4-4-4---4-4-4-4-4-4-|-4---4-4-4-4-4-4-4---4-4-4-4-4-4-|
   |---------------------------------|---------------------------------|
     >   PM---------|>   PM---------|  >   PM---------|>   PM---------|

                end Rhy Fig 4
   |-------------------------|-------------------------|
 3 |-------------------------|-------------------------|
 - |-------------------------|-------------------------|
 4 |-4-----------------------|-2-----------------------|
   |-2---2-2-2-2-2-2-2---2-2-|-0---0-0-0-0-0-0-0---0-0-|
   |-------------------------|-------------------------|
     >   PM---------|>   PM-|  >   PM---------|>   PM-|

with Rhy Fig 4
   |---------------------------------|---------------------------------|
 4 |---------------------------------|------------o-/------------------|
 - |--4-----(4)---^5^4\2---(2)-/-4^5-|-------------/-------------------|
 4 |---------------------------------|------------/-o------------------|
   |---------------------------------|---------------------------------|
   |---------------------------------|---------------------------------|
                  h p sl       sl h

   |-------------------------|-------------------------|
 3 |-------------------------|-------------------------|
 - |--4-----(4)---^5^4\2-----|--4^^^^^^^^^^^^^^^^^-----|
 4 |-------------------------|-------------------------|
   |-------------------------|-------------------------|
   |-------------------------|-------------------------|
                  h p sl         vibrato
                                 simultaneously depress trem
                                 bar 1/2 step

                                   ________________________________
                                  | This bar third time only       |
  /----3----\                       /----3----\
|---------------------------------|--------------------------------|
|---------------------------------|--------------------------------|
|-4----3----4-----5-----4---------|-6----5----6-----7-----8--------|
|-4----3----4-----5-----4---------|-6----5----6-----7-----8--------|
|-2----1----2-----3-----2---------|-4----3----4-----5-----6--------|
|---------------------------------|--------------------------------|

				   Rhy Fig 5
|---------------------------------|--------------------------------|
|---------------------------------|--------------------------------|
|---------------------------------|--------------------------------|
|-----------------------------5---|-(5)---------------------8----4-|
|-----------------------------5---|-(5)---------------------8----4-|
|-0---0-0-0---0---0---0---0---3---|-(3)---------------------6----2-|
 PM------------------------|

|---------------------------------|--------------------------------|
|---------------------------------|--------------------------------|
|---------------------------------|--------------------------------|
|-(4)----------------------7----3-|-(3)---------------------5------|
|-(4)----------------------7----3-|-(3)---------------------5------|
|-(2)----------------------5----1-|-(1)---------------------3------|

 Back to the front. 
                     end Rhy Fig 5
|---------------------------------|
|---------------------------------|
|---------------------------------|
|-----------------------------5---|
|-----------------------------5---|
|-0---0-0-0---0---0---0---0---3---|
 PM------------------------|

then with Rhy Fig 5

You will do what I say, when I say.
Back to the front. You will die when I say you must die.
Back to the front. You coward, you servant (*), you blind man.
(then some palm muted open E-string strumming)

(*): 3rd time to Coda

after second verse:

Rhy Fig 6						    end Rhy Fig 6
||------------------|-----------------|-----------------|----------------||
||------------------|-----------------|-----------------|----------------||
||o-----------------|-----------------|-----------------|---------------o||
||o-2---------------|-----------------|-2---------------|---------------o||
||--2-------5h7-----|-5-------4h7-----|-2-------5h7-----|-5-------4h7-2--||
||--0---0-0-0---0-0-|-0---0-0-0---0-0-|-0---0-0-0---0-0-|-0---0-0-0---0--||
    

then the bridge with Rhy Fig 4:

Why...  am I dying?   Kill...  have no fear.
Lie...  live off lying.  Hell...  hell is here.

then the solo, with Rhy Fig 6 (6 times)

|------------------------------------|-------------------------12--|
|-----15-------15-------15-------15--|-----------------------------|
|--14b16----14b16----14b16----14b16--|---14p12------12--14b16------|
|------------------------------------|----------14-----------------|
|------------------------------------|-----------------------------|
|------------------------------------|-----------------------------|


|----------------------------------------------12------|
|--15--12------12--15--12----12----15--12--15------12--|
|----------14------------------------------------------|
|------------------------------------------------------|
|------------------------------------------------------|
|------------------------------------------------------|


|---------12---------12----------------12--|--22b24--22b24------22b24--22p19--|
|--15b17------15b17------15b17--15b17------|----------------------------------|
|------------------------------------------|----------------------------------|
|------------------------------------------|----------------------------------|
|------------------------------------------|----------------------------------|
|------------------------------------------|----------------------------------|


|-22p19------19------------19------------|--------19--------------------19------------|
|--------22------22b24---------22p19--22-|-22b24------22p19--22--22b24------22p19--22-|
|----------------------------------------|--------------------------------------------|
|----------------------------------------|--------------------------------------------|
|----------------------------------------|--------------------------------------------|
|----------------------------------------|--------------------------------------------|


|---------19---------19--------------|--19--20--22--20--19\17--19--17\15--17--15\14--|
|--22b24------22b24------22b23--b24--|-----------------------------------------------|
|------------------------------------|-----------------------------------------------|
|------------------------------------|-----------------------------------------------|
|------------------------------------|-----------------------------------------------|
|------------------------------------|-----------------------------------------------|


|--15--17--14--15--14\12--14--12\10--12--10------|
|--------------------------------------------13--|
|------------------------------------------------|
|------------------------------------------------|
|------------------------------------------------|
|------------------------------------------------|


|------10--12--10--------------------------------|
|--13--------------13--12----10--12--10----------|
|----------------------------------------12--11--|
|------------------------------------------------|
|------------------------------------------------|
|------------------------------------------------|


           T         T      T         T        T            T
|-------------------------------------------------------------------|
|--15p12--17p15p12--17p15--17p12h15--17p12h15--17p12h15----17p12\8--|
|-------------------------------------------------------------------|
|-------------------------------------------------------------------|
|-------------------------------------------------------------------|
|-------------------------------------------------------------------|


|----------------------------------------|-------------------------------------|
|----------------------------------------|-------------------------------------|
|--9b11--(11)--(11)--(11)--(11)----(11)--|--(11)--(11)--(11)--(11)----r7----9--|
|----------------------------------------|-------------------------------------|
|----------------------------------------|-------------------------------------|
|----------------------------------------|-------------------------------------|
        hold bend

                                                    w/ bar
|-----------------------------------|------------------------|
|-----------------------------------|------------------------|
|--9b11--r9-p7-----7--9p7-----------|------------------------|
|---------------9----------9--7-----|------------------------|
|--------------------------------9--|--8--7------7--9\8/9----|
|-----------------------------------|--------10--------------|


 C5				      C5	       C5  D5

|--18p15-----------------------------|---------------------------|
|---------16\13----------------------|---------------------------|
|----------------12------------------|-----------------15----15--|
|--------------------13--12----------|------13--15/17------------|
|----------------------------15--13--|--15-----------------------|
|------------------------------------|---------------------------|


C5					    C5
   tremolo picking......................................................|
|------------------------------------------|------------------------------------|
|--13-13-13-15-15-15-16-16-16-16b18-18-18--|--------------------13-13-13-15/17--|
|------------------------------------------|--12-12-12-14-14-14-----------------|
|------------------------------------------|------------------------------------|
|------------------------------------------|------------------------------------|
|------------------------------------------|------------------------------------|

w/ Rhy Fig 4

|-17p12-----17p12------17p12------17p12----|-16p12----16p12------16p12----16p12----|
|-------12---------12---------12--------12-|-------12--------12--------12-------12-|
|------------------------------------------|---------------------------------------|
|------------------------------------------|---------------------------------------|
|------------------------------------------|---------------------------------------|
|------------------------------------------|---------------------------------------|


|-17p12-----17p12------16p12------16p12----|-17p12----17p12------16p12----16p12----|
|-------12---------12---------12--------12-|-------12--------12--------12-------12-|
|------------------------------------------|---------------------------------------|
|------------------------------------------|---------------------------------------|
|------------------------------------------|---------------------------------------|
|------------------------------------------|---------------------------------------|


  C5				C5			C5 D5

|-----------------------------|----------------------------------------|
|--15b17---15b17-~----12------|--12--15--12h15--15b17-~----15--12------|
|-------------------------14--|------------------------------------14--|
|-----------------------------|----------------------------------------|
|-----------------------------|----------------------------------------|
|-----------------------------|----------------------------------------|


  C5					   C5

|------15b17-~----15--12----------------|----------------------------|
|--12-----------------------15--12------|----------------------------|
|-----------------------------------14--|--12------12--14b16-~----\--|
|---------------------------------------|------14--------------------|
|---------------------------------------|----------------------------|
|---------------------------------------|----------------------------|

w/ Rhy Fig 4

|-----------------------------|----------------------------|
|-----------------------------|----------------------------|
|-----------------------------|--------7---------7--7------|
|--9-------------------7------|--9--7-----10--9--------10--|
|-----7--7--10--9---------10--|----------------------------|
|------------------10---------|----------------------------|
  PM.....................................................|


|--------------------7------|----------------17----\--|
|-----------7---------------|--17--15--14-------------|
|--9--7--7-----9--7-----10--|-------------------------|
|---------------------------|-------------------------|
|---------------------------|-------------------------|
|---------------------------|-------------------------|
  PM......................|


|-------------------------------|----------------12--------------|
|-----------------13------------|--15----------------------------|
|--/12----12--12------12----12--|------12----12------12--12--12--|
|-------------------------------|--------------------------------|
|-------------------------------|--------------------------------|
|-------------------------------|--------------------------------|


|------------------------------|----------------15b17---r15-|
|----------------13------------|--15------------------------|
|--12----12--12------12----12--|------12----12--------------|
|------------------------------|----------------------------|
|------------------------------|----------------------------|
|------------------------------|----------------------------|


  triplets (next 3 bars)
 
|--15-12----12--------------------------|--------------------------------12--|
|--------15----15-12-15-12----12----12--|--15-12-----------------------------|
|--------------------------14----14-----|--------14-12----12-14-12-----------|
|---------------------------------------|--------------14----------14-14-----|
|---------------------------------------|------------------------------------|
|---------------------------------------|------------------------------------|


|--15-12--------------------------------|-----------------------|
|--------15-12----12-15-12--------------|-----------------------|
|--------------14----------14-12----12--|--14b16--14--12--------|
|--------------------------------14-----|-----------------14-~-~|
|---------------------------------------|-----------------------|
|---------------------------------------|-----------------------|


|-------------------------------|----------------12--------------|
|-----------------13------------|--15----------------------------|
|--/12----12--12------12----12--|------12----12------12--12--12--|
|-------------------------------|--------------------------------|
|-------------------------------|--------------------------------|
|-------------------------------|--------------------------------|


|------------------------------|----------------15b17--r15--|
|----------------13------------|--15------------------------|
|--12----12--12------12----12--|------12----12--------------|
|------------------------------|----------------------------|
|------------------------------|----------------------------|
|------------------------------|----------------------------|


  triplets (next 3 1/2 bars)

|--15-12----12----------------------14--|--17-15-14-15-14----14-----------------|
|--------15----15-12-15-12----12--------|-----------------17----17-15-17-15-14--|
|--------------------------14----14-----|---------------------------------------|
|---------------------------------------|---------------------------------------|
|---------------------------------------|---------------------------------------|
|---------------------------------------|---------------------------------------|


|-19-17-15----------21-19-17----------|-22-21-19-----------22b24--22b24-|--22b24-~---|
|----------19-17-16----------21-19-17-|----------22-21-19---------------|------------|
|-------------------------------------|---------------------------------|------------|
|-------------------------------------|---------------------------------|------------|
|-------------------------------------|---------------------------------|------------|
|-------------------------------------|---------------------------------|------------|


then with Rhy Fig 6 again (2 times):

Why...  am I dying?   Kill...  have no fear.

Lie...  live off lying.  Hell...  hell is here.

			 I was born for dying....
|---------------------|-------------|-----------|----------------|----------------|
|---------------------|-------------|-----------|----------------|----------------|
|---------------------|-------------|-----------|----------------|----------------|
|---------------------|-------------|-----------|----------------|----------------|
|---------------------|-------------|-----------|----------------|----------------|
|0--0-0-0--0--0--0--0-|-0-----------|-----------|3-3-3-3-3-3-3-3-|3-3-3-3-3-3-3-3-|
 PM......................|                       PM..............................|

                                                                3 times
||----------------------------------|----------------------------------||
||----------------------------------|----------------------------------||
||o---------------------------------|---------------------------------o||
||o-6-------------------------------|-6-------------------------------o||
||--4---4-4-4-4-4-4-4---4-4-4-4-4-4-|-4---4-4-4-4-4-4-4---4-4-4-4-4-4--||
||----------------------------------|----------------------------------||
    >   PM---------|>   PM---------|  >   PM---------|>   PM---------|


                                             DS al Coda
|---------------------------|--------------------------|
|---------------------------|--------------------------|
|---------------------------|--------------7---6---4---|
|---------------------------|--5---4---2---7---6---4---|
|--0--10-p9-p0--9-p7--------|--5---4---2---5---4---2---|
|--------------------10--9--|--3---2---0---------------|


CODA

 continue Rhy Fig 5
   you blind man          Back to the front
|----------------------|-----------------------|
|----------------------|--------------------8--|
|----------------------|-----------------------|
|----------------------|-----------------------|
|----------------------|-----------------------|
|----------------------|-----------------------|


                                                       ________________
  w/ Rhy Fig 5 (2 times)                              |1.              |
||-----------------|-----------------|----------------|----------------||
||---------/11\-7--|---------/10\-6--|---------/8-----|--5----------8--||
||o----------------|-----------------|----------------|---------------o||
||o----------------|-----------------|----------------|---------------o||
||-----------------|-----------------|----------------|----------------||
||-----------------|-----------------|----------------|----------------||

 __________________
|2.                 1st time w/ Rhy Fig 5
                    2nd time w/ Rhy Fig 5 (1st 3 bars only)
|---------------6--|----------/-9\-5--|---------/-8\-4--|
|--5------------8--|----------/11\-7--|---------/10\-6--|
|------------------|o-----------------|-----------------|
|------------------|o-----------------|-----------------|
|------------------|------------------|-----------------|
|------------------|------------------|-----------------|

                    __________________
                   |1.                |
|------------/6----|--3------------6--|
|------------/8----|--5------------8--|
|------------------|-----------------o|
|------------------|-----------------o|
|------------------|------------------|
|------------------|------------------|

 ________________________
|2.
|------------------------||--------------------------------|
|------------------------||--------------------------------|
|------------------------||o-------------------------------|
|------------------------||o-6-----------------------------|
|------------------------||--4--4-4-4-4-4-4-4--4-4-4-4-4-4-|
|--0--0-0-0--0--0--0--0--||--------------------------------|
  PM...................|     >  PM.........|>  PM.........|


|-------------------------------|-------------------------------|
|-------------------------------|-------------------------------|
|-------------------------------|-------------------------------|
|-6-----------------------------|-6-----------------------------|
|-4--4-4-4-4-4-4-4--4-4-4-4-4-4-|-4--4-4-4-4-4-4-4--4-4-4-4-4-4-|
|-------------------------------|-------------------------------|
  >  PM.........|>  PM.........|  >  PM.........|>  PM.........|

 ___________________________  ___________________________
|1.                         ||2.
|---------------------------||---------------------------|
|---------------------------||---------------------------|
|--------------------------o||---------------------------|
|--------------------------o||---------------------------|
|--0--10-p9-p0--9-p7--------||--0--10-p9-p0--9-p7--------|
|--------------------10--9--||--------------------10--9--|

 _______________________________________________________________

|-------------------------------|-------------------------------|
|-------------------------------|-------------------------------|
|-------------------------------|-------------------------------|
|-7-----------------------------|-7-----------------------------|
|-5--5-5-5-5-5-5-5--5-5-5-5-5-5-|-5--5-5-5-5-5-5-5--5-5-5-5-5-5-|
|-------------------------------|-------------------------------|
  >  PM.........|>  PM.........|  >  PM.........|>  PM.........|

 ____________________________________________________________
                                                             |
|-------------------------------|----------------------------||
|-------------------------------|----------------------------||
|-------------------------------|---------------------------o||
|-7-----------------------------|---------------------------o||
|-5--5-5-5-5-5-5-5--5-5-5-5-5-5-|--0--10-p9-p0--9-p7---------||
|-------------------------------|---------------------10--9--||
  >  PM.........|>  PM.........|


 ______________________________________________________
|3.
|---------------------------|--------------------------|
|---------------------------|--------------------------|
|---------------------------|--------------7---6---4---|
|---------------------------|--5---4---2---7---6---4---|
|--0--10-p9-p0--9-p7--------|--5---4---2---5---4---2---|
|--------------------10--9--|--3---2---0---------------|

 __________________________________________________
                                                   |
|------------|------------|-----------|------------|
|------------|------------|-----------|------------|
|--6----6----|--6----6----|--6--------|-----------o|
|--6----6----|--6----6----|--6--------|-----------o|
|--4----4----|--4----4----|--4--------|------------|
|------------|------------|-----------|------------|

 ___________________________
|4.
|---------------------------|--------------------------|----------|
|---------------------------|--------------------------|----------|
|---------------------------|--------------7---6---4---|--4----\--|
|---------------------------|--5---4---2---7---6---4---|--4----\--|
|--0--10-p9-p0--9-p7--------|--5---4---2---5---4---2---|--6----\--|
|--------------------10--9--|--3---2---0---------------|----------|

6.Leper Messiah

Intro
  Moderate Rock Q=136
         
 Gtrs I, II
          
|-------------|--------------|--------------|-------------|---------------|
|-------------|--------------|--------------|-------------|---------------|
|-------------|--------------|--------------|-------------|---------------|
|-------------|-5------5--7--|-(7)----------|-5------5----|-(5)-----------|
|-------------|-5------5--7--|-(7)----------|-5------5----|-(5)-----------|
|---------0-0-|-3--0-0-3--5--|-(5)------0-0-|-3--0-0-3----|-(3)------0-0--|


                                               3/4

|--------------|--------------|---------------|---------------||
|--------------|--------------|---------------|---------------||
|--------------|--------------|---------------|---------------||
|-5------5--3--|-(3)----------|-5------7------|---------------||
|-5------5--3--|-(3)----------|-5------7------|-----2---------||
|-3--0-0-3--1--|-(1)------0-0-|-3--0-0-5--0-0-|-5-3---5-3-2-1-||

4/4
   
||----------------|----------------|---------------|-------------------||
||o---------------|----------------|---------------|------------------o||
||----------------|----------------|---------------|-------------------||
||----------------|----------------|---------------|-------------------||
||o-2--4-----3-4--|-4---4---4-5-4--|-2--4-----3-4--|-4---4---4-5-4-4--o||
||--0--2---2---2--|-2---2---2-3-2--|-0--2-0-2---2--|-2---2---2-3-2-2---||


|----------|------------|------------|
|----------|------------|------------|
|----------|------------|------------|
|-2--------|-(2)--------|-(2)--------|
|-2--------|-(2)--------|-(2)--------|
|-0--------|-(0)--------|-(0)--------|


|------------|-----------------|-------------|
|------------|-----------------|-------------|
|------------|-----------------|-------------|
|-(2)--------|-(2)-------------|-------------|
|-(2)--------|-(2)--2-2----2-2-|----2-2------|
|-(0)--------|-(0)--0-0----0-0-|----0-0------|


||----------------|--------------||---------------|---------------------|
||o---------------|-------------o||---------------|---------------------|
||----------------|--------------||---------------|------------2--5-----|
||----------------|--------------||---------------|-3-2-5------2--5-----|
||o----2-2----2-2-|----2-2------o||----2-2----2-2-|-3-2-5--3-2-0--3-----|
||-----0-0----0-0-|----0-0-------||----0-0----0-0-|-1-0-3--1-0----------|


 4/4
  
|-------------------|----------------------|
|-------------------|----------------------|
|-------------------|----------------------|
|-3/2------3/2------|-3/2--------3/2--3-5--|
|-3/2------3/2------|-3/2--------3/2--3-5--|
|------0-0------0-0-|------0-0-0------1-3--|
  

|-------------------|----------------||
|-------------------|----------------||
|-------------------|------------2---||
|-2/2------3/2------|-----5------2---||
|-3/2------3/2------|-----5------0---||
|------0-0------0-0-|-1-0-3--1-0-----||
 

||--------------------|----------------------|
||o-------------------|----------------------|
||--------------------|----------------------|
||--3/2------3/2------|-3/2--------3/2--3-5--|
||o-3/2------3/2------|-3/2--------3/2--3-5--|
||-------0-0------0-0-|------0-0-0------1-3--|


|-------------------|--------------------|
|-------------------|--------------------|
|-------------------|--------------------|
|-------------------|--------------------|
|-5/4------5/4------|-5/4------5/4--4/5--|
|-3/2--2-2-3/2--2-2-|-3/2--2-2-3/2--2/3--|
                           end Rhy Fig 1-|

Rhy Fig 1 x3


  
|-----------|-----------|-----------|-----------||
|-----------|-----------|-----------|-----------||
|------8----|-7----6----|------8----|-7----6----||
|-2----8----|-7----6----|-2----8----|-7----6----||
|-2----6----|-5----4----|-2----6----|-5----4----||
|-0---------|-----------|-0---------|-----------||


 Chorus
  
|-----------------|-------------------|-----------------|-------------------|
|-----------------|-------------------|-----------------|-------------------|
|-----------------|-------------------|-----------------|-------------------|
|-9------9/8------|-8-7------7-6------|-9------9/8------|-8/7------7-6------|
|-7------7/6------|-6-5------5-4------|-7------7/6------|-6/5------5-4------|
|-7--0-0-7/6--0-0-|-6-5--0-0-5-4--0-0-|-7--0-0-7/6--0-0-|-6/5--0-0-5-4--0-0-|


|---------------------|-----------------------|
|---------------------|-----------------------|
|-9--------9/8--------|-8-7--------7-6--------|
|-9--------9/8--------|-8-7--------7-6--------|
|-7--------7/6--------|-6-5--------5-4--------|
|-7--0-0-0-7/6--0-0-0-|-6-5--0-0-0-5-4--0-0-0-|


 
|-------------------------|---------------------------|
|-------------------------|---------------------------|
|-------------------------|---------------------------|
|-9----------9/8----------|-8/7----------7-6----------|
|-7----------7/6----------|-6/5----------5-4----------|
|-7--0-0-0-0-7/6--0-0-0-0-|-6/5--0-0-0-0-5-4--0-0-0-0-|


      
|---------------------------|---------------------------|
|---------------------------|---------------------------|
|---------------------------|---------------------------|
|---------------------------|---------------------------|
|-6-5----------6/5----------|-6-5----------6/5----------|
|-4-3--3-3-3-3-4/3--3-3-3-3-|-4-3--3-3-3-3-4/3--3-3-3-3-|


 
|---------------|-----------------|
|---------------|-----------------|
|---------------|-----------------|
|---------------|-----------------|
|-2--4-----3-4--|-4---4---4-5-4---|
|-0--2---2---2--|-2---2---2-3-2---|


                                                   5/4
     
|---------------|-----------------|---------------|--------------------|
|---------------|-----------------|---------------|--------------------|
|---------------|-----------------|---------------|--------------------|
|---------------|-----------------|---------------|--------------------|
|-2--4-----3-4--|-----4---4-5-4-4-|-2--4-----3-4--|-4---4---4-5-4------|
|-0--2-0-2---2--|-2---2---2-3-2-2-|-0--2---2---2--|-2---2---2-3-2--0-0-|


 4/4             3/4               4/4
 
|---------------|----------------||---------------|-------------------||
|---------------|---------------o||---------------|-------------------||
|--------2------|----------------||---------------|-------------------||
|-5------2------|----------------||-2-------------|-2--------2--------||
|-5--2-2-0--2-2-|-----2---------o||-2-------------|-2--------2--------||
|-3--0-0----0-0-|-5-3---5-3-2-1--||-0-------3-2-1-|-0--3-2-1-0--3-2-1-||


 Interlude
  Faster Q=184
  Gtr II
  
|--------------|----------------|--------------|-----------------|
|--------------|----------------|--------------|-----------------|
|---4-0--------|-----4-0--------|---4-0--------|-----4---5---4-5-|
|-2-----4-2----|--2------4-2----|-2-----4-3----|-7-5---7---7-----|
|--------------|----------------|--------------|-----------------|
|--------------|----------------|--------------|-----------------|

 
|--------------|----------------|--------------|-----------------|
|--------------|----------------|--------------|-----------------|
|--------------|----------------|--------------|-----------------|
|--------------|----------------|--------------|---------2-------|
|-2------------|-(2)------------|-3------------|-5-------0-------|
|-0------------|-(0)------------|-1------------|-3---------------|


|--------------|----------------|--------------|-----------------|
|--------------|----------------|--------------|-----------------|
|---4-0--------|-----4-0--------|---4-4-3-2----|-----4---5---4-5-|
|-2-----4-2----|--2------4-2----|-2------------|-7-5---7---7-----|
|--------------|----------------|--------------|-----------------|
|--------------|----------------|--------------|-----------------|


|--------------|----------------|--------------|-----------------|
|--------------|----------------|--------------|-----------------|
|--------------|----------------|--------------|---------4-------|
|--------------|----------------|-7------------|-2-------4-------|
|-2------------|-(2)------------|-5------------|-0-------2-------|
|-0------------|-(0)------------|--------------|-----------------|



|--------------|--------------|--------------|-----------------|
|--------------|--------------|--------------|-----------------|
|---4-0--------|---4-0--------|---4-0--------|-----4---5---4-5-|
|-2-----4-2----|-2-----4-2----|-2-----4-3----|-7-5---7---7-----|
|--------------|--------------|--------------|-----------------|
|--------------|--------------|--------------|-----------------|



|--------------|--------------|--------------|-----------------|
|--------------|--------------|--------------|-----------------|
|--------------|--------------|--------------|-----------------|
|--------------|--------------|--------------|---------2-------|
|-2------------|-2-2----------|-3------------|-5-------0-------|
|-0------------|-0-0----------|-1------------|-3---------------|


  
|--------------|--------------|--------------|----------------------|
|--------------|--------------|--------------|----------------------|
|---4-0--------|---4-0--------|---4-4-3-2----|----------------------|
|-2-----4-2----|-2-----4-2----|-2------------|-2-2--2---4-4-4--4----|
|--------------|--------------|--------------|-0-0--0---2-2-2--2----|
|--------------|--------------|--------------|----------------------|



|--------------|--------------|--------------|----------------------|
|--------------|--------------|--------------|----------------------|
|--------------|--------------|--------------|----------------------|
|--------------|--------------|-7------------|-2-2--2---4-4-4--4----|
|-2------------|-2-2----------|-5------------|-0-0--0---2-2-2--2----|
|-0------------|-0-0----------|--------------|----------------------|


   Bridge
    Gtrs I, II


||------------------------|-----------------------|
||o-----------------------|-----------------------|
||------------------------|-----------------------|
||----------2----------2--|---------2----------2--|
||o---------2----------2--|---------2----------2--|
||--0-0-0-0-0--0-0-0-0-0--|-0-0-0-0-0--0-0-0-0-0--|



|-----------------------|-------------------------|
|-----------------------|-------------------------|
|-----------------------|-------------------------|
|---------3----------3--|---------5----------7----|
|---------3----------3--|---------5----------7----|
|-1-1-1-1-1--1-1-1-1-1--|-3-3-3-3-3--5-5-5-5-5----|



|-----------------------|-----------------------|
|-----------------------|-----------------------|
|-----------------------|-----------------------|
|---------2----------2--|---------2----------2--|
|---------2----------2--|---------2----------2--|
|-0-0-0-0-0--0-0-0-0-0--|-0-0-0-0-0--0-0-0-0-0--|



|-----------------------|----------------------||
|-----------------------|---------------------o||
|---------7----------7--|----------------------||
|---------7----------7--|-2-2--2---4-4-4--4----||
|-5-5-5-5-5--5-5-5-5-5--|-0-0--0---2-2-2--2---o||
|-----------------------|----------------------||


 Guitar Solo
  Gtr II
   |--3--|  |--3--|  |--3--|  |--3--|    |--3--|  |--3--|  |--3--|  |--3--|
   E  E  E  E  E  E  E  E  E  E  E  E    E  E  E  E  E  E  E  E  E  E  E  E
|-19p15----------15-19p15----------15-|-19p15----------15-19p15----------15-|
|-------17----17----------17----17----|-------17----17----------17----17----|
|----------16----------------16-------|----------16----------------16-------|
|-------------------------------------|-------------------------------------|
|-------------------------------------|-------------------------------------|
|-------------------------------------|-------------------------------------|


|-------------------------------------|-------------------------------------|
|-------------------------------------|-------------------------------------|
|-------------------------------------|-------------------------------------|
|-------------------------------------|-------------------------------------|
|--2-----2--2-----2--2-----2--2-----2-|--2-----2--2-----2--2-----2--2-----2-|
|--0-----0--0-----0--0-----0--0-----0-|--0-----0--0-----0--0-----0--0-----0-|
|-Rhy Fig 2

   |--3--|  |--3--|  |--3--|  |--3--|    |--3--|  |--3--|  |--3--|  |--3--|
   E  E  E  E  E  E  E  E  E  E  E  E    E  E  E  E  E  E  E  E  E  E  E  E
|-20p17----------17-20p17----------17-|-22p19----------19-22p19----------19----|
|-------18----15----------18----18----|-------20----20----------20----20-------|
|----------17----------------17-------|----------19----------------19----------|
|-------------------------------------|----------------------------------------|
|-------------------------------------|----------------------------------------|
|-------------------------------------|----------------------------------------|


|-------------------------------------|----------------------------------------|
|-------------------------------------|----------------------------------------|
|-------------------------------------|----------------------------------------|
|-------------------------------------|--------------------2-----2--2-----2----|
|--3-----3--3-----3--3-----3--3-----3-|--5-----5--5-----5--0-----0--0-----0----|
|--1-----1--1-----1--1-----1--1-----1-|--3-----3--3-----3----------------------|


   |--3--|  |--3--|  |--3--|  |--3--|    |--3--|  |--3--|  |--3--|  |--3--|
   E  E  E  E  E  E  E  E  E  E  E  E    E  E  E  E  E  E  E  E  E  E  E  E
|-19p15----------15-19p15----------15-|-19p15----------15-19p15----------15-|
|-------17----17----------17----17----|-------17----17----------17----17----|
|----------16----------------16-------|----------16----------------16-------|
|-------------------------------------|-------------------------------------|
|-------------------------------------|-------------------------------------|
|-------------------------------------|-------------------------------------|


|-------------------------------------|-------------------------------------|
|-------------------------------------|-------------------------------------|
|-------------------------------------|-------------------------------------|
|-------------------------------------|-------------------------------------|
|--2-----2--2-----2--2-----2--2-----2-|--2-----2--2-----2--2-----2--2-----2-|
|--0-----0--0-----0--0-----0--0-----0-|--0-----0--0-----0--0-----0--0-----0-|


   S  S  S    S  S  S  S    S  S  S  S    S  S  S  S    S
|-22-20-19---17-21-19-17------19-16---------17------------|
|--------------------------20-------20---19----20-19---17-|
|---------------------------------------------------------|
|---------------------------------------------------------|
|---------------------------------------------------------|
|---------------------------------------------------------|


|---------------------------------------------------------|
|---------------------------------------------------------|
|---------------------------------------------------------|
|--7-------7-----7-------7-----7-------7-----7-------7----|
|--5-------5-----5-------5-----5-------5-----5-------5----|
|---------------------------------------------------------|


   S  S   S  S  S  S  S  S    S  E.  +S   S  S  S
|---------------------------------------------------|
|-20-19--17----19-17-15-14---17p15--(15)-13-12-15---|
|-----------19--------------------------------------|
|---------------------------------------------------|
|---------------------------------------------------|
|---------------------------------------------------|


|---------------------------------------------------|
|---------------------------------------------------|
|---------------------------------------------------|
|--2--2---------2--------4-4--4-------4-------------|
|--0--0---------0--------2-2--2-------2-------------|
|---------------------------------------------------|
                                      end Rhy Fig 2-|

w/Rhy Fig 2

                                 |--3--|
   E      +E      E      +E      E  E  E  E  E
|------------------------------------------------|
|-15b17==(17)r---15b17==(17)r---15s12----12-15---|
|-------------------------------------14---------|
|------------------------------------------------|
|------------------------------------------------|
|------------------------------------------------|


                          ~~~~~~~~~~~~
   E  Q          +E      E      +E      S  S  S    S
|----------------------------------------------------|
|-12-15b17======(17)r---15b17==(17)r---15p12------12-|
|--------------------------------------------13------|
|----------------------------------------------------|
|----------------------------------------------------|
|----------------------------------------------------|



   E  S    S  S  S  S    S  S  S  E    E  E      E  Q.           +Q       Q
|-15-15p==12----------------------------------|--------------------------(7)/---|
|------------15p12------12-15p12--------------|----15-----------(15)\-----------|
|------------------14------------14---12------|-12-14b16========(16)r\----------|
|----------------------------------------14---|---------------------------------|
|---------------------------------------------|---------------------------------|
|---------------------------------------------|---------------------------------|



   S  S  S    S  S  S  S    S  S  S  S    S  S  S  S    S
|-19p15------15-19p15-17p==15----15-19p==15-17p15------15-|
|-------17--------------------17------------------17------|
|---------------------------------------------------------|
|---------------------------------------------------------|
|---------------------------------------------------------|
|---------------------------------------------------------|


   S  S  E    S  S  S    S  E  S    S  S  E.
|-19p15------19p15-17p==15----19p==15-17p15----|
|-------17-----------------15------------------|
|----------------------------------------------|
|----------------------------------------------|
|----------------------------------------------|
|----------------------------------------------|


                            ~~~~~                                      ~~~~~~~~~~~~~
                                   |--3--|
   Q        +Q      E      +E      E  E  E    E     Q        +E        Q       +Q
|-20b22====(22)r---20b22==(22)r---19p17----|-17----22b24====(24)r-----22b24===(24)r----|
|-20b22====(22)r------------------------19-|-------------------------------------------|
|------------------------------------------|-------------------------------------------|
|------------------------------------------|-------------------------------------------|
|------------------------------------------|-------------------------------------------|
|------------------------------------------|-------------------------------------------|



    Faster Q=184
    Gtr II

||------------------|-------------------|-----------------|------------------|
||o-----------------|-------------------|-----------------|------------------|
||----4-0-----------|-----4-0-----------|---4-0-----2-0---|-----4---5---4-5--|
||--2-----4-2-5-4-2-|--2------4-2-5-4-2-|-2-----4-3-----3-|-7-5---7---7------|
||o-----------------|-------------------|-----------------|------------------|
||------------------|-------------------|-----------------|------------------|


||------------------|-------------------|-----------------|------------------|
||o-----------------|-------------------|-----------------|------------------|
||------------------|-------------------|-----------------|------------------|
||------------------|-------------------|-----------------|---------2--------|
||o-2---------------|-(2)---------------|-3---------------|-5-------0--------|
||--0---------------|-(0)---------------|-1---------------|-3----------------|



|-----------------|-------------------|
|-----------------|-------------------|
|---4-0-----------|-----4-0-----------|
|-2-----4-2-5-4-2-|--2------4-2-5-4-2-|
|-----------------|-------------------|
|-----------------|-------------------|


|-----------------|-------------------|
|-----------------|-------------------|
|-----------------|-------------------|
|-----------------|-------------------|
|-2---------------|-(2)---------------|
|-0---------------|-(0)---------------|



|-----------------|-----------------------||
|-----------------|----------------------o||
|---4-4-3-2-4-3-2-|-----------------------||
|-2---------------|-2-2--2---4-4-4--4-----||
|-----------------|-0-0--0---2-2-2--2----o||
|-----------------|-----------------------||


|-----------------|-----------------------||
|-----------------|----------------------o||
|-----------------|-----------------------||
|-7---------------|-2-2--2---4-4-4--4-----||
|-5---------------|-0-0--0---2-2-2--2----o||
|-----------------|-----------------------||


  Gtrs I, II

|-------------------------|-------------------------|
|-------------------------|-------------------------|
|-------------------------|-------------------------|
|-------------------------|-------------------------|
|-------------------------|-------------------------|
|-5-5-5-5-5-5-5-5-5-5-5-5-|-5-5-5-5-5-5-5-5-5-5-5-5-|


 
|-------------------------|----------------------------||
|-------------------------|----------------------------||
|-------------------------|----------------------------||
|-------------------------|----------------------------||
|-------------------------|----------------------------||
|-3-3-3-3-3-3-3-3-3-3-3-3-|-2-2-2-2-2-2-1-1-1-1-1-1----||


 H
|-----------|-----------|-----------|-----------||
|-----------|-----------|-----------|-----------||
|------8----|-7----6----|------8----|-7----6----||
|-2----8----|-7----6----|-2----8----|-7----6----||
|-2----6----|-5----4----|-2----6----|-5----4----||
|-0---------|-----------|-0---------|-----------||


 
|-----------------------|-----------------------|
|-----------------------|-----------------------|
|-----------------------|-----------------------|
|---------2----------2--|---------2----------2--|
|---------2----------2--|---------2----------2--|
|-0-0-0-0-0--0-0-0-0-0--|-0-0-0-0-0--0-0-0-0-0--|


  
|-----------|-----------|-----------|-----------||
|-----------|-----------|-----------|-----------||
|------8----|-7----6----|------8----|-7----6----||
|-9----8----|-7----6----|-9----8----|-7----6----||
|-7----6----|-5----4----|-7----6----|-5----4----||
|-0---------|-----------|-0---------|-----------||


|-----------------------|-----------------------||---------------------------|
|-----------------------|-----------------------||o--------------------------|
|-----------------------|-----------------------||---------------------------|
|---------5----------5--|---------5----------5--||---------------------------|
|---------5----------5--|---------5----------5--||o-7-----------6------------|
|-3-3-3-3-3--3-3-3-3-3--|-3-3-3-3-3--3-3-3-3-3--||----0-0-0-0-0---0-0-0-0-0--|


|--------------------------||-------------------------|
|-------------------------o||-------------------------|
|--------------------------||-------------------------|
|--------------------------||-5-----------5-----------|
|-5-----------4-----------o||-5-----------5-----------|
|---0-0-0-0-0---0-0-0-0-0--||-3-3-3-3-3-3-3-3-3-3-3-3-|


 
|-------------------------|-----------|
|-------------------------|-----------|
|-------------------------|-----------|
|-5-----------5-----------|-5----5----|
|-5-----------5-----------|-5----5----|
|-3-3-3-3-3-3-3-3-3-3-3-3-|-3----3----|


                                                   Q=136

|-----------|----------|------------|------------|--------||
|-----------|----------|------------|------------|--------||
|-----------|----------|------------|------------|--------||
|-5----5----|-5--------|-(5)--------|-(5)--------|-(5)----||
|-5----5----|-5--------|-(5)--------|-(5)--------|-(5)----||
|-3----3----|-3--------|-(3)--------|-(3)--------|-(3)----||


                             
              

|-------------------|---------------|
|-------------------|---------------|
|-------------------|---------------|
|-------------------|---------------|
|---------2---------|-2--4-----3-4--|
|-3-2-5-3---5-3-2-1-|-0--2---2---2--|


 
|----------------|---------------|-------------------|
|----------------|---------------|-------------------|
|----------------|---------------|-------------------|
|----------------|---------------|-------------------|
|-4---4---4-5-4--|-2--4-----3-4--|-4---4---4-5-4-4---|
|-2---2---2-3-2--|-0--2-0-2---2--|-2---2---2-3-2-2---|


                 5/4                  4/4             3/4

|---------------|--------------------|---------------|----------------|
|---------------|--------------------|---------------|----------------|
|---------------|--------------------|--------2------|----------------|
|---------------|--------------------|-5------2------|----------------|
|-2--4-----3-4--|-4---4---4-5-4--2-2-|-5--2-2-0--2-2-|-----2----------|
|-0--2---2---2--|-2---2---2-3-2--0-0-|-3--0-0----0-0-|-5-3---5-3-2-1--|


 4/4
    
|------------|----------------*|
|------------|----------------*|
|------------|----------------*|
|-2----------|-3--2-2-2-2-----*|
|-2----------|-3--2-2-2-2-----*|
|-0----------|-1--0-0-0-0-----*|

7.Orion

Intro
                 8x
||-----------------|-----------------|----------------|-------------------||
||-----------------|-----------------|----------------|-------------------||
||o----------------|-----------------|-4--------------|------------------o||
||o----------------|-----------------|----------------|-4----------------o||
||--7--------------|(7)--------------|-5--------------|-6-----------------||
||--0--------------|(0)--------------|----------------|-------------------||


                                 6x
||-----------------|-----------------|-----------------|------------------||
||-----------------|-----------------|-----------------|------------------||
||o----------------|-----------------|-----------------|-----------------o||
||o-5-----5----5---|-4-----5-----5---|-4-----4-----4-4-|-4-----4-----4-4-o||
||--7-----7----7---|-7-----7-----7---|-5-----5-----5-5-|-6-----6-----6-6--||
||----0-0---0-0--0-|---0-0---0-0---0-|---7-7---7-7-----|---7-7---7-7------||
      x x   x x  x     x x   x x   x     x x   x x         x x   x x


    
||----------------------------------|---------------------------------|
||----------------------------------|---------------------------------|
||o---------2-----------4-----------|-5-------------------------------|
||o-2-2-2-2-----2-2-2-2-----2-2-2-2-|-----2-2-2-2-2---2-2-3---3-3-2---|
||----------------------------------|---------------------------------|
||----------------------------------|---------------------------------|


                             4x
|---------------------------------|----------------------------------||
|---------------------------------|----------------------------------||
|---------5-----------4-----------|-2-------------------------------o||
|-2-2-2-2-----2-2-2-2-----2-2-2-2-|-----2-2-2-2-2---2-2-3---3-3-2---o||
|---------------------------------|----------------------------------||
|---------------------------------|----------------------------------||


Rhythm Figure 2:
            
||----------------------------------|---------------------------------|
||----------------------------------|---------------------------------|
||o---------2-----------4-----------|-5-------------------------------|
||o---------2-----------2-----------|-5-------------------------------|
||----------0-----------2-----------|-3-------------------------------|
||--0---0-0-----0-0-0-0-----0-0-0-0-|-----0-0-0-0-0---0-0-1---1-1-0---|
                x x x x     x x x x       x x x x x   x x x   x x x

                                     3x
|---------------------------------|----------------------------------||
|---------------------------------|----------------------------------||
|---------5-----------4-----------|-2-------------------------------o||
|---------5-----------2-----------|-2-------------------------------o||
|---------3-----------2-----------|-0--------------------------------||
|-0---0-0-----0-0-0-0-----0-0-0-0-|-----0-0-0-0-0---0-0-1---1-1-0----||
  x   x x     x x x x     x x x x      x x x x x   x x x   x x x





 
||------------------------------|------------------------------|
||------------------------------|------------------------------|
||o--------h-p-------h-p--------|-------h-p-------h-p----------|
||o-------4-5-4---4-4-5-4-------|------4-5-4---4-4-5-4---------|
||--------------7---------7-----|(7)---------7---------7-------|
||------------------------------|------------------------------|

 
|-----------------------------|-------------------------------||
|-----------------------------|-------------------------------||
|-----------------------------|------------------------------o||
|-----------5---5---4---------|----------5---5---4---4-------o||
|-(7)-------------------5-----|-------------------------------||
|-----------------------------|-------------------------------||


|---------------------------|------------------------|---------------------|
|---------------------------|------------------------|-----------------h---|
|----sl----sl----sl----sl---|---sl-------------12-14/|---14-14-12-12-11-12-|
|-4-2--5--5--7--7--9--9--12-|-12-14-14-14---14-------|---------------------|
|---------------------------|------------------------|---------------------|
|---------------------------|------------------------|---------------------|


|---------------------|------------------------|--------------------------12|
|------------------15-|-15/-----------------12-|-15/15-15-15/15-15-15/--15--|
|(12)-11--------12----|-14----14/-14-----14----|----------------------------|
|--------12-----------|------------------------|----------------------------|
|---------------------|------------------------|----------------------------|
|---------------------|------------------------|----------------------------|


  Bm                  p  p              p  p     p     B
|-15-14-12-15-14-12-15-14-12-15-14-12-15-14-12-15-12-|-17/--17/--17/17-----|
|----------------------------------------------------|------------------17/|
|----------------------------------------------------|---------------------|
|----------------------------------------------------|---------------------|
|----------------------------------------------------|---------------------|
|----------------------------------------------------|---------------------|

|----------------p-------------|-------------p-----------------------------|
|-(17)---17/---17-15----15-17/-|-(17)--17--17-15-----15--------------------|
|--------------------14--------|-----------------16-------16---------------|
|------------------------------|-------------------------------------------|
|------------------------------|-------------------------------------------|
|------------------------------|-------------------------------------------|


|--------------------------------------|-17/--------17/--17--------14--15--|
|----15-19----15-19----15-19----15-19--|-----------------------------------|
|-16-------16-------16-------16--------|-----------------------------------|
|--------------------------------------|-----------------------------------|
|--------------------------------------|-----------------------------------|
|--------------------------------------|-----------------------------------|


  B5                h     h     h    h      h   h   h   h p         p
|-17--15--14--15--14-15-12-14-10-12-8-10-|-7-8-5-7-3-5-2-3-2-------3-2-----|
|----------------------------------------|-----------------------------5---|
|----------------------------------------|---------------------------------|
|----------------------------------------|---------------------------------|
|----------------------------------------|---------------------------------|
|----------------------------------------|---------------------------------|


  F#5                E5
|---------------------p-----|--h------------|------------------------------|
|-3-----3--5/-----5--5-3----|-3-5---3--2--3-|--h-p-h-p-h-p-h-p-h-p---------|
|----4-------------------4--|---------------|-4-6-4-6-4-6-4-6-4-6-4--------|
|---------------------------|---------------|------------------------------|
|---------------------------|---------------|------------------------------|
|---------------------------|---------------|------------------------------|


  B5               B5/A             F#5              E5
|----------------|----------------|----------------|----------|------------|
|----------------|----------------|----------------|----------|------------|
|-4--------------|----------------|----------------|----------|------------|
|-4------4-4-4-2-|-4------3-3-2-2-|-4------3-3-3-3-|-2--------|(2)---------|
|-2------2-2-2-2-|-0------0-0-0-0-|-4------4-4-4-4-|-2--------|(2)---------|
|----------------|----------------|-2------2-2-2-2-|-0--------|(0)---------|
         x x x x          x x x x          x x x x




    F#m      A       Bm       E            F#m    A     Bm       E
||-----------------|---------------------|------------|-------------------||
||-----------------|---------------------|------------|-------------------||
||o-9/-------------|-(9)------9/\---6-9--|-6----------|-(6)--------------o||
||o-9/-------------|-(9)------9/\---7-9--|-7----------|-(7)--------------o||
||--11'------------|-(11)-----11'`--9-11-|-9----------|-(9)---------------||
||-----------------|---------------------|------------|-------------------||
                                                                slide down

    F#m      A       Bm       E            F#m    A     Bm       E
|------------------|---------------------|------------|--------------------|
|------------------|---------------------|------------|--------------------|
|---9/-------------|-(9)------9/\---6-9--|-6----------|--------------------|
|---9/-------------|-(9)------9/\---7-9--|-7-7-7-7----|-(7)----------------|
|---11'------------|-(11)-----11'`--9-11-|-9-9-9-9----|-(9)----------------|
|------------------|---------------------|---9-9-9----|-(9)----------------|
                                                                slide down


    F#m      A       Bm       E            F#m    A     Bm       E
|------------------|---------------------|-------------|--------------------|
|------------------|---------------------|-------------|--------------------|
|---9/-------------|-(9)------9/\---6-9--|-6-----------|--------h-sl--------|
|---9/ ------------|-(9)------9/\---7-9--|-7-7-7-7-6-6-|-7--6--6-7-9--------|
|---11'------------|-(11)-----11'`--9-11-|-9-9-9-9-7-7-|-9--7--7-9-11-------|
|------------------|---------------------|---9-9-9-7-7-|-9--7--7-9-12-------|


   F#m     A       Bm        E             F#m      A       Bm     E
|----------------|-----------------------|----------------|----------------|
|----------------|-----------------------|----------------|----------------|
|----------------|-----------sl----------|-6--------------|------------9/\/|
|----------------|--------7-9-11--9--7-9-|----4--7--7-----|(7)-------------|
|--9-------------|(9)-7-9----------------|----------9-----|(9)-------------|
|----------------|-----------------------|----------------|----------------|




  F#m     A        Bm        E          F#m    A      Bm       E
|----------------|--------------------|-------------|----------------------|
|----------------|----------------h---|-------------|----------------------|
|-(9)------------|(9)-----9/\/\--6-9--|-6-----------|----------sl-----9-9-9|
|----------------|--------------------|---7-7-7-6-6-|-7--6--6-7-9----------|
|----------------|--------------------|-------------|----------------------|
|----------------|--------------------|-------------|----------------------|

   F#m      A          Bm         E          F#m  A  Bm         E
|--------------------|---------------------|--------|----------------------|
|--------------------|---------------------|--------|----------------------|
|--9--9-9-9--9--6--6-|-7--7--7-----------6-|-6------|(6)----------9-9-9-9-9|
|--------------------|----------9-7-6--7---|-7------|(7)-------------------|
|--------------------|---------------------|--------|----------------------|
|--------------------|---------------------|--------|----------------------|


  F#m       A          Bm         E          F#m A    E
|--------------------|---------------------|--------|----------------------|
|--------------------|---------------------|--------|--------------------p-|
|-9--9-9-9--9--6--6--|-7--7--7-----------6-|-6------|(6)---------4/--\(4)-2|
|--------------------|----------9-7-6--7---|--------|----------------------|
|--------------------|---------------------|--------|----------------------|
|--------------------|---------------------|--------|----------------------|


  F#m       A          Bm         E          F#m    A      Bm     E
|--------------------|---------------------|-------------|-----------------|
|--2-----------------|(2)------------------|-------------|-----------------|
|--2-----------------|(2)-----------------2|-------------|-----------------|
|--4-----------------|(4)-------------2-2--|-4-----------|(4)-----4--------|
|--------------------|---------------------|-------------|-----------------|
|--------------------|---------------------|-------------|-----------------|
                                                                 

    F#m        A            Bm         E         3x
||------------------------|----------------------||
||------------------------|----------------------||
||o--------6---6----6-9-6-|-7--7----------------o||
||o------7---7----7-------|------9-6------6-9-6-o||
||--7--9------------------|----------7--7--------||
||------------------------|----------------------||
   

   F#m        A            Bm            E
|------------------------|--------------------------|
|------------------------|--------------------------|
|---------6---6----6-9-6-|-7-7-7-7------------------|
|-------7---7----7-------|---------4-6-9------6-9-6-|
|--7--9------------------|---------------7--7-------|
|------------------------|--------------------------|


    F#m      A          Bm       E        4x
||--------------------|-------------------||
||--------------------|-------------------||
||o-------6-9-6---6-9-|-7----7-9-------6-o||
||o-7-----------------|----------6---7---o||
||--------------------|-------------------||
||--------------------|-------------------||


  F#5              A5                   E5                C#5
|-------------------------------------|----------------------------14-15-17-|
|-------------------------------------|----------------12-14-15-17----------|
|-------------------------------------|-------11-13-14----------------------|
|-------------11----------11-12-14-11-|-12-14-------------------------------|
|-12-11-12-14----11-12-14-------------|-------------------------------------|
|-------------------------------------|-------------------------------------|


  F#5        A5      p                  E5              C#5
|-17----17--17--14-17-14--14-17-14-12-|---p---------------------------|
|-------------------------------------|-14-12---p------------17-------|
|-------------------------------------|-------14-11-14-16-16/--16/----|
|-------------------------------------|-------------------------------|
|-------------------------------------|-------------------------------|
|-------------------------------------|-------------------------------|


  F#5      A5 h            E5       h h sl  C#5
|-2---2-4-5--5-7---5--4--|-sl-h-h--4-5-7-9--7--7-5-4-5-|
|------------------------|-2-3-5-7---------------------|
|------------------------|-----------------------------|
|------------------------|-----------------------------|
|------------------------|-----------------------------|
|------------------------|-----------------------------|


  F#5         A5               E5              C#5
|-4--------------------------|-------------------------|
|---5--------------p---------|---------------p---------|
|-----4--2-4-4/\(4)-2------2-|-4-2-4-2-4/\(4)-2--------|
|---------------------4--4---|------------------4--4---|
|----------------------------|-------------------------|
|----------------------------|-------------------------|


  E5      G5     D5           B5               E5                       G5
|--------------|------------------------------|------------------------------|
|--------------|-----------------------p------|--p-------p-------p-----------|
|-9/'---\--9---|(9)-----9---9-------4-5-4---4-|-5-4---4-5-4---4-5-4---4------|
|--------------|----7-7---5---4-5-7-------7---|-----7-------7-------7----5---|
|--------------|------------------------------|------------------------------|
|--------------|------------------------------|------------------------------|


  D5              B5              E5         G5
|-------------------------------|------------------------|
|------------------p------------|-3-----3----------------|
|----4-5-7--5-4-5-5-4---4-5-4-5-|---4----4---4-----4-----|
|-(5)-----------------7---------|-----5----5---5-2---5-2-|
|-------------------------------|------------------------|
|-------------------------------|------------------------|


  D5         B5             E5            G5
|-------------------------|-------------------------------|
|-------------------------|----------------------p-sl-----|
|-5-2---5-2---2-------2---|-11'-11-9-11'`-9-11-11-9-7-9-7-|
|-----4-----4---4---4---4-|-------------------------------|
|-----------------5-------|-------------------------------|
|-------------------------|-------------------------------|


  D5              B5                             E5
|------------------------------|               |------|
|-----h-p-sl-------------------|               |------|
|-9--7-9-7-5-7-5-4-5-4-2-4-5-4-| Rhythm Change |-5-5--|
|------------------------------| (6/8 -> 2/8)  |------|
|------------------------------|               |------|
|------------------------------|               |------|



   A      E5      C5                                     C5      E5
|---------------------|----------------|               |-----------------|
|---------------------|----------------|               |-----------------|
|--2--------------5---|(5)-------------| Rhythm Change |-5---------------|
|--2------2-------5---|(5)-------------| (4/4 -> 3/4)  |-5-------2-------|
|--0------2-------3---|(3)-------------|               |-3-------2-------|
|---------0-----------|------------0-0-|               |---------0-------|
                                   x x



  A         B5                 A5    B5
|---------|------------------------|----------------------------p--|
|---------|-10/--10/--10/--10/-10/-|(10)-10/-10/-10/-10/-10/--10-7-|
|-2-------|------------------------|-------------------------------|
|-2-------|------------------------|-------------------------------|
|-0-------|------------------------|-------------------------------|
|---------|------------------------|-------------------------------|


                                              p     p     p     p     p     p
|--------p-----------p---------p--------p--|10-7--10-7--10-7--10-7--10-7--10-7-|
|----7-10-7-10/-10-10-7----7-10-7-10/-10-7-|----7-----7-----7-----7-----7------|
|-9/--------------------9/-----------------|-----------------------------------|
|------------------------------------------|-----------------------------------|
|------------------------------------------|-----------------------------------|
|------------------------------------------|-----------------------------------|


  B5              A5      B5/A                p
|-10/--10/-10--7-10-10/-|(10)---10/-10------10-7-|
|--------------7--------|------------------------|
|-----------------------|------------------------|
|-----------------------|------------------------|
|-----------------------|------------------------|
|-----------------------|------------------------|


  F#5                       A5         E5
    p
|-10-7---p----p----------------------|-------------------------|
|------10-7-10-7------p--------------|-------------------------|
|----------------9-7-9-7------p------|-------------------------|
|------------------------9-7-9-7-----|--p---p-----p---p--------|
|--------------------------------9-8-|-7-5-7-5---7-5-7-5---5---|
|------------------------------------|---------7---------7-----|


  B5                    A5        B5
                                                             p            p
|-------------------------------|------------------p---22/-22-19-----19-22-19-|
|----------------------------19-|-----19-22-22/--22-19-----------22/----------|
|-------------h--7--------sl----|-21/-----------------------------------------|
|--------sl--7-9----9--(9)-21---|---------------------------------------------|
|--h--5-7-9---------------------|---------------------------------------------|
|-5-7---------------------------|---------------------------------------------|


  B5/A
|----19----19----19----19----19----19----19-------|
|-22/---22/---22/---22/---22/---22/---22/---22-22-|
|-------------------------------------------------|
|-------------------------------------------------|
|-------------------------------------------------|
|-------------------------------------------------|


  F#5                                          A5
|-----------------------------------------------------|
|----19-22-19----19-22-19----19-22-19----19-22-22/----|
|-21/---------21----------21----------21--------------|
|-----------------------------------------------------|
|-----------------------------------------------------|
|-----------------------------------------------------|


  B5                    A5        B5/A
|---22--22------22--22------22/-|-----22--22------22--22----------|
|------------h-----------h------|--h-----------h-----------h---p--|
|-----------2-4---------2-4-----|-2-4---------2-4---------2-4-7-6-|
|-------------------------------|---------------------------------|
|-------------------------------|---------------------------------|
|-------------------------------|---------------------------------|


  F#5                     A5          E5
|-----------------------------------|-----------------------------|
|--p-----p-----p-----p-----p-----p--|--p-p---p-p---p--------------|
|-7-6---7-6---7-6---7-6---7-6---7-6-|-4-2-0-4-2-0-4-2-2-----------|
|-----9-----9-----9-----9-----9-----|--------------------2--2-----|
|-----------------------------------|-----------------------------|
|-----------------------------------|-----------------------------|

8.Damage Inc.

Intro
Two guitars
|--5------3------|----------------|----------------|----------------|
|----------------|--3------5------|--7------7------|--8------3------|
|--2------4------|--4------6------|--7------4------|--5------7-p-0--|
|----------------|----------------|----------------|----------------|
|----------------|----------------|----------------|----------------|
|----------------|----------------|----------------|----------------|
 volume swells, with heavy echo

|--5------3------|----------------|----------------|----------------|
|----------------|--3------5-p-3--|--7-p-3--7-p-3--|--8--p-5h7p5-3--|
|--2------4------|--4------6-p-2--|--7------4------|--5--p-2h4p2-0--|
|----------------|----------------|----------------|----------------|
|----------------|----------------|----------------|----------------|
|----------------|----------------|----------------|----------------|

Fast Tempo=190
||------------|--------------------|------------|--------------------|
||------------|--------------------|------------|--------------------|
||------------|--------------------|------------|--------------------|
||--2----2----|--2----2---3--3--3--|--2----2----|--2----2---3--3--3--|
||--2----2----|--2----2---3--3--3--|--2----2----|--2----2---3--3--3--|
||--0----0----|--0----0---1--1--1--|--0----0----|--0----0---1--1--1--|
                                           
|--------------|------------------|--------------|--------------||
|--------------|------------------|--------------|--------------||
|--------------|------------------|--------------|--------------||
|--2--2--2--2--|--2--2--2--3-3-3--|--2--2--2--2--|--2--2--2--2--||
|--2--2--2--2--|--2--2--2--3-3-3--|--2--2--2--2--|--2--2--2--2--||
|--0--0--0--0--|--0--0--0--1-1-1--|--0--0--0--0--|--0--0--0--0--||

  Rhy Fig 1
||-------------------------------------------------|------------------------|
||-------------------------------------------------|------------------------|
||-------------------------------------------------|------------------------|
||-------------------------------------------------|-----7/8-----7/8-----7/-|
||-------------------------------------------------|-----7/8-----7/8-----7/-|
||-0--0--0--0--0--0--0--0--0--0--0--0--0--0--0--0--|--5-------X-------X-----|
   PM............................................|
 
||-------------------------------------------------|------------------------|
||*------------------------------------------------|------------------------|
||-------------------------------------------------|------------------------|
||--/8---------------------------------------------|-----7/8-----7/8-----7/-|
||*-/8---------------------------------------------|-----7/8-----7/8-----7/-|
||-------0--0--0--0--0--0--0--0--0--0--0--0--0--0--|--5-------X-------X-----|
         PM......................................|

|------------------------------------------------|------------------------|
|------------------------------------------------|------------------------|
|------------------------------------------------|------------------------|
|-/8---------------------------------------------|-----7/8-----7/8-----7/-|
|-/8---------------------------------------------|-----7/8-----7/8-----7/-|
|------0--0--0--0--0--0--0--0--0--0--0--0--0--0--|--5-------X-------X-----|
       PM......................................|
                                                  ________________________
                                                 |1.
|------------------------------------------------|------------------------|
|------------------------------------------------|------------------------|
|------------------------------------------------|------------------------|
|-/8---------------------------------------------|-----5\4-----5\4-----5\-|
|-/8---------------------------------------------|-----5\4-----5\4-----5\-|
|------2--2--2--2--2--2--2--2--2--2--2--2--2--2--|--3-------X-------X-----|       
       PM......................................|
 __________________________________________________________________________
                                                                           |
|------------------------------------------------|-------------------------||
|------------------------------------------------|------------------------*||
|------------------------------------------------|-------------------------||
|-\4---------------------------------------------|-----7/8-----7/8-----7/--||
|-\4---------------------------------------------|-----7/8-----7/8-----7/-*||
|------0--0--0--0--0--0--0--0--0--0--0--0--0--0--|--5-------X-------X------||
       PM......................................|
 ________________________
|2.                                   end Rhy Fig 1
|------------------------|------------|------------|
|------------------------|------------|------------|
|------------------------|--4---------|------------|
|-----5\4-----5\4-----5--|--4----5----|--7----5----|
|-----5\4-----5\4-----5--|--2----5----|--7----5----|
|--3-------X-------X-----|-------3----|--5----3----|

|--------------------------------------------------|-------------|
|--------------------------------------------------|-------------|
|--------------------------------------------------|-------------|
|--4--4--4--4--4--4--4--4--4--4--4--4--4--4--4--4--|--4----------|
|--4--4--4--4--4--4--4--4--4--4--4--4--4--4--4--4--|--4----------|
|--2--2--2--2--2--2--2--2--2--2--2--2--2--2--2--2--|--2----------|
   PM............................................|

   Rhy Fig 2 
||---------------------------|---------------------------|
||*--------------------------|---------------------------|
||---------------------------|---------------------------|
||---------------------------|---------------------------|
||*-8\5----------------------|--8\5----------------------|
||--6\3--0-0-0--0--0--0-0-0--|--6\3--0-0-0--0--0--0-0-0--| 
         PM................|        
                                             end Rhy Fig 2
|---------------------------|----------------------------||-----------|
|---------------------------|---------------------------*||-----------|
|---------------------------|----------------------------||-----------|
|---------------------------|----------------------------||-----------|
|--8\5----------------------|--8\5----------------------*||----8------|
|--6\3--0-0-0--0--0--0-0-0--|--6\3--1-1-1--0--0--0-0-0---||----6------|

S/S
Verses w/ Rhy Fig 2

  Chorus
||------------|------------|--------------------------------------------------|
||------------|------------|--------------------------------------------------|
||--4---------|------------|--------------------------------------------------|
||--4----5----|--7----5----|--4--4--4--4--4--4--4--4--4--4--4--4--4--4--4--4--|
||--2----5----|--7----5----|--4--4--4--4--4--4--4--4--4--4--4--4--4--4--4--4--|
||-------3----|--5----3----|--2--2--2--2--2--2--2--2--2--2--2--2--2--2--2--2--|
                              PM............................................|

||------------|------------|--------------------------------------------------|
||------------|------------|--------------------------------------------------|
||--4---------|------------|--------------------------------------------------|
||--4----5----|--7----5----|--4--4--4--4--4--4--4--4--4--4--4--4--4--4--4--4--|
||--2----5----|--7----5----|--4--4--4--4--4--4--4--4--4--4--4--4--4--4--4--4--|
||-------3----|--5----3----|--2--2--2--2--2--2--2--2--2--2--2--2--2--2--2--2--|
                              PM............................................|

  After Chorus
||------------|-------------------|--------------|--------------||
||------------|-------------------|--------------|--------------||
||------------|-------------------|--------------|--------------||
||--2----2----|--2----2--3--3--3--|--2--2--2--2--|--2--2--2--2--||
||--2----2----|--2----2--3--3--3--|--2--2--2--2--|--2--2--2--2--||
||--0----0----|--0----0--1--1--1--|--0--0--0--0--|--0--0--0--0--||

[...]

Solo
|--15p12--12--15--15p14--12--15--15p14--12--15--15p14--12--12--| 
|--------------------------------------------------------------|
|--------------------------------------------------------------|
|--------------------------------------------------------------|
|--------------------------------------------------------------|
|--------------------------------------------------------------|

|--15p14--12--15--15p14--12--15--15p14--12--15--15p14--12--15--|
|--------------------------------------------------------------|
|--------------------------------------------------------------|
|--------------------------------------------------------------|
|--------------------------------------------------------------|

|--15--15--15--15--15--14p12--15--15--15--15--15p14p12--12--|
|-----------------------------------------------------------|
|-----------------------------------------------------------|
|-----------------------------------------------------------|
|-----------------------------------------------------------|
|-----------------------------------------------------------|

|--15--14--12--12--15--14--12--15-b17--------------14--|
|----------------------------------------------15------|
|-----------------------------------------/16----------|
|------------------------------------------------------|
|------------------------------------------------------|
|------------------------------------------------------|

|--17--15--14--15p14--15p14----14--X-------|
|---------------------------14--------17\--|
|------------------------------------------|
|------------------------------------------|
|------------------------------------------|
|------------------------------------------|

|-----------------------------------------------|-----------------------------------|
|--15\14--12--14----12\10h12----10\9--10p9------|----10--10p9---------10--10p9------|
|-------------------------------------------11--|--9-----------11--9------------11--|
|-----------------------------------------------|-----------------------------------|
|-----------------------------------------------|-----------------------------------|
|-----------------------------------------------|-----------------------------------|

|-----------------------------------|------------------------------------|
|-----10--10p9---------10--10p9-----|------12--12p10p9------12--12p10p9--|
|--9------------11--9------------9--|--11---------------11---------------|
|-----------------------------------|------------------------------------|
|-----------------------------------|------------------------------------|
|-----------------------------------|------------------------------------|

|------9--9-----------------9--9-------------|-----------------------------------|
|------------12p10----------------12p10------|------12-12p10p9------12--12p10p9--|
|--11---------------11--11---------------11--|--11--------------11---------------|
|--------------------------------------------|-----------------------------------|
|--------------------------------------------|-----------------------------------|
|--------------------------------------------|-----------------------------------|

|-----(9)--9-----------------9--9------------|-12b14--r12-b14--r12--9--9h12-12p9--9-|
|-------------12p10----------------12p10-----|--------------------------------------|
|-11-----------------11--11---------------11-|--------------------------------------|
|--------------------------------------------|--------------------------------------|
|--------------------------------------------|--------------------------------------|
|--------------------------------------------|--------------------------------------|

|--12p9--9--9--12--9---------9--12--9---------9--12p9----------|
|---------------------12b14------------12b14-----------(12)----|
|--------------------------------------------------------------|
|--------------------------------------------------------------|
|--------------------------------------------------------------|
|--------------------------------------------------------------|

|------------------------------------------------|
|--10p7--0--11p8--0--0--12p9--0--0--13p10--0--0--|
|------------------------------------------------|
|------------------------------------------------|
|------------------------------------------------|
|------------------------------------------------|

|------------------------------------------------------|
|--14p11--0--0--15p12--0--0--16p13--0--0--17p14--0--0--|
|------------------------------------------------------|
|------------------------------------------------------|
|------------------------------------------------------|
|------------------------------------------------------|

    UB      UB      UB       UB      UB
|-----12------12------12-------12------12----------|---------------------14--|
|--15b17---15b17---15b17----15b17---15b17--r15p12--|--13-~-~--------/15------|
|--------------------------------------------------|-------------------------|
|--------------------------------------------------|-------------------------|
|--------------------------------------------------|-------------------------|
|--------------------------------------------------|-------------------------|

|--15--17--17--17b19--17b19-r17p14--|--15--~--~--~--14--15--|
|-----------------------------------|-----------------------|
|-----------------------------------|-----------------------|
|-----------------------------------|-----------------------|
|-----------------------------------|-----------------------|
|-----------------------------------|-----------------------|

|--17--15--14--15p14--15p14-------14----------|-----------------17-----------------|
|----------------------------17-------17--14--|--15p14------15---------------------|
|---------------------------------------------|---------16----------14--14--16b18--|
|---------------------------------------------|------------------------------------|
|---------------------------------------------|------------------------------------|
|---------------------------------------------|------------------------------------|

|----------------------------------------------------|-------------------------17b19--|
|----14-17p14------14--17p14------14--17p14------14--|--17p14--17b19----r17p14--------|
|--------------16-------------16-------------16------|--------------------------------|
|----------------------------------------------------|--------------------------------|
|----------------------------------------------------|--------------------------------|
|----------------------------------------------------|--------------------------------|

       +       o      +          o       +
|-------------------------|------------------------|
|-----15------15-----15---|-----15------15---------|
|--14b16---14b16--14b16---|--14b16---14b16---------|
|-------------------------|------------------------|
|-------------------------|------------------------|
|-------------------------|------------------------|
 w/ wha  (+=treble  o=bass)

|--15--15--15--15--15--15--15--12--15--15--15--15--15--15p12--12--|
|-----------------------------------------------------------------|
|-----------------------------------------------------------------|
|-----------------------------------------------------------------|
|-----------------------------------------------------------------|
|-----------------------------------------------------------------|

|--15--15--15--12--15--15--12--15--15b17-~-~-----------|
|-----------------------------------------------10/12--|
|------------------------------------------------------|
|------------------------------------------------------|
|------------------------------------------------------|
|------------------------------------------------------|

|--10--10--12--12-/14--14--15--15--/17---15--15--17--17/--|
|---------------------------------------------------------|
|---------------------------------------------------------|
|---------------------------------------------------------|
|---------------------------------------------------------|
|---------------------------------------------------------|

|--/19--19--19--17--17--17--19--19-/20--20--20--19--19--19--20--20/--|
|--------------------------------------------------------------------|
|--------------------------------------------------------------------|
|--------------------------------------------------------------------|
|--------------------------------------------------------------------|
|--------------------------------------------------------------------|

|--/22--22--20--19--22--20--18--18--21-19-17-17-20-18-16-16-19-17--|
|------------------------------------------------------------------|
|------------------------------------------------------------------|
|------------------------------------------------------------------|
|------------------------------------------------------------------|
|------------------------------------------------------------------|

|--15-15-18-16-14-14-17-15-13-13-16-14-12-15-13-12-14-12-10--\--|---------------|
|---------------------------------------------------------------|---------------|
|---------------------------------------------------------------|---------------|
|---------------------------------------------------------------|---------------|
|---------------------------------------------------------------|---------------|
|---------------------------------------------------------------|---------------|

                   T       T       T       T       T       T       T       T
|--------------|-------------------------------------------------------------------|
|-----------0--|--12p10p7-12p10p7-13p10p7-13p10p7-14p7h10-14p7h10-15p7h10-15p7h10--|
|--------------|-------------------------------------------------------------------|
|--------------|-------------------------------------------------------------------|
|--------------|-------------------------------------------------------------------|
|--------------|-------------------------------------------------------------------|

    T       T       T       T       T       T       T
|-------------------------------------------------------|
|--16p7h10-16p7h10-16p7h10-16p7h10-16p7h10-16p7h10-16\--|
|-------------------------------------------------------|
|-------------------------------------------------------|
|-------------------------------------------------------|
|-------------------------------------------------------|

|------------|------------|------------------------------------------|
|------------|------------|------------------------------------------|
|--4---------|------------|------------------------------------------|
|--4----5----|--7----5----|------------------------------------------|
|--2----5----|--7----5----|--4----4--4----4--4----5---5---5----5--5--|
|-------3----|--5----3----|--2----2--2----2--2----3---3---3----3--3--|
                                 PM...........|      PM............|

|-----------------------------------------|
|-----------------------------------------|
|-----------------------------------------|
|-----------------------------------------|
|--7----7--7----7--7---8----8--8----8--8--|
|--5----5--5----5--5---6----6--6----6--6--|
       PM...........|      PM...........|

||------------------------------|---------------------------|
||*-----------------------------|---------------------------|
||------------------------------|---------------------------|
||------------------------------|---------------------------|
||*-------7-7------8------5-----|--7-7-----8-----7-7-----8--|
||--0--0-------0------0------0--|-------0-----0-------0--6--|
   PM...|     PM     PM      PM         PM    PM      PM
                                ____________________________
                               |1.                          |
|------------------------------|----------------------------||
|------------------------------|---------------------------*||
|------------------------------|----------------------------||
|------------------------------|------------------------7---||
|--------7-7------8------5-----|--7-7-----8-----7-7-----5--*||
|--0--0-------0------0------0--|-------0-----0-------0------||
  PM...|     PM     PM     PM         PM    PM      PM
 ___________________________
|2.                         |
|---------------------------|------------|------------|
|---------------------------|------------|------------|
|---------------------------|--4---------|------------|
|------------------------4--|--4----5----|--7----5----|
|--7-7-----3-----5-5-----2--|--2----5----|--7----5----|
|-------0-----0-------0-----|-------3----|--5----3----|
       PM    PM      PM
                                         DS al coda
|--------------------------------------------------|
|--------------------------------------------------|
|--------------------------------------------------|
|--------------------------------------------------|
|--4--4--4--4--4--4--4--4--4--4--4--4--4--4--4--4--|
|--2--2--2--2--2--2--2--2--2--2--2--2--2--2--2--2--|

Coda
|----------------------|----------------------|
|----------------------|----------------------|
|----------------------|----------------------|
|----4----4------------|----------------------|
|----2----2----5----5--|----7----7----5----5--|
|--------------3----3--|----5----5----3----3--|

|--------------------------------------------------|--------------------|
|--------------------------------------------------|--------------------|
|--------------------------------------------------|--------------------|
|--------------------------------------------------|--------------------|
|--4--4--4--4--4--4--4--4--4--4--4--4--4--4--4--4--|--4-----------------|
|--2--2--2--2--2--2--2--2--2--2--2--2--2--2--2--2--|--2-----------------|

|------------|-----------------|-----------------|
|------------|-----------------|-----------------|
|------------|-----------------|-----------------|
|------------|-----------------|-----------------|
|--2----2----|--2----2--3-3-3--|--3--------------|
|--0----0----|--0----0--1-1-1--|--1--------------|
comments
print report bad tab
5 comments total. Showing first comments.
0 reply
nofx_2525 wrote on August 20 2005, 12:00 am

this is copied bitch

0 reply
carova wrote on September 4 2006, 01:48 pm

There are much mistakes

0 reply
MinistryRules08 wrote on November 19 2006, 04:48 pm

Little mistake on the master of pupptes tab

--0-0-7-0-0-6-0-0-5-0-4-0-3-0-2-0--|

Should be

--0-0-7-0-0-6-0-0-5-0-4-0-3-0-2-1--|

Not much differnt but thats the way James and kirk play it

I want to post or [tab]
guest
You may want to rate the tab now too:
select rating
Please do not post tabs as comments. Select "correction" instead!