Oops, an error
Loading. Please wait.

Master Of Puppets Tab

75,372 views 45 this week
7 commentsread comments
1 2 3 4 5
accurate
x 15
Autoscroll
+/-
esc
set tempo
stop
Contributor
Hey! There's an official Ultimate Guitar app which is ideal
for learning songs when you're away from computer. Get the app
WARNING: You are trying to view
                                    content from Ultimate-Guitar.com
                                    in an unauthorized application,
                                    which is prohibited.

                                    Please use an official Ultimate
                                    Guitar Tabs application for iPhone,
                                    iPad or Android to access legitimate
                                    chords, guitar, bass, and drum tabs
                                    from Ultimate-Guitar.com database.

                                    Type "ultimate guitar tabs" in Apple
                                    App Store's or Android Market's
                                    search to find the application.
Metallica
Master Of Puppets




1.Battery

A5
x 0 2 2 x xF#5
2 4 4 x x x

Gtr I (E A D G B E) - 'James Hetfield(acoustic)'
Gtr II (E A D G B E) - 'James Hammett(acoustic)'
Gtr III (E A D G B E) - 'James Hetfield(dirty)'
Gtr IV (E A D G B E) - 'Kikr Hammett(dirty)'

Intro
  Moderately Slow  Q=75
 4/4
  Gtr I
   S  E. +E   E +H       Q  E E +H        S  E. +E   E +H       Q  E E +H
|----------------------|---------------|----------------------|---------------|
|----------------------|---------------|----------------------|---------------|
|----------------------|------0-(0)----|----------------------|------0-(0)----|
|-^3--2--(2)-^2-(2)----|-2--0-0-(0)----|-^3--2--(2)-^2-(2)----|-2--0-0-(0)----|
|-^2---------^0-(0)----|-0----5-(5)----|-^2---------^0-(0)----|-0----5-(5)----|
|-^0---------^1-(1)----|-2----3-(3)----|-^0---------^1-(1)----|-2----3-(3)----|
   Q.         E +H                        Q.         E +H


 4/4
  Gtr II
                              ~~~~~~~~~                  ~
   E     a a S S  Q      E. S Q    +E  a a S S E Q     E Q
|--------------------------------|--------------------------|
|------------3-5---------3--5----|---------3-5---------5-3--|
|----------x-4-5--5------4--5-5--|-(5)---x-4-5-5-4-----5-4--|
|--------x-x------7-----------7--|-(7)-x-x-----7-5----------|
|--------x-----------------------|-----x--------------------|
|--------------------------------|--------------------------|
|
| Gtr I
|  S  E.         +E   E +H          Q          E E +H
|--------------------------------|--------------------------|
|--------------------------------|--------------------------|
|--------------------------------|---------------0-(0)------|
|-^3--2----------(2)-^2-(2)------|--2----------0-0-(0)------|
|-^2-----------------^0-(0)------|--0------------5-(5)------|
|-^0-----------------^1-(1)------|--2------------3-(3)------|
   Q.                 E +H


                                  ~~~~~~~~~                  ~
                            |-3-|
   E     a a S S  Q      E. T T T Q    +E  a a S S E Q     E Q
|------------------------------------|---------------------------|
|------------3-5---------3--3h5p3----|---------3-5---------5-3---|
|----------x-4-5--5------4--4h5p4-5--|-(5)---x-4-5-5-4-----5-4---|
|--------x-x------7---------------7--|-(7)-x-x-----7-5-----------|
|--------x---------------------------|-----x---------------------|
|------------------------------------|---------------------------|
|
|  S  E.         +E   E +H              Q          E E +H
|------------------------------------|---------------------------|
|------------------------------------|---------------------------|
|------------------------------------|---------------0-(0)-------|
|-^3--2----------(2)-^2-(2)----------|--2----------0-0-(0)-------|
|-^2-----------------^0-(0)----------|--0------------5-(5)-------|
|-^0-----------------^1-(1)----------|--2------------3-(3)-------|
   Q.                 E +H


 4/4

                              ~~~~~~~~~                  ~
   E     a a S S  Q      E. S Q    +E  a a S S E Q     E Q
|------------3-5---------3--5----|---------3-5---------5-3--|
|----------x-3-5--5------3--5-5--|-(5)---x-3-5-5-3-----5-3--|
|--------x-x-4-5--5------4--5-5--|-(5)-x-x-4-5-5-4-----5-4--|
|--------x-x------7-----------7--|-(7)-x-x-----7-5----------|
|--------x-----------------------|-----x--------------------|
|--------------------------------|--------------------------|
|
|
|  S  E.         +E   E +H          Q          E E +H
|--------------------------------|--------------------------|
|--------------------------------|--------------------------|
|--------------------------------|---------------0-(0)------|
|-^3--2----------(2)-^2-(2)------|--2----------0-0-(0)------|
|-^2-----------------^0-(0)------|--0------------5-(5)------|
|-^0-----------------^1-(1)------|--2------------3-(3)------|
   Q.                 E +H


                                  ~~~~~~~~~                  ~
                            |-3-|
   E     a a S S  Q      E. T T T Q    +E  a a S S E Q     E Q
|------------3-5---------3--3h5p3----|---------3-5---------5-3---||
|----------x-3-5--5------3--3h5p3-5--|-(5)---x-3-5-5-3-----5-3---||
|--------x-x-4-5--5------4--4h5p4-5--|-(5)-x-x-4-5-5-4-----5-4---||
|--------x-x------7---------------7--|-(7)-x-x-----7-5-----------||
|--------x---------------------------|-----x---------------------||
|------------------------------------|---------------------------||
|
|  S  E.         +E   E +H              Q          E E +H
|------------------------------------|---------------------------||
|------------------------------------|---------------------------||
|------------------------------------|---------------0-(0)-------||
|-^3--2----------(2)-^2-(2)----------|--2----------0-0-(0)-------||
|-^2-----------------^0-(0)----------|--0------------5-(5)-------||
|-^0-----------------^1-(1)----------|--2------------3-(3)-------||
   Q.                 E +H


                              1.,2.,3.
    Gtr IV
                          ~~~~~~~~~                    ~~~~~~
    E a a S S Q      E. S Q    +E  a a S S E   Q     E Q   4x
||--------3-5--------3--5----|---------3-5-----------5-3---||
||o-----x-3-5-5------3--5-5--|-(5)---x-3-5-5---3-----5-3--o||
||----x-x-4-5-5------4--5-5--|-(5)-x-x-4-5-5---4-----5-4---||
||----x-x-----7-----------7--|-(7)-x-x-----7---5-----------||
||o---x----------------------|-----x----------------------o||
||---------------------------|-----------------------------||
|
|   Gtr III
|   E     S S S S E +H          E      S S S S E +H        4x
||---------------------------|-----------------------------||
||o--------------------------|----------------------------o||
||---------------------------|-----------------------------||
||--2-------------3-(3)------|-----------------5-(5)-------||
||o-2-----2-2-2-2-3-(3)------|--5------5-5-5-5-5-(5)------o||
||--0-----0-0-0-0-1-(1)------|--2------2-2-2-2-3-(3)-------||


 4.
 ~~~                    ~
  E a a S S E   Q     E Q    Q  Q  Q  Q
|-------3-5-----------5-3--|---------------||
|-5---x-3-5-5---3-----5-3--|---------------||
|-5-x-x-4-5-5---4-----5-4--|----4----------||
|-7-x-x-----7---5----------|-2--4--5--4----||
|---x----------------------|-2--2--5--6----||
|--------------------------|-0-----3-------||
|
| E     S S S S E +H         Q  Q  Q  Q
|--------------------------|---------------||
|--------------------------|---------------||
|--------------------------|----4----------||
|---------------5-(5)------|-2--4--5--4----||
|-5-----5-5-5-5-5-(5)------|-2--2--5--6----||
|-2-----2-2-2-2-3-(3)------|-0-----3-------||


  Fast Q=190
  PM----------|         PM----------|
  E S S E S S E E E E   E S S E S S E E E E
|---------------------|---------------------|
|---------------------|---------------------|
|---------------------|---------------------|
|---------------8-8-7-|---------------5-5-4-|
|---------------8-8-7-|---------------7-7-6-|
|-0-0-0-0-0-0-0-6-6-5-|-0-0-0-0-0-0-0-------|


    PM--------|         PM     PM
  E S S E S S E E E E   E Q  E E Q  E
|---------------------|---------------|
|---------------------|---------------|
|---------------------|---------------|
|-5-------------8-8-7-|---4--5---5--6-|
|-7-------------8-8-7-|---4--5---5--6-|
|---0-0-0-0-0-0-6-6-5-|-0-2--3-0-3--4-|


  Gtr IV
  Q     Q     E E E E   Q     Q     H
|---------------------|---------------------|
|---------------------|---------------------|
|---------------------|---------------------|
|-2-------------8-8-7-|-2-------------------|
|-2-------------8-8-7-|-2-------------------|
|-0-------------6-6-5-|-0-------------------|
|
| Gtr III
| PM----------|         PM----------|
| E S S E S S E E E E   E S S E S S E E E E
|---------------------|---------------------|
|---------------------|---------------------|
|---------------------|---------------------|
|---------------8-8-7-|---------------5-5-4-|
|---------------8-8-7-|---------------7-7-6-|
|-0-0-0-0-0-0-0-6-6-5-|-0-0-0-0-0-0-0-------|


  W                     E E E E E E E E
|---------------------|-----------------|
|---------------------|-----------------|
|---------------------|-----------------|
|---------------------|-8-7---7---7---7-|
|---------------------|-8-7---7---7---7-|
|---------------------|-6-5---5---5---5-|
|
|   PM--------|
| E S S E S S E E E E   E E E E E E E E
|---------------------|-----------------|
|---------------------|-----------------|
|---------------------|-----------------|
|-5-------------8-8-7-|-8-7---7---7---7-|
|-7-------------8-8-7-|-8-7---7---7---7-|
|---0-0-0-0-0-0-6-6-5-|-6-5---5---5---5-|


  Gtrs III, IV
  PM----------|         PM----------|
  E S S E S S E E E E   E S S E S S E E E E
|---------------------|---------------------|
|---------------------|---------------------|
|---------------------|---------------------|
|---------------8-8-7-|---------------5-5-4-|
|---------------8-8-7-|---------------7-7-6-|
|-0-0-0-0-0-0-0-6-6-5-|-0-0-0-0-0-0-0-------|


    PM--------|         PM     PM
  E S S E S S E E E E   E Q  E E Q  E
|---------------------|---------------|
|---------------------|---------------|
|---------------------|---------------|
|-5-------------8-8-7-|---4--5---5--6-|
|-7-------------8-8-7-|---4--5---5--6-|
|---0-0-0-0-0-0-6-6-5-|-0-2--3-0-3--4-|


  PM----------|         PM----------|
  E S S E S S E E E E   E S S E S S E E E E
|---------------------|---------------------|
|---------------------|---------------------|
|---------------------|---------------------|
|---------------8-8-7-|---------------5-5-4-|
|---------------8-8-7-|---------------7-7-6-|
|-0-0-0-0-0-0-0-6-6-5-|-0-0-0-0-0-0-0-------|


    PM--------|
  E S S E S S E E E E   E E E E E E E E
|---------------------|-----------------|
|---------------------|-----------------|
|---------------------|-----------------|
|-5-------------8-8-7-|-8-7---7---7---7-|
|-7-------------8-8-7-|-8-7---7---7---7-|
|---0-0-0-0-0-0-6-6-5-|-6-5---5---5---5-|


                                    $
                             PM|
  W          W          H    E E Q
|----------|----------|-------------|
|----------|----------|-------------|
|----------|----------|-2-----------|
|-2--------|-5--------|-2--------4--|
|-2--------|-5--------|-0--------6--|
|-0--------|-3--------|------0-0----|


   1st,2nd and 3rd Verses
    PM----------|         PM----------|
    E S S E S S E E E E   E S S E S S E E E E
||----------------------|-----------------------|
||o---------------------|-----------------------|
||----------------------|-----------------------|
||----------------8-8-7-|---------------5-5-4---|
||o---------------8-8-7-|---------------7-7-6---|
||--0-0-0-0-0-0-0-6-6-5-|-0-0-0-0-0-0-0---------|


    PM--------|         PM     PM
  E S S E S S E E E E   E Q  E E Q  E
|---------------------|---------------|
|---------------------|---------------|
|---------------------|---------------|
|-5-------------8-8-7-|---4--5---5--6-|
|-7-------------8-8-7-|---4--5---5--6-|
|---0-0-0-0-0-0-6-6-5-|-0-2--3-0-3--4-|


  PM----------|         PM----------|
  E S S E S S E E E E   E S S E S S E E E E
|---------------------|---------------------|
|---------------------|---------------------|
|---------------------|---------------------|
|---------------8-8-7-|---------------5-5-4-|
|---------------8-8-7-|---------------7-7-6-|
|-0-0-0-0-0-0-0-6-6-5-|-0-0-0-0-0-0-0-------|


    PM--------|         PM     PM                                  PM|
  E S S E S S E E E E   E Q  E E Q  E   W          W          H    E E Q
|---------------------|---------------|----------|----------|--------------|
|---------------------|---------------|----------|----------|--------------|
|---------------------|---------------|----------|----------|-2------------|
|-5-------------8-8-7-|---4--5---5--6-|-2--------|-5--------|-2--------4---|
|-7-------------8-8-7-|---4--5---5--6-|-2--------|-5--------|-0--------6---|
|---0-0-0-0-0-0-6-6-5-|-0-2--3-0-3--4-|-0--------|-3--------|------0-0-----|


  PM----------|         PM----------|
  E S S E S S E E E E   E S S E S S E E E E
|---------------------|---------------------|
|---------------------|---------------------|
|---------------------|---------------------|
|---------------8-8-7-|---------------5-5-4-|
|---------------8-8-7-|---------------7-7-6-|
|-0-0-0-0-0-0-0-6-6-5-|-0-0-0-0-0-0-0-------|


    PM--------|         PM     PM
  E S S E S S E E E E   E Q  E E Q  E
|---------------------|---------------|
|---------------------|---------------|
|---------------------|---------------|
|-5-------------8-8-7-|---4--5---5--6-|
|-7-------------8-8-7-|---4--5---5--6-|
|---0-0-0-0-0-0-6-6-5-|-0-2--3-0-3--4-|


                             PM|
  W          W          H    E E Q
|----------|----------|-------------|
|----------|----------|-------------|
|----------|----------|-2-----------|
|-2--------|-5--------|-2--------4--|
|-2--------|-5--------|-0--------6--|
|-0--------|-3--------|------0-0----|


  PM----------|         PM----------|
  E S S E S S E E E E   E S S E S S E E E E
|---------------------|-----------------------|
|---------------------|-----------------------|
|---------------------|-----------------------|
|---------------8-8-7-|---------------5-5-4---|
|---------------8-8-7-|---------------7-7-6---|
|-0-0-0-0-0-0-0-6-6-5-|-0-0-0-0-0-0-0---------|


                   PM|      PM----------|         PM----------|
  H    H      H    E E Q    E S S E S S E E E E   E S S E S S E E E E
|-----------|-------------|---------------------|---------------------|
|-----------|-------------|---------------------|---------------------|
|------4----|-------------|---------------------|---------------------|
|-2----4----|-5--------4--|---------------8-8-7-|---------------5-5-4-|
|-2----2----|-5--------6--|---------------8-8-7-|---------------7-7-6-|
|-0---------|-3----0-0----|-0-0-0-0-0-0-0-6-6-5-|-0-0-0-0-0-0-0-------|


 5/4                       4/4
    PM--------|             PM----------|
  E S S E S S E E E E E E   E S S E S S E E E E
|-------------------------|---------------------|
|-------------------------|---------------------|
|---------------------3---|---------------------|
|-5-------------8-8-7-3-3-|---------------8-8-7-|
|-7-------------8-8-7-1-3-|---------------8-8-7-|
|---0-0-0-0-0-0-6-6-5---1-|-0-0-0-0-0-0-0-6-6-5-|


                                   To Coda
  PM----------|           PM--------|
  E S S E S S E E E E   E S S E S S E E E E
|---------------------|-----------------------|
|---------------------|-----------------------|
|---------------------|-----------------------|
|---------------5-5-4-|-5-------------8-8-7---|
|---------------7-7-6-|-7-------------8-8-7---|
|-0-0-0-0-0-0-0-------|---0-0-0-0-0-0-6-6-5---|


               1.
  Gtr IV
  Q  Q  Q  Q     S      +S    E  S  S  S  S  S  S  S  S  S  S  S  S
|-------------|--------------12-17p12-15p12-14p12----12-17p12-15p12-|
|-------------|-15b17==(17)r----------------------15----------------|
|-3-----------|-----------------------------------------------------|
|-3--3--2-----|-----------------------------------------------------|
|-1--3--2-----|-----------------------------------------------------|
|----1--0-----|-----------------------------------------------------|
|
| Gtr III
| Q  Q  Q  Q     W
|-------------|-----------------------------------------------------|
|-------------|-----------------------------------------------------|
|-3-----------|-----------------------------------------------------|
|-3--3--2-----|--2--------------------------------------------------|
|-1--3--2-----|--2--------------------------------------------------|
|----1--0-----|--0--------------------------------------------------|


   S  S  S  S  S  S  S  S  S  S  S  S  S  S  S  S    S  S  S  S  S  S  E  E  E  E      +E
|-14p12----12-17p12-15p12-14p12----12-17p12-15p12-|-14p12-------------------------------------||
|-------15----------------------15----------------|-------14p12-14p12----------14b15==(15)r--o||
|-------------------------------------------------|-------------------14-12----14b16==(16)r---||
|-------------------------------------------------|-------------------------14----------------||
|-------------------------------------------------|------------------------------------------o||
|-------------------------------------------------|-------------------------------------------||
|
|                                                                         PM|
|  W                                                 H                    E  E  Q
|-------------------------------------------------|-------------------------------------------||
|-------------------------------------------------|------------------------------------------o||
|-------------------------------------------------|--2----------------------------------------||
|--5----------------------------------------------|--2--------------------------4-------------||
|--5----------------------------------------------|--0--------------------------6------------o||
|--3----------------------------------------------|-----------------------0--0----------------||


             Interlude
  2.
  Gtrs III, IV
  W           W          +W           W          +Q.   E E E Q
|----------||----------|------------|----------|----------------|
|----------||----------|------------|----------|----------------|
|----------||----------|------------|----------|----------------|
|-2--------||-2--------|-(2)--------|-5--------|-(5)---5-----5--|
|-2--------||-2--------|-(2)--------|-5--------|-(5)---5-----5--|
|-0--------||-0--------|-(0)--------|-3--------|-(3)---3---3-3--|


  W          +W           W          +H     E E Q
|----------|------------|----------|---------------|
|----------|------------|----------|---------------|
|----------|------------|----------|---------------|
|-2--------|-(2)--------|-5--------|-(5)----4-4----|
|-2--------|-(2)--------|-5--------|-(5)----2-2----|
|-0--------|-(0)--------|-3--------|-(3)-----------|


    Gtr IV
    PM--------------------------|           PM-------------------------|
                                        |-3-|
    E  E E E Q  E E   E E E E E E E E   E E E E E Q  E E   E E E E  E  E Q   3x
||------------------|-----------------|------------------|-------------------||
||o-----------------|-----------------|------------------|------------------o||
||------------------|-----------------|------------------|-------------------||
||-------4-5--------|-----5-----------|-------4-5--------|-----5----4--5-7---||
||o-7--7-----7----7-|---7---7-----5s7-|-7p5-------7----7-|---7---7----------o||
||------------------|---------8-8-----|-----7------------|-------------------||
|
|   Gtr III
|               PM|                                  PM|
|   Q.     E Q  E E   E Q   E Q   Q     Q.      E Q  E E   E Q   E +Q    Q   3x
||------------------|-----------------|------------------|-------------------||
||o-----------------|-----------------|------------------|------------------o||
||------------------|-----------------|------------------|---------------4---||
||--2---------------|---------5---7---|-5----------------|-------2-(2)---4---||
||o-2------2-2------|-2-2---2-3---5---|-5-------5-5------|-5-5---0-(0)---2--o||
||--0------0-0--0-0-|-0-0---0---------|-3-------3-3--3-3-|-3-3---------------||


  PM-------|
  E  E E E E E Q     Q.   E +Q   Q    W          +W           W
|------------------|----------------|----------|------------|-----------------|
|------------------|----------------|----------|------------|-----------------|
|------------------|-------------4s=|=7--------|-(7)--------|-----------------|
|------4-5---------|----------------|----------|------------|-----------------|
|-7--7-----7-------|-7\---2-(2)-----|----------|------------|-----------------|
|------------------|----------------|----------|------------|-----------------|
|
|              PM|
| Q.     E Q   E E   Q.   E +Q   Q    W          +W           E E E E E E E E
|------------------|----------------|----------|------------|-----------------|
|------------------|----------------|----------|------------|-----------------|
|------------------|-------------4--|----------|------------|-----------------|
|-2----------------|-2----5-(5)--4--|-5--------|-(5)--------|-8-7---7---7---7-|
|-2------2-2-------|-2----5-(5)--2--|-5--------|-(5)--------|-8-7---7---7---7-|
|-0------0-0---0-0-|-0----3-(3)-----|-3--------|-(3)--------|-6-5---5---5---5-|


 Guitar Solo
   Q          +E    E        +E   +E    E      +E      Q        +E    E      +E    E  E  S  S
|---------------------------------------------------|-----------------------------------------|
|-14b15======(15)r-14b15====(15)-(15)r-14b15==(15)r-|-14b15====(15)r-14b15==(15)r-14----------|
|-14b16======(16)r-14b16====(16)-(16)r-14b16==(16)r-|-14b16====(16)r-14b16==(16)r-14-14-12h14-|
|---------------------------------------------------|-----------------------------------------|
|---------------------------------------------------|-----------------------------------------|
|---------------------------------------------------|-----------------------------------------|
|
|  PM-----------------------|                          PM                     PM
|  E     S S   E    S     S   E    E    E       E      E     E   E    E       E    E  E  E
|---------------------------------------------------|-----------------------------------------|
|---------------------------------------------------|-----------------------------------------|
|---------------------------------------------------|-----------------------------------------|
|---------------------------------------------------|-----------------------------------------|
|----------------------------------9----8-------7---|--------9---8----7------------9--8--7----|
|--0-----0-0---0----0-----0---0----7----6-------5---|--0-----7---6----5-------0----7--6--5----|


   E  S  S  E  S  S  E  E  E  S  S    S  S  S  S  S  S  S  S  S  Q          +E.
|----------------------------------|-----------------------------------------------|
|-------------15p12-15p12-15-12----|-12h15p12----12h15p12----12-15b17======(17)r---|
|-12-12h14p12-------------------15-|----------15----------15-----------------------|
|----------------------------------|-----------------------------------------------|
|----------------------------------|-----------------------------------------------|
|----------------------------------|-----------------------------------------------|
|
|  PM---------------|                 PM
|  E  S  S  E  S  S  E  E  E  E       E     E     E     E     E        E E       E
|----------------------------------|-----------------------------------------------|
|----------------------------------|-----------------------------------------------|
|----------------------------------|-----------------------------------------------|
|----------------------------------|-----------------------------------------------|
|-----------------------9--8--7----|--------9-----------8--------------7---------5-|
|--0--0--0--0--0--0--0--7--6--5----|--0-----7-----------6--------------5---------3-|


                                                                  |--3--|
   Q.           +Q       +Q     +E      Q        +Q      E  S  S  S  S  S  S  S
|-15b18========(18)-----(18)---(18)r-|-15b18r===(15)----------15----------------|
|------------------------------------|-15b17====(15)r---17-17----17p15----17-15-|
|------------------------------------|---------------------------------16-------|
|------------------------------------|------------------------------------------|
|------------------------------------|------------------------------------------|
|------------------------------------|------------------------------------------|
|
|  PM-----------------|                 PM               PM
|  E     S S E   S  S E   E  E   E      E     E   E   E  E  E     E        E
|------------------------------------|------------------------------------------|
|------------------------------------|------------------------------------------|
|------------------------------------|------------------------------------------|
|------------------------------------|------------------------------------------|
|-------------------------9--8---7---|--------9---8---7-----9-----8--------7----|
|--0-----0-0-0---0--0-0---7--6---5---|--0-----7---6---5--0--7-----6--------5----|


                                                                         ~~~~~~~~~~~
   E   S  S  S  S  S  S  S  S  S  S  S  S  S  S    S  S  Q    S  S      +Q     +Q
|-----------------------------------------------|-------------------------------------|
|-17-----15-12----12-15-12h15p12----12h15p12----|-12h15p12---15-15b17==(17)---(17)r---|
|----/14-------14----------------14----------14-|-------------------------------------|
|-----------------------------------------------|-------------------------------------|
|-----------------------------------------------|-------------------------------------|
|-----------------------------------------------|-------------------------------------|
|
|  PM-------------------|
|  E   S  S  E     S  S  E     E     E     E       E     E E  E          E  E   E   E
|-----------------------------------------------|-------------------------------------|
|-----------------------------------------------|-------------------------------------|
|-----------------------------------------------|-------------------------------------|
|-----------------------------------------------|-------------------------------------|
|------------------------------9-----8-----7----|--8-----7----7-------------7-------7-|
|--0---0--0--0-----0--0--0-----7-----6-----5----|--6-----5----5-------------5-------5-|


  |-3-| |--3--| |-3-|
  S S S S S   S S S S S S S S S S S S E
|---------------------------------------|
|---------------------------------------|
|-4p2p0-4p2p==0-4p2p0-4p2p0-4p2p0-2h4-0-|
|---------------------------------------|
|---------------------------------------|
|---------------------------------------|
|
| PM----------------------|
| E     S   S   E     S S E   E   E   E
|---------------------------------------|
|---------------------------------------|
|---------------------------------------|
|---------------------------------------|
|-----------------------------9---8---7-|
|-0-----0---0---0-----0-0-0---7---6---5-|


  |-3-| |-3-| |-3-|       |-3-| |-3-| |-3-|
  S S S S S S S S S S S E S S S S S S S S S
|-------------------------------------------|
|-------------------------------------------|
|-4p2p0-4p2p0-4p2p0-2h4-0-4p2p0-4p2p0-4p2p0-|
|-------------------------------------------|
|-------------------------------------------|
|-------------------------------------------|
|
| PM                    PM
| E     E     E     E   E E     E     E
|-------------------------------------------|
|-------------------------------------------|
|-------------------------------------------|
|-------------------------------------------|
|-------9-----8-----7-----9-----8-----7-----|
|-0-----7-----6-----5---0-7-----6-----5-----|


  |-3-| |--3--| |-3-| |--3--| |-3-| |-3-|  |-3-|  |-3-|
  S S S S S   S S S S S S   S S S S S S S  S S S  S S S
|-------------------------------------------------------|
|-------------------------------------------------------|
|-4p2p0-4p2p==0-6p4p0-6p4p==0-8p6p0-8p6p0-10p8p0-10p8p0-|
|-------------------------------------------------------|
|-------------------------------------------------------|
|-------------------------------------------------------|
|
| PM--------------------------|
| E     S   S   E     S   S   E     E      E      E
|-------------------------------------------------------|
|-------------------------------------------------------|
|-------------------------------------------------------|
|-------------------------------------------------------|
|-----------------------------------9------8------7-----|
|-0-----0---0---0-----0---0---0-----7------6------5-----|


   |-3--|  |-3--|  |-3--|  |-3--|
   S  S S  S  S S  S  S S  S  S S  Q    Q
|--------------------------------------------|
|--------------------------------------------|
|-12p10p0-12p10p0-12p10p0-12p10p0-14\--------|
|--------------------------------------------|
|--------------------------------------------|
|--------------------------------------------|
|
|  PM
|  E       E       E       E       E  E E E
|--------------------------------------------|
|--------------------------------------------|
|--------------------------------------------|
|--------------------------------------------|
|----------9-------8-------7----------5---3--|
|--0-------7-------6-------5----------3---1--|


              |---3---|  |---3---|  |---3---|
   E  E    E  S  S    S  E  E    E  E  E    E
|-12-15---14-12h14p==12----12-----------------|
|-----------------------15------15-12h14p==12-|
|---------------------------------------------|
|---------------------------------------------|
|---------------------------------------------|
|---------------------------------------------|
|
|  PM-------------------|
|  E  S S  E  S    S     E    E     E    E
|---------------------------------------------|
|---------------------------------------------|
|---------------------------------------------|
|---------------------------------------------|
|-----------------------------9-----8----7----|
|--0--0-0--0--0----0-----0----7-----6----5----|


                  PM-------------------------------|
   E  E  E  E  E  E  E  E    E  E   E  E   E  E  E E
|-------------------------|--------------------------|
|-14p12-------------------|--------------------------|
|-------14-12-------------|----------------9-12------|
|-------------14----------|---------9-12--------12-9-|
|----------------14-13-12-|-10-11--------------------|
|-------------------------|--------------------------|
|
|  PM          PM            PM------------|
|  E  E  E  E  E  E  E  E    E  S S E  S S E  E  E E
|-------------------------|--------------------------|
|-------------------------|--------------------------|
|-------------------------|--------------------------|
|-------------------------|--------------------------|
|-----9--8--7-----9--8--7-|-------------------9--8-7-|
|--0--7--6--5--0--7--6--5-|--0--0-0-0--0-0-0--7--6-5-|


            ~~~~~~~~
   E  E  E  E  +H           a E E E  E      +Q     E E
|-------------------------|----------------------------|
|-------------------------|-------7-10b12==(12)r--10-8-|
|-------------------------|-----7----------------------|
|-12-14-12-14-(14)\-------|-7s9------------------------|
|-------------------------|----------------------------|
|-------------------------|----------------------------|
|
|  E  E  E  E   E   E E E     W
|-------------------------|----------------------------|
|-------------------------|----------------------------|
|-------------------------|----------------------------|
|-------------------------|---2------------------------|
|--8--7-----7-------7---7-|---2------------------------|
|--6--5-----5-------5---5-|---0------------------------|


          |-3-|         |--3--| |-3-|
  E E E E S S S E E E   Q Q   Q Q Q Q
|---------------------|------------------|
|-7---7-8-7h8p7-------|------------------|
|---9-----------9-7-6-|-7-7b9r7-6-4-7----|
|---------------------|------------------|
|---------------------|------------------|
|---------------------|------------------|
|
| W                     W
|---------------------|------------------|
|---------------------|------------------|
|---------------------|-2----------------|
|-5-------------------|-2----------------|
|-5-------------------|-0----------------|
|-3-------------------|------------------|


        ~~~~~~~~~~~               ~~~~~~~~~~~~
  |-3-|                                         |--3--|
  Q Q Q Q     +Q         E  E  E  E      +Q     E  E  E
|--------------------|----------------------------------|
|--------------------|--------12-15b17==(17)r--15p12----|
|-6------------------|-----12------------------------14-|
|---7-6-7b9===(9)r---|-/14------------------------------|
|--------------------|----------------------------------|
|--------------------|----------------------------------|
|
| W                      W
|--------------------|----------------------------------|
|--------------------|----------------------------------|
|--------------------|----------------------------------|
|-4------------------|---2------------------------------|
|-4------------------|---2------------------------------|
|-2------------------|---0------------------------------|


      ~~~~~~~~~~~~          ~~~~~~~~
   E  E      +E    S  S  S  E.  +Q
|----15b17==(17)r-15-12-15-12--(12)---|
|-12----------------------------------|
|-------------------------------------|
|-------------------------------------|
|-------------------------------------|
|-------------------------------------|
|
|  W
|-------------------------------------|
|-------------------------------------|
|-------------------------------------|
|--5----------------------------------|
|--5----------------------------------|
|--3----------------------------------|


  A5
  Gtr III
   Q           Q        H
   |
   /

  Gtr IV
               |--3--|              |--3--|
   S  S  S  S  E  E  E  S  S  S  S  E  E  E
|-20p15-20p15----------------14-14----------|
|----------------------10s12-------12s10----|
|-------------17p16p14-------------------12-|
|-------------------------------------------|
|-------------------------------------------|
|-------------------------------------------|


                             F#5
   H                     Q   Q      W
                             |
                             /

                                    Gtrs III, IV
   |---3----|  |--3--|
   E  E  S  S  S  S  S E Q   Q      E E E E E E E E
|-------------------------------||------------------|
|-10----------------------------||o-----------------|
|----12-11h12-11h12p11p9-9\-----||------3---4---3---|
|-------------------------------||--3---3---4---3---|
|-------------------------------||o-3---1---2---1---|
|-------------------------------||--1---------------|


                                 D.S. al Coda-|
                                               |-&
                                 7/8            2/4
                                       PM|
  E E E E E E Q   4x Q  Q  H      Q  E E E Q     Q  Q
|-----------------||------------|-------------||--------|
|----------------o||------------|-------------||--------|
|-4---3---4-------||------------|-------------||-3------|
|-4---3---4---4---||-3----------|----------4--||-3--3---|
|-2---1---2---4--o||-3----------|------2-2-6--||-1--3---|
|-------------2---||-1----------|------0-0----||----1---|


 4/4
  PM----------|         PM----------|
  E S S E S S E E E E   E S S E S S E E E E
|---------------------|---------------------|
|---------------------|---------------------|
|---------------------|---------------------|
|---------------8-8-7-|---------------5-5-4-|
|---------------8-8-7-|---------------7-7-6-|
|-0-0-0-0-0-0-0-6-6-5-|-0-0-0-0-0-0-0-------|


 5/4                       4/4
    PM--------|             PM----------|
  E S S E S S E E E E E E   E S S E S S E E E E
|-------------------------|----------------------|
|-------------------------|----------------------|
|---------------------3---|----------------------|
|-5-------------8-8-7-3-3-|---------------8-8-7--|
|-7-------------8-8-7-1-3-|---------------8-8-7--|
|---0-0-0-0-0-0-6-6-5---1-|-0-0-0-0-0-0-0-6-6-5--|


                                                             Outro
  PM----------|           PM--------|
  E S S E S S E E E E   E S S E S S E E E E   Q  Q  Q  Q      E E E E E E E E
|---------------------|---------------------|-------------||------------------|
|---------------------|---------------------|-------------||o-----------------|
|---------------------|---------------------|-3-----------||------3---4---3---|
|---------------5-5-4-|-5-------------8-8-7-|-3--3--2-----||--3---3---4---3---|
|---------------7-7-6-|-7-------------8-8-7-|-1--3--2-----||o-3---1---2---1---|



|-0-0-0-0-0-0-0-------|---0-0-0-0-0-0-6-6-5-|----1--0-----||--1---------------|


  E E E E E E Q   7x E E E E E E E E   W
|-----------------||-----------------|----------|
|----------------o||-----------------|----------|
|-4---3---4-------||-----3---4---3---|-4--------|
|-4---3---4---4---||-3---3---4---3---|-4--------|
|-2---1---2---4--o||-3---1---2---1---|-2--------|
|-------------2---||-1---------------|----------|


  +W           E E E E E E E E   Q  Q  H
|------------|-----------------|------------*|
|------------|-----------------|------------*|
|-(4)--------|-----------------|------------*|
|-(4)--------|-4-3---3---3---3-|-2----------*|
|-(2)--------|-4-3---3---3---3-|-2----------*|
|------------|-2-1---1---1---1-|-0----------*|




2.Master Of Puppets

Gtr I (E A D G B E) - 'James Hetfield (clean)'
Gtr II (E A D G B E) - 'James Hetfield (dirty)'
Gtr III (E A D G B E) - 'Kirk Hammett (dirty)'

Intro
  Fast Rock Q=220
 4/4
  Gtrs II, III
                                           PM------------|
  Q  Q  H      q  q  H      +W             E E E E E E E E
|------------|------------|------------||------------------|
|------------|-------5----|-(5)--------||o-----------------|
|-9----------|-7--6--5----|-(5)--------||------------------|
|-9----------|-7--6--5----|-(5)--------||------------------|
|-7----------|-5--4--3----|-(3)--------||o-----7-----6-----|
|-0----------|------------|------------||--0-0---0-0---0-0-|


               PM----------------------------|
  q  q  H      E E E E E E E E   E E E E E E E E  4x
|------------|-----------------|------------------||
|-------5----|-----------------|-----------------o||
|-7--6--5----|-----------------|------------------||
|-7--6--5----|-----------------|------------------||
|-5--4--3----|-----------------|-----------------o||
|------------|-0-0-7-0-0-6-0-0-|-5-0-4-0-3-0-2-0--||


    Gtr II                                              Gtrs II, III
    PM------------------------------------------------|
    E E E E E E E E   E E E E E E E E   E E E E E E E E   E E E E E E E E
||------------------|-----------------|-----------------|-------------------||
||o-----------------|-----------------|-----------------|------------------o||
||------------------|-----------------|-----------------|-------------------||
||------------------|-----------------|-----------------|-------------------||
||o-----2-----3-----|-4-----3-----2-2-|-----2-----3-----|-5s4---5s4---5s4--o||
||--0-1---0-1---0-1-|---0-1---0-1-----|-0-1---0-1---1-0-|-3s2-0-3s2-0-3s2---||


    PM------------------------------------------------|
    E E E E E E E E   E E E E E E E E   E E E E E E E E   E E E E E E Q
||------------------|-----------------|-----------------|-----------------|
||o-----------------|-----------------|-----------------|-----------------|
||------------------|-----------------|-----------------|-------------4---|
||------------------|-----------------|-----------------|-------------4---|
||o-----2-----3-----|-4-----3-----2-2-|-----2-----3-----|-4-----3-----2---|
||--0-1---0-1---0-1-|---0-1---0-1-----|-0-1---0-1---0-1-|---0-1---1-0-----|


  PM------------------------------------------------|
  E E E E E E E E   E E E E E E E E   E E E E E E E E   E E E E E E E E
|-----------------|-----------------|-----------------|------------------||
|-----------------|-----------------|-----------------|-----------------o||
|-----------------|-----------------|-----------------|------------------||
|-----------------|-----------------|-----------------|------------------||
|-----2-----3-----|-4-----3-----2-2-|-----2-----3-----|-5s4---5s4---5s4-o||
|-0-1---0-1---0-1-|---0-1---0-1-----|-0-1---0-1---1-0-|-3s2-0-3s2-0-3s2--||


  Gtr II
  E E E E E E E E   Q   Q   H         W
|-----------------|-----------------|-------------------|
|-----------------|-----------------|-------------------|
|-----------------|-----------------|-------------------|
|-----------------|-2---------------|-------------------|
|-5s4---5s4---5s4-|-2---------------|-------------------|
|-3s2-0-3s2-0-3s2-|-0---------------|-------------------|
|
| Gtr III
|                   PM--------------------------| ~~~~~~
| E E E E E E E E   E E E E E E E E   E E E E E E E +E
|-----------------|-----------------|-------------------|
|-----------------|-----------------|-------------------|
|-----------------|-----------------|-------------------|
|-----------------|-----8-----8-----|-8-----8-----8-(8)-|
|-5s4---5s4---5s4-|---7-----7-----7-|-----7-----7-------|
|-3s2-0-3s2-0-3s2-|-0-----0-----0---|---0-----0---------|


   Pre-Verse
                                                         5/8
    Gtrs II, III
    PM----------------|                 PM----------------|
    E E E E E E E E   E E E E E E E E   E E E E E E E E   E E E E E
||------------------|-----------------|-----------------|-------------||
||o-----------------|-----------------|-----------------|------------o||
||------------------|-----------------|-----------------|-------------||
||------------------|-----------------|-----------------|-------------||
||o-----------------|---5s7---8s7-5s7-|-----------------|---5s7-5s7--o||
||--0-0-0-0-0-0-0-0-|-0-3s5-0-6s5-3s5-|-0-0-0-0-0-0-0-0-|-0-3s5-3s5---||
 |rhy Fig 1                                             end Rhy Fig 1-|

   Verse
    $
   4/4                                                   5/8
    Gtrs II, III
    PM----------------|                 PM----------------|
    E E E E E E E E   E E E E E E E E   E E E E E E E E   E E E E E  4x
||------------------|-----------------|-----------------|------------||
||o-----------------|-----------------|-----------------|-----------o||
||------------------|-----------------|-----------------|------------||
||------------------|-----------------|-----------------|------------||
||o-----------------|---5s7---8s7-5s7-|-----------------|---5s7-5s7-o||
||--0-0-0-0-0-0-0-0-|-0-3s5-0-6s5-3s5-|-0-0-0-0-0-0-0-0-|-0-3s5-3s5--||


  $$
 4/4                                                   5/8
  PM----------------|                 PM----------------|
  E E E E E E E E   E E E E E E E E   E E E E E E E E   E E E E E
|-----------------|-----------------|-----------------|-----------|
|-----------------|-----------------|-----------------|-----------|
|-----------------|-----------------|-----------------|-----------|
|-----------------|---4-4---5s4-4-4-|-----------------|---4---4---|
|-----------------|---0-2---3s2-0-2-|-----------------|---0h2-0h2-|
|-2-2-2-2-2-2-2-2-|-2---------------|-2-2-2-2-2-2-2-2-|-2---------|
|-Rhy Fig 2                                         end Rhy Fig 2-|

 4/4
  PM----------------|
  E E E E E E E E   E E E E E E E E
|-----------------|-----------------|
|-----------------|-----------------|
|-----------------|-----------------|
|-----------------|---4-4---5s4-4-4-|
|-----------------|---0-2---3s2-0-2-|
|-2-2-2-2-2-2-2-2-|-2---------------|


                   5/8         4/4
  PM----------------|           PM------|
  E E E E E E E E   E E E E E   E E E E E E E E
|-----------------|-----------|------------------||
|-----------------|-----------|------------------||
|-----------------|-----------|-4-4-4-4-4-4-4-4--||
|-----------------|---4---4---|-4-4-4-4-4-4-4-4--||
|-----------------|---0h2-0h2-|-2-2-2-2-2-2-2-2--||
|-2-2-2-2-2-2-2-2-|-2---------|------------------||


 Pre-Chorus
  PM----|                     ~~~
  E E E E Q  Q    E E E  E E  Q.     E E E E  Q  Q    E E E E Q  Q
|---------------|------------------|----------------|---------------||
|---------------|------------------|----------------|---------------||
|-9-------7--9--|------------------|----------------|---------8-----||
|-9-------7--9--|-----9------------|---------10--9--|---------8--9--||
|-7-------5--7--|-7-9---10-9h10----|---------10--9--|---------6--9--||
|-0-0-0-0-------|------------------|-8-8-8-8--8--7--|-8-8-8-8----7--||


                                                       1.,2.
    PM----|                     ~~~
    E E E E Q  Q    E E E  E E  Q.     E E E E  Q  Q    E E E E Q  Q    3x
||----------------|------------------|----------------|-----------------||
||o---------------|------------------|----------------|----------------o||
||--9-------7--9--|------------------|----------------|---------8-------||
||--9-------7--9--|-----9------------|---------10--9--|---------8--9----||
||o-7-------5--7--|-7-9---10-9h10----|---------10--9--|---------6--9---o||
||--0-0-0-0-------|------------------|-8-8-8-8--8--7--|-8-8-8-8----7----||


                                             Chorus
  3.
                                                       PM--|
  E E E E E E E E   Q  Q  H      Q  Q  H      H    +E  E E E
|-----------------|------------|------------|----------------|
|-----------------|------------|------------|----------------|
|-----------------|-4--4-------|-2--2-------|-4----(4)-------|
|-7-5-4---4-------|-2--2-------|-3--3-------|-2----(2)-------|
|-9-7-6---6-7-6---|-2--2-------|-3--3-------|-2----(2)-------|
|-----------8-7---|-0--0-------|-1--1-------|-0----(0)-0-0-0-|


 2/4       4/4                                      2/4
      PM|                                    PM--|     PM--|
  E E E E   W          +W           H    +E  E E E   E E E E
|---------|----------|------------|----------------|----------|
|---------|-0--------|-(0)--------|----------------|----------|
|---------|-0--------|-(0)--------|-5----(5)-------|----------|
|---------|-0--------|-(0)--------|-5----(5)-------|-4--------|
|---------|----------|------------|-3----(3)-0-0-0-|-2-0-0-0--|
|-2p0-0-0-|-3--------|-(3)--------|----------------|----------|


 4/4                                      2/4       4/4
                                   PM--|     PM--|
  W          +W           H    +E  E E E   E E E E   W
|----------|------------|-2----(2)-------|---------|------|
|----------|------------|-3----(3)-------|---------|-4----|
|-2--------|-(2)--------|-2----(2)-------|---------|-4----|
|-2--------|-(2)--------|-0----(0)-------|-5-------|-4----|
|-0--------|-(0)--------|----------------|-3-------|-2----|
|----------|------------|----------3-3-3-|---3-3-3-|------|


                  2/4      4/4        2/4      4/4
           PM--|      PM|
  H    +E  E E E   q  E E   W          +H       Q  Q  H
|----------------|--------|----------|--------|------------|
|----------------|--------|-5--------|-(5)----|------------|
|-9----(9)-------|-7------|-5--------|-(5)----|-4--4-------|
|-9----(9)-------|-7------|-5--------|-(5)----|-2--2-------|
|-7----(7)-------|-5------|-3--------|-(3)----|-2--2-------|
|-0----(0)-0-0-0-|----0-0-|----------|--------|-0--0-------|


                               2/4       4/4
                        PM--|       PM|
  Q  Q  H      H    +E  E E E   E E E E   W          +W
|------------|----------------|---------|----------|--------|
|------------|----------------|---------|-5--------|-(5)----|
|-2--2-------|-4----(4)-------|---------|-5--------|-(5)----|
|-3--3-------|-2----(2)-------|---------|-5--------|-(5)----|
|-3--3-------|-2----(2)-------|---------|-3--------|-(3)----|
|-1--1-------|-0----(0)-0-0-0-|-2p0-0-0-|----------|--------|


      To CoTo Dbl. Coda
  Q  Q  H      Q  Q  H        E E E E E E E E   E E E E E E E E
|------------|------------||------------------|-----------------|
|------------|------------||o-----------------|-----------------|
|-4--4-------|-2--2-------||------------------|-----------------|
|-2--2-------|-3--3-------||------------------|-----------------|
|-2--2-------|-3--3-------||o-----2-----3-----|-4-----3-----2-2-|
|-0--0-------|-1--1-------||--0-1---0-1---0-1-|---0-1---0-1-----|


                   1.                  2.
                                                           D.S. al Coda
  E E E E E E E E   E E E E E E Q      E E E E E E E E   E E E E E E E E
|-----------------|-----------------||-----------------|-----------------|
|-----------------|----------------o||-----------------|-----------------|
|-----------------|-------------4---||-----------------|-----------------|
|-----------------|-------------4---||-----------------|-----------------|
|-----2-----3-----|-4-----3-----2--o||-5s4---5s4---5s4-|-5s4---5s4---5s4-|
|-0-1---0-1---0-1-|---0-1---1-0-----||-3s2-0-3s2-0-3s2-|-3s2-0-3s2-0-3s2-|


  &
 4/4
  Q  Q  H      W          W
|------------|----------|------|
|------------|----------|------|
|-2--2-------|----------|------|
|-3--3-------|----------|------|
|-3--3-------|----------|------|
|-1--1-------|----------|------|


 Interlude
  Slower Q=110
 2/4       4/4
  Gtr I
                    |-3-|
  E E E E   E E E E S S S E E E    E  E E E E E E E
|---------|---------0h2p0-----3-|-------------------|
|---------|-----3---------3-----|-------3---3-----0-|
|-------0-|---2---2---------2p0-|-(0)-0---0---0-----|
|-----2---|-0-------------------|---------------2---|
|---2-----|---------------------|--3----------------|
|-0-------|---------------------|-------------------|


                       2/4
  +E  E Q   +E  E Q     +E  E Q
|---------------------|-------------|
|-(0)---0---(0)---0---|-(0)---0-----|
|-----2---------2-----|-----2-------|
|---------------------|--1----------|
|--0------0--2------2-|-------------|
|---------------------|---------3---|
   Q.     E  Q.     E    Q.     E


 2/4       4/4
  Gtr I
                    |-3-|
  E E E E   E E E E S S S E E E    E  E E E E E E E
|---------|---------0h2p0-----3-|-------------------|
|---------|-----3---------3-----|-------3---3-----0-|
|-------0-|---2---2---------2p0-|-(0)-0---0---0-----|
|-----2---|-0-------------------|---------------2---|
|---2-----|---------------------|--3----------------|
|-0-------|---------------------|-------------------|
|
| Gtr III
| <         <                      <
| h         w                      w
|---------|---------------------|-------------------|
|---------|---------------------|-------------------|
|---------|---------------------|-------------------|
|-2-------|-4-------------------|--5----------------|
|---------|---------------------|-------------------|
|---------|---------------------|-------------------|


                       2/4
  +e  e q   +e  e q     +e  e q
|---------------------|-------------|
|-(0)---0---(0)---0---|-(0)---0-----|
|-----2---------2-----|-----2-------|
|---------------------|--1----------|
|--0------0--2------2-|-------------|
|---------------------|---------3---|
|  q.     e  q.     e    q.     e
|
|  <         <           <
|  h         h           h
|---------------------|-------------|
|---------------------|-------------|
|--2---------4--------|--8----------|
|---------------------|-------------|
|---------------------|-------------|
|---------------------|-------------|


   guitar break
   2/4           4/4
                                  |-3-|
     e  e  e  e    e  e  e  e     s s s  e  e  e    e   e  e  e     e  e  e  e
||--------------|-----------------0h2p0--------3-|-----------------------------|
||o-------------|--------3---------------3-------|---------3--------3--------0-|
||------------0-|-----2-----2---------------2p=0-|-(0)--0-----0--------0-------|
||---------2----|--0-----------------------------|------------------------2----|
||o-----2-------|--------------------------------|--3--------------------------|
||---0----------|--------------------------------|-----------------------------|
|
|   gtr ii
|    e  e  e  e    e  e  e  s  s  e      e  e  e    e   e  e  s  s  e  e  e  e
||-----19-19----|-20-17-----------------20-17----|-19--15-------------19-15----|
||o-20-------20-|-------19-19-19-19-----------19-|--------17-17-17-17-------17-|
||--------------|--------------------------------|-----------------------------|
||--------------|--------------------------------|-----------------------------|
||o-------------|--------------------------------|-----------------------------|
||--------------|--------------------------------|-----------------------------|
|
|   gtr iii
|    e  e  e  e    e  e  e  s  s  e      e  e  e    e   e  e  s  s  e  e  e  e
||--------------|--------------------------------|-----------------------------|
||o----22-20----|-22-19-----------------22-19----|-20--17-------------20-17----|
||--21-------21-|-------19-19-19-19-----------19-|--------17-17-17-17-------17-|
||--------------|--------------------------------|-----------------------------|
||o-------------|--------------------------------|-----------------------------|
||--------------|--------------------------------|-----------------------------|


                                   2/4
  +e   e        q    +e   e  q      +e   e  q
|---------------------------------|------------------||
|-(0)-----------0----(0)-----0----|-(0)-----0-------o||
|------2------------------2-------|------2-----------||
|---------------------------------|--1---------------||
|--0---------------0--2---------2-|-----------------o||
|---------------------------------|------------3-----||
|  q.              e  q.        e    q.        e
|
|  e   t  t  s  e  e  e   e  e  e    e   e  e  e
|-17--15h17p15-14-----------14----|-14--15-17-19-----||
|-----------------17-16--17----17-|-----------------o||
|---------------------------------|------------------||
|---------------------------------|------------------||
|---------------------------------|-----------------o||
|---------------------------------|------------------||
|
|  e   t  t  s  e  e  e   e  e  e    e   e  e  e
|---------------------------------|------------------||
|-19--17h19p17-16-----------------|-16--17-19-20----o||
|-----------------17-16--17-19-17-|------------------||
|---------------------------------|------------------||
|---------------------------------|-----------------o||
|---------------------------------|------------------||


 guitar solo
  em
 2/4             4/4
  gtr ii
   h              +w
   |               |
   /               /

  gtr i
                                 |-3--|
   e  e e  e       e  e e  e     s s  s e     e     e
|---------------|----------------0h2p=0-------------3-------|
|---------------|-------3---------------3-------------------|
|----------0----|-----2----2------------------2p====0-------|
|-------2-------|--0----------------------------------------|
|-----2---------|-------------------------------------------|
|--0------------|-------------------------------------------|
|
| gtr iii
|                  ~~~
|                                |----3----|        |--3--|
|  q.      s  s    q.      s  s  e    e    e  e  a  s  s  s
|---------------|-15---------15-17---15------19-15-12h15p12-|
|-17------17-19-|---------19--------------19----------------|
|---------------|-------------------------------------------|
|---------------|-------------------------------------------|
|---------------|-------------------------------------------|
|---------------|-------------------------------------------|


   w                                         w
   e   e e e       e      e    e       e     e      e  q          +e  e   q
|-----------------------------------------|----------------------------------------|
|--------3---------3-------------------0--|--0---------0----------(0)-----0--------|
|-(0)--0---0--------------0---------------|---------2-----------------2------------|
|------------------------------2----------|----------------------------------------|
|--3--------------------------------------|--0---------------0-----2-------------2-|
|-----------------------------------------|----------------------------------------|
|                                            q.              e     q.            e
|
|  ~~~~~~~~~~~~~~~                                                 ~~~~~~~~~~
|  q..        +s   e     +e   +e      +e     s   s  e  s  s  s  s  q     +s   s  e
|-----------------------------------------|-15--14----15-14------------------------|
|-13---------(13)-15b17r(15)-(15)b17r(15)-|--------12-------12h15p12----(12)-------|
|-----------------------------------------|----------------------------------12-14-|
|-----------------------------------------|----------------------------------------|
|-----------------------------------------|----------------------------------------|
|-----------------------------------------|----------------------------------------|


 2/4
  +e           e            q                      e  e e  e
|-----------------------------------------------|------------|
|-(0)-----------------------0-------------------|------------|
|--------------2--------------------------------|----------0-|
|--1--------------------------------------------|-------2----|
|-----------------------------------------------|-----2------|
|------------------------------------------3----|--0---------|
|  q.                                      e
|
|                                                  ~~~
|                           |-----3-----|
|  s     +s   +s      +s   +s      +s   s  s  s    q.      e
|-----------------------------------------------|------------|
|-15--------------------------------------------|------------|
|-14b16r(14)-(14)b16r(14)-(14)b16r(14)-12----12-|------------|
|-----------------------------------------14----|-14------12-|
|-----------------------------------------------|------------|
|-----------------------------------------------|------------|


 4/4
                     |-3-|
   e  e     e     e  s s s  e  e  e          e  e e  e    e  e e e
|--------------------0h2p0--------3-------|----------------------------|
|-----------3---------------3-------------|-------3-------3------0-----|
|-----2-----------2------------2p=0-------|--0--0----0-------0---------|
|--0--------------------------------------|--------------------2-------|
|-----------------------------------------|--3-------------------------|
|-----------------------------------------|----------------------------|
|
|                    ~~~                     ~~~
|                                 |--3--|
|  e.    s  s. t  e  e      e  e  s  s  s    q.      s s  q.     s  s
|-----------------------------------------|----------------------------|
|-----------------------------------------|----------------------------|
|-12----14-12----11--------14-12-11h12p11-|----------------------------|
|-------------------12--------------------|-10---------9-10------9-10--|
|-----------------------------------------|---------12-----------------|
|-----------------------------------------|----------------------------|


                                       2/4
   e     e     q         +e   e  q      +e        e  q
|-------------------------------------|--------------------|
|--0-----------0---------(0)-----0----|-(0)----------0-----|
|--------2--------------------2-------|-----------2--------|
|-------------------------------------|--1-----------------|
|--0----------------0-----2---------2-|--------------------|
|-------------------------------------|------------------3-|
|  q.               e     q.        e    q.              e
|
|  |---3----|  |---3---|                 |--3--|
|  e   e    e  e  e    e  e   e  e  e    s  s  s  e  e   e
|-------------------------------15-14-|-11h12p11-------/19-|
|------------------------12-----------|----------12-10-----|
|----------------11---12-----12-------|--------------------|
|-12--10---12-14----------------------|--------------------|
|-------------------------------------|--------------------|
|-------------------------------------|--------------------|


   2/4           4/4
                                  |-3-|
     e  e  e  e    e  e  e  e     s s s  e  e  e    e   e  e  e     e  e  e  e
||--------------|-----------------0h2p0--------3-|-----------------------------|
||o-------------|--------3---------------3-------|---------3--------3--------0-|
||------------0-|-----2-----2---------------2p=0-|-(0)--0-----0--------0-------|
||---------2----|--0-----------------------------|------------------------2----|
||o-----2-------|--------------------------------|--3--------------------------|
||---0----------|--------------------------------|-----------------------------|
|
|   gtr ii
|    e  e  e  e    e  e  e  s  s  e      e  e  e    e   e  e  s  s  e  e  e  e
||-----19-19----|-20-17-----------------20-17----|-19--15-------------19-15----|
||o-20-------20-|-------19-19-19-19-----------19-|--------17-17-17-17-------17-|
||--------------|--------------------------------|-----------------------------|
||--------------|--------------------------------|-----------------------------|
||o-------------|--------------------------------|-----------------------------|
||--------------|--------------------------------|-----------------------------|
|
|   gtr iii
|    e  e  e  e    e  e  e  s  s  e      e  e  e    e   e  e  s  s  e  e  e  e
||--------------|--------------------------------|-----------------------------|
||o----22-20----|-22-19-----------------22-19----|-20--17-------------20-17----|
||--21-------21-|-------19-19-19-19-----------19-|--------17-17-17-17-------17-|
||--------------|--------------------------------|-----------------------------|
||o-------------|--------------------------------|-----------------------------|
||--------------|--------------------------------|-----------------------------|


                                   2/4
  +e   e        q    +e   e  q      +e   e  q
|---------------------------------|------------------||
|-(0)-----------0----(0)-----0----|-(0)-----0-------o||
|------2------------------2-------|------2-----------||
|---------------------------------|--1---------------||
|--0---------------0--2---------2-|-----------------o||
|---------------------------------|------------3-----||
|  q.              e  q.        e    q.        e
|
|  e   t  t  s  e  e  e   e  e  e    e   e  e  e
|-17--15h17p15-14-----------14----|-14--15-17-19-----||
|-----------------17-16--17----17-|-----------------o||
|---------------------------------|------------------||
|---------------------------------|------------------||
|---------------------------------|-----------------o||
|---------------------------------|------------------||
|
|  e   t  t  s  e  e  e   e  e  e    e   e  e  e
|---------------------------------|------------------||
|-19--17h19p17-16-----------------|-16--17-19-20----o||
|-----------------17-16--17-19-17-|------------------||
|---------------------------------|------------------||
|---------------------------------|-----------------o||
|---------------------------------|------------------||


   breakdown
    emopen    d5
   2/4       4/4
    gtr iii
    h         w
    |         |
    /         /

    gtr ii
      pm------------|
                      |-3-|
    e e e e   e e e e s s s e e e
||----------|---------0h2p0-----3-|
||o---------|-----3---------3-----|
||--------0-|---2---2---------2p0-|
||------2---|-0-------------------|
||o---2-----|---------------------|
||--0-------|---------------------|


  c5                a5      b5        eb5
                                     2/4
  w                 h       h         h
  |                 |       |         |
  /                 /       /         /

  pm----------------------------------------|
  e e e e e e e e   e e e e e e e e   e e e e
|-----------------|-----------------|-----------||
|-----3---3-----0-|-----0-------0---|-----0----o||
|---0---0---0-----|---2-------2-----|---2-------||
|-------------2---|-----------------|-1---------||
|-3---------------|-0-----0-2-----2-|----------o||
|-----------------|-----------------|-------3---||


 4/4
  pm------------------------|           pm--------------------------------|
  e e e e e e e e   e e e e e e e e     e e e e e e e s s   e e e e e e e e   6x
|-----------------|-----------------||--------------------|-------------------||
|-----------------|-----------------||o-------------------|------------------o||
|-4-4-4-4-4-4-4-4-|-4-4-4-4-4-4-4-4-||--------------------|-------------------||
|-2-2-2-2-2-2-2-2-|-2-2-2-2-2-2-2-2-||--------------------|---------------6---||
|-2-2-2-2-2-2-2-2-|-2-2-2-2-2-2-2-2-||o-4-4-5-4-4-4-5-4-4-|-4-4-5-4-4-4-5-4--o||
|-0-0-0-0-0-0-0-0-|-0-0-0-0-0-0-0-0-||--2-2-3-2-2-2-3-----|-2-2-3-2-2-2-3-----||


  double time q=220
                                     gtr iv
  w          +w           w          s s s s s s s s s s s s s s s s
|----------|------------|----------|----------------------------------|
|----------|------------|----------|----------------------------------|
|-4--------|-(4)--------|-3--------|----------------------------------|
|-5--------|-(5)--------|-4--------|-x-x-x-x-x-x-x-x-x-x-x-x-x-x-x-x--|
|-5--------|-(5)--------|-4--------|-x-x-x-x-x-x-x-x-x-x-x-x-x-x-x-x--|
|-3--------|-(3)--------|-2--------|-x-x-x-x-x-x-x-x-x-x-x-x-x-x-x-x--|


 guitar solo
w/rhy fig 1 x4
  gtr iii
   |---3---|  |---3---|  |---3---|  |---3---|
   e  e    e  e  e    e  e  e    e  e  e    e
|-17p12--------------12-17p12--------------12-|
|---------13-12-13--------------13-12-13------|
|---------------------------------------------|
|---------------------------------------------|
|---------------------------------------------|
|---------------------------------------------|



   |---3---|  |---3---|  |---3---|  |---3---|    |---3---|  |---3---|  |---3---|  |---3---|
   e  e    e  e  e    e  e  e    e  e  e    e    e  e    e  e  e    e  e  e    e  e  e    e
|-17p12--------------12-15p12--------------12-|-17p12--------------12-17p12--------------12-|
|---------13-12-13--------------13-12-13------|---------13-12-13--------------13-12-13------|
|---------------------------------------------|---------------------------------------------|
|---------------------------------------------|---------------------------------------------|
|---------------------------------------------|---------------------------------------------|
|---------------------------------------------|---------------------------------------------|



 5/8                            4/4
   |---3---|                       |---3---|              |---3---|
   e  e    e  s  s  s  s  s  s     e  e    e  s  s  s  s  e  e    e  s  s  s  s
|-17p12---------12-12-15p12----|-----19---19-17-17-17-17-15-15---15-14-14-14-14-|
|---------13-12-------------13-|-/17--------------------------------------------|
|------------------------------|------------------------------------------------|
|------------------------------|------------------------------------------------|
|------------------------------|------------------------------------------------|
|------------------------------|------------------------------------------------|



   |---3---|
   e  e    e  s  s  s  s  s  s  s  s  e  s  s
|-17-17---17-15-15-15-14-14-14-14-14-----------|
|------------------------------------15-15-17--|
|----------------------------------------------|
|----------------------------------------------|
|----------------------------------------------|
|----------------------------------------------|



                                                         5/8
                                  |---3---|                |---3---|
   e.      +s      +e       +e    e  e    e  s  e     s    e  e    e  q    e
|-------------------------------------------17h19\------|--------------------|
|-17b19r==(19)b19r(17)b19==(19)r-17p15p==14----------17-|-15-14--------------|
|-------------------------------------------------------|---------16-14\-----|
|-------------------------------------------------------|--------------------|
|-------------------------------------------------------|--------------------|
|-------------------------------------------------------|--------------------|



 4/4
           \3______/    \1.5   /    /2___________/7________|    /   \1   \2
           ~~~~~~~~~~~                                                   ~~~~
                                                                              |--3--|
    q     +q      +e   +s     +s   +e    +e     +q.       +e   +s  +s   +e   +e e   e
|-[13]---(13)----(13)-(13)---(13)-(13)--(13)-|-(13)------(13)-(13)(13)-(13)-(13)-------|
|--------------------------------------------|-----------------------------------------|
|--------------------------------------------|----------------------------------2---4--|
|--------------------------------------------|-----------------------------------------|
|--------------------------------------------|-----------------------------------------|
|--------------------------------------------|-----------------------------------------|



                             5/8
  s    +s   e e e a e e e e   e e +q.
|---------------------------|-------------|
|---------------------------|-------------|
|-2b4==(4)r-4-3-2-0s2-------|-------------|
|---------------------4-2---|-2h4-(4)-----|
|-------------------------2-|-------------|
|---------------------------|-------------|



 4/4
                                                   |-1:1-|
   e  e  e  e  e  e  e  e    e  e  e  e  +e  s  s  s  s  s  s
|-------------------------|------------------------------------|
|-15-13-12----13-12-------|----------12-(12)12-12-12-12-12-12--|
|----------14-------14-12-|-11-12-14---------------------------|
|-------------------------|------------------------------------|
|-------------------------|------------------------------------|
|-------------------------|------------------------------------|



   s  s  s  s  s  s  s  s  s  s  s  s  s  s  a  s  s
|-------------------------12----------12-------------|
|-12-15-13-12-15-13-12-13----15-15-13----15-13h15-15-|
|----------------------------------------------------|
|----------------------------------------------------|
|----------------------------------------------------|
|----------------------------------------------------|


                                |-w/rhy fig 2 x2
 5/8                             4/4
                                               |---3---|
   s  s  s  s  s  s  s  s  s  s    s  s  s  s  e  e    e  s  s  s  s  s  s  s  s
|-14-------14-------15-15-------|-17-------19-17---------17----------19-17---------|
|----17-15----15-17-------17s19-|----20-19-------19---19----21-19-19-------19-19---|
|-------------------------------|--------------------------------------------------|
|-------------------------------|--------------------------------------------------|
|-------------------------------|--------------------------------------------------|
|-------------------------------|--------------------------------------------------|



  gtr iii
   s  s  s  s  s  s  s  s  s  s  s  s  s  s  s  s
|-17----------19-17-------17----------19-17-------|
|----21-19-19-------19-19----21-19-19-------19-19-|
|-------------------------------------------------|
|-------------------------------------------------|
|-------------------------------------------------|
|-------------------------------------------------|




   s      +s    e  s      +s    e  s      +s    e   s      +s    e
|-14-----(14)--14--------------14-------------------------------14-|
|-17b19==(19)r----17b19==(19)r----17b19==(19)r-17\-17b20==(20)r----|
|------------------------------------------------------------------|
|------------------------------------------------------------------|
|------------------------------------------------------------------|
|------------------------------------------------------------------|




 5/8
   |-------3-------|    |---3---|
   e  e    s      +s    e  e    e      +e
|-19p14----------------19p14---14-----(14)--|
|---------17b18==(18)r---------17b19==(19)r-|
|-------------------------------------------|
|-------------------------------------------|
|-------------------------------------------|
|-------------------------------------------|



 4/4
                                                |--3--|
   s      +s    e  s      +s    e  s      +s    s  s  s  s      +s    s  s
|--------------14--------------14--------------14-14-14--------------14-14----|
|-17b19==(19)r----17b19==(19)r----17b19==(19)r----------17b19==(19)r----------|
|-----------------------------------------------------------------------------|
|-----------------------------------------------------------------------------|
|-----------------------------------------------------------------------------|
|-----------------------------------------------------------------------------|





   s      +s    e  s      +s    e  s      +s    e  s      +s    e
|--------------15--------------15--------------15--------------15-|
|-18b20==(20)r----18b20==(20)r----18b20==(20)r----18b20==(20)r----|
|-----------------------------------------------------------------|
|-----------------------------------------------------------------|
|-----------------------------------------------------------------|
|-----------------------------------------------------------------|



   s      +s    e  s      +s    e  s      +s    e  s      +s    e
|--------------17--------------17--------------18--------------18-|
|-20b22==(22)r----20b22==(22)r----21b23==(23)r----21b23==(23)r----|
|-----------------------------------------------------------------|
|-----------------------------------------------------------------|
|-----------------------------------------------------------------|
|-----------------------------------------------------------------|





 5/8                                      4/4
                                   ~~~~~~~~~~~~~~~~~~~~~~~~~
   s      +s    e  s      +s    e  e        +h         +h
|--------------19--------------19-22b24==|=(24)-------(24)r---------|
|-22b24==(24)r----22b24==(24)r-----------|--------------------------|
|----------------------------------------|--------------------------|
|----------------------------------------|--------------------------|
|----------------------------------------|--------------------------|
|----------------------------------------|--------------------------|
|
|-|                                          pm-----------------|
|  e            e  e            e  e         e  e e e   e   e e e
|----------------------------------------|--------------------------|
|----------------------------------------|--------------------------|
|----------------------------------------|---4--4-4-4---4---4-4-4---|
|---------------4---------------4--------|---4--4-4-4---4---4-4-4---|
|---------------0h=2------------0h=2-----|---2--2-2-2---2---2-2-2---|
|--2-------------------------------------|--------------------------|


    gtrs ii, iii
    pm--------------------------------------------------------------|
    e e e e e e e e   e e e e e e e e   e e e e e e e e   e e e e e e q
||------------------|-----------------|-----------------|------------------||
||o-----------------|-----------------|-----------------|-----------------o||
||------------------|-----------------|-----------------|------------------||
||------3-----3-----|-3-----3---------|-----3-----3-----|-3-----3-----4----||
||o-----3-----3-----|-3-----3-----2-2-|-----3-----3-----|-3-----3-----2---o||
||--0-0-1-0-0-1-0-0-|-1-0-0-1-0-0-----|-0-0-1-0-0-1-0-0-|-1-0-0-1-0-0------||


  pm--------------------------------------|          pm---
  e e e e e e e e     e e e e e e e e   e e q  +q.   s s
|-----------------||------------------|------------------|
|-----------------||o-----------------|------------------|
|-----------------||------------------|------------------|
|-----------------||----------------2-|-4-5--------------|
|-2-2-2-2-2-2-2-2-||o---------2-3-5---|-----3--(3)---3-3-|
|-0-0-0-0-0-0-0-0-||--0-2-3-5---------|------------------|


 ---------------------------------|
  e e e e e e e e   e e e e e e e e
|-----------------|--------------------||
|-----------------|-------------------o||
|-----------------|--------------------||
|-----------------|--------------------||
|-3-2-3-5-3-2-----|-------------------o||
|-------------3-2-|-0-0-0-0-0-0-0-0----||


                                 pm------------------------------------|
  e e e e e e e e   e e q  +q.   s s   e e e e e e e e   e e e e e e e e
|-----------------|------------------|-----------------|-----------------|
|-----------------|------------------|-----------------|-----------------|
|---------------0-|-2-4--------------|-----------------|-----------------|
|-------------4-2-|-4-5-2--(2)---2-2-|-2-0-2-4-2-0-----|-----------------|
|---------2-3-5---|-----3--(3)---3-3-|-3-2-3-5-3-2-3-2-|-----------------|
|-0-2-3-5---------|------------------|-------------3-2-|-0-0-0-0-0-0-0-0-|


                                 pm------------------|           pm|
  e e e e e e e e   e e q  +q.   s s   e e e e e e e e   h.      e e
|-----------------|------------------|-----------------|-------------|
|-----------------|-----5--(5)-------|-----------------|-------------|
|---------------0-|-2-4-5--(5)-------|-----------------|-4-----------|
|-------------4-2-|-4-5-5--(5)-------|-----------------|-2-------5-5-|
|---------2-3-5---|-----3--(3)---3-3-|-3-2-3-5-3-2-----|-2-------3-3-|
|-0-2-3-5---------|------------------|-------------3-2-|-0-----------|


  pm-----------------------------------
  e e e e e e e e     e e e e e e e e
|-----------------||------------------|
|-----------------||o-----------------|
|-------2---------||------------------|
|-5-4-5---5-4-2-4-||------------------|
|-3-2-3-5-3-2-----||o-----2-----3-----|
|-------------3-2-||--0-1---0-1---0-1-|


                                     1.
 ---------------------------------|
  e e e e e e e e   e e e e e e e e   e e e e e e e e
|-----------------|-----------------|------------------||
|-----------------|-----------------|-----------------o||
|-----------------|-----------------|------------------||
|-----------------|-----------------|------------------||
|-4-----3-----2-2-|-----2-----3-----|-5s4---5s4---5s4-o||
|---0-1---0-1-----|-0-1---0-1---1-0-|-3s2-0-3s2-0-3s2--||


  2.
  e e e e e e e e   e e e e e e e e
|-----------------|-----------------|
|-----------------|-----------------|
|-----------------|-----------------|
|-----------------|-----------------|
|-5s4---5s4---5s4-|-5s4---5s4---5s4-|
|-3s2-0-3s2-0-3s2-|-3s2-0-3s2-0-3s2-|


   verse
                                                 d.s.s. al dbl. coda
                                                         5/8
    gtrs ii, iii
    pm----------------|                 pm----------------|
    e e e e e e e e   e e e e e e e e   e e e e e e e e   e e e e e   4x
||------------------|-----------------|-----------------|-------------||
||o-----------------|-----------------|-----------------|------------o||
||------------------|-----------------|-----------------|-------------||
||------------------|-----------------|-----------------|-------------||
||o-----------------|---5s7---8s7-5s7-|-----------------|---5s7-5s7--o||
||--0-0-0-0-0-0-0-0-|-0-3s5-0-6s5-3s5-|-0-0-0-0-0-0-0-0-|-0-3s5-3s5---||


   outro
    &&
   4/4                                                   5/8
    pm----------------|                 pm----------------|
    e e e e e e e e   e e e e e e e e   e e e e e e e e   e e e e e  4x
||------------------|-----------------|-----------------|------------||
||o-----------------|-----------------|-----------------|-----------o||
||------------------|-----------------|-----------------|------------||
||------------------|-----------------|-----------------|------------||
||o-----------------|---5s7---8s7-5s7-|-----------------|---5s7-5s7-o||
||--0-0-0-0-0-0-0-0-|-0-3s5-0-6s5-3s5-|-0-0-0-0-0-0-0-0-|-0-3s5-3s5--||


 4/4
  gtr iv            gtrs ii, iii
  q   q   q   q     e e e e e e e e   w          +w
|-----------------|-----------------|----------|--------|
|-----------------|-----------------|----------|--------|
|-----------------|-----------------|-4--------|-(4)----|
|-x\--x\--x\--x\--|-----------------|-2--------|-(2)----|
|-x\--x\--x\--x\--|-5s4---5s4---5s4-|-2--------|-(2)----|
|-x\--x\--x\--x\--|-3s2-0-3s2-0-3s2-|-0--------|-(0)----|


  +w           +w           +w
|------------|------------|--------*|
|------------|------------|--------*|
|-(4)--------|-(4)--------|-(4)----*|
|-(2)--------|-(2)--------|-(2)----*|
|-(2)--------|-(2)--------|-(2)----*|
|-(0)--------|-(0)--------|-(0)----*|



3.The Thing That Should Not Be

Gtr I (D G C F A D) - 'James Hetfield acoustic'
Gtr II (D G C F A D) - 'James Hetfield dist. electric'
Gtr III (D G C F A D) - 'Kirk Hammett dist. electric'

Intro
  Q=116
 4/4
  Gtr I
  E   W          +H     +Q.   E   W          +H     +Q.   E
|---|----------|----------------|----------|----------------|
|---|----------|----------------|----------|----------------|
|---|----------|----------------|----------|----------------|
|---|----------|----------------|----------|----------------|
|-2-|-4--------|-(4)----(4)---2-|-4--------|-(4)----(4)---2-|
|-0-|-2--------|-(2)----(2)---0-|-2--------|-(2)----(2)---0-|


                                                                         F#5
                                                       Gtr II
  W                  W                 W                  H        Q   E E
                                                                         |
                                                                         /

  Q.   E +Q   E E   +Q   E E +Q.   E   Q.   E +Q   E E   +Q   E E +H
|-----------------|------------------|-----------------|--------------------|
|-----------------|------------------|-----------------|--------------------|
|-----------------|------------------|-----------------|--------------------|
|-----------------|------------------|-----------------|--------------------|
|-4----3-(3)----4-|-(4)----5-(5)---2-|-4----3-(3)----4-|-(4)----5-(5)-------|
|-2-----------2---|-(2)--2---(2)---0-|-2-----------2---|-(2)--2---(2)-------|
  H.          Q     +Q   Q   +Q.   E   H.          Q     +Q   Q   +H


  Gtr II
  PM--|      PM         PM               PM--|        PM
  E E E E Q  E E   +Q   E E +Q   E E     E E E E +Q   E E
|----------------|-------------------||-------------------|
|----------------|-------------------||o------------------|
|----------------|-------------------||-------------------|
|-------5-5----6-|-(6)----7-(7)--7---||--------5-(5)----6-|
|-4-3-4-3-3--4-4-|-(4)--4-5-(5)--5-2-||o-2-3-4-3-(3)--4-4-|
|-2-1-2------2---|------2----------0-||--0-1-2--------2---|
                                      |-Rhy Fig 1


       PM                   PM--|    PM---|         PM|       PM--|
  +Q   E E +Q   E E  3x     E E E E +E  E E E   +E  E E E +E  E E E
|--------------------||-||--------------------|----------------------||
|-------------------o||-||o-------------------|---------------------o||
|--------------------||-||--------------------|----------------------||
|-(6)----7-(7)--7----||-||--------5-(5)-----6-|-(6)-----7-(7)--------||
|-(4)--4-5-(5)--5-2-o||-||o-2-3-4-3-(3)-3-4-4-|-(4)-3-4-5-(5)-3-4-2-o||
|------2----------0--||-||--0-1-2-------1-2---|-----1-2-------1-2-0--||
       end Rhy Fig 1-|   |-Rhy Fig 2                   end Rhy Fig 2-|


  PM----|   PM       PM--|   PM       PM--|   PM         PM----------|
  E E E E E E Q    E E E E E E Q    E E E E E E Q    S S E E E E E E E
|----------------|----------------|----------------|-------------------|
|----------------|----------------|----------------|-------------------|
|---------7---7--|-3-------3---3--|-4-------4---4--|-------------------|
|---------7---7--|-3-------3---3--|-4-------4---4--|-1-1---------------|
|-9-9-9-9---9----|---5-5-5---5----|---6-6-6---6----|-----3-3-3-3-3-3-3-|
|-7-7-7-7---7----|---3-3-3---3----|---4-4-4---4----|-----1-1-1-1-1-1-1-|
|-Rhy Fig 3                                              end Rhy Fig 3-|

  $
  W          +H     +Q.   E   W          +H     +Q.   E
|----------|----------------|----------|-----------------||
|----------|----------------|----------|-----------------||
|----------|----------------|----------|-----------------||
|----------|----------------|----------|-----------------||
|-4--------|-(4)----(4)---2-|-4--------|-(4)----(4)---2--||
|-2--------|-(2)----(2)---0-|-2--------|-(2)----(2)---0--||


 Verse
                                               <
                                 pm------------------|       pm
  w          +h     +q.   e   q  e e e e e e   e e e e e e e e
|----------|----------------|----------------|------------------|
|----------|----------------|----------------|------------------|
|----------|----------------|----------------|------------------|
|----------|----------------|----------------|------------------|
|-4--------|-(4)----(4)---2-|-4--4-4-4-4-4-4-|-4-4-4-4-4-4-4-2--|
|-2--------|-(2)----(2)---0-|-2--2-2-2-2-2-2-|-2-2-2-2-2-2-2-0--|
|-rhy fig 4                                       end rhy fig 4-|

rhy fig 1 x2
rhy fig 4
rhy fig 1
rhy fig 3 x2


              pm    pm  pm--------------------|
  h    h      e e e e e e e e   e e e e e e e e
|-----------|-----------------|-----------------||
|-----------|-----------------|-----------------||
|-----------|-----------------|-----------------||
|-4----5----|-2-3-3-2-3-------|-----------------||
|-2----3----|-0-1-1-0-1-2-2-2-|-2-2-2-2-2-2-2-2-||
|-----------|-----------0-0-0-|-0-0-0-0-0-0-0-0-||
            |-rhy fig 5           end rhy fig 5-|

 2/4       4/4
  pm    pm              pm    pm  pm--------------------|
  e e e e   h    h      e e e e e e e e   e e e e e e e e
|---------|-----------|-----------------|------------------|
|---------|-----------|-----------------|------------------|
|---------|-----------|-----------------|------------------|
|-2-3-3-2-|-4----5----|-2-3-3-2-3-------|------------------|
|-0-1-1-0-|-2----3----|-0-1-1-0-1-2-2-2-|-2-2-2-2-2-2-2-2--|
|---------|-----------|-----------0-0-0-|-0-0-0-0-0-0-0-0--|


  to coda-|
         to dbl. coda-|
 2/4       4/4
  pm    pm                        pm
  e e e e   h    h      h    q.   e
|---------|-----------|-------------|
|---------|-----------|-------------|
|---------|-----------|-------------|
|-2-3-3-2-|-4----5----|------4------|
|-0-1-1-0-|-2----3----|-3----2----2-|
|---------|-----------|-1---------0-|


rhy fig 1 x2

rhy fig 2 x2 d.s. al coda after 2nd time


  &
                         2/4
  h    h      h    h      +h
|-----------|-----------|--------|
|-----------|-----------|--------|
|-----------|-----------|--------|
|-4----5----|-4----5----|-(5)----|
|-2----3----|-2----3----|-(3)----|
|-----------|-----------|--------|


 guitar solo
 4/4
gtr ii plays rhy fig 5 x4
  gtr iii
             ~~~~~~~~~~~~~~~~~~~~~~~~~~~~~~~~~~~~         ~~~
  q   e s  s h             +h            +e        a      q.
|-------9h12p9tr12-------|-(9tr12)-------(9tr12)-----------------|
|------------------------|-----------------------/19b21==21------|
|------------------------|---------------------------------------|
|------------------------|---------------------------------------|
|------------------------|---------------------------------------|
|------------------------|---------------------------------------|



    ~~~~
                        |------6-------|  |------6-------|
   +q    e  t  t  t  t  s  s  s  s  s  s  s  s  s  s  s  s
|----------12-12-12-12-16p13p12-16p13p12-16p13p12-16p13p12-|
|-(21)-----------------------------------------------------|
|----------------------------------------------------------|
|----------------------------------------------------------|
|--------x-------------------------------------------------|
|--------x-------------------------------------------------|



   |------6-------|  |------6-------|  |------6-------|  |--3--|
   s  s  s  s  s  s  s  s  s  s  s  s  s  s  s  s  s  s  s  s  s  a      +e
|-16p13p12-16p13p12-16p13p12-16p13p12-16p13p12-16p13p12-16p13p12--------------|
|----------------------------------------------------------------15b18==(18)r=|
|-----------------------------------------------------------------------------|
|-----------------------------------------------------------------------------|
|-----------------------------------------------------------------------------|
|-----------------------------------------------------------------------------|


    ~~~~
   +q.      +e    s  s  s  s  s  s  t  t  s
|----------------------------11-12-11h12p11-|
|-(15)-----(15)\-------11-12----------------|
|----------------11h12----------------------|
|-------------------------------------------|
|-------------------------------------------|
|-------------------------------------------|



                                                              \2.5
                                    ~~~~~~~~~~~~~~~~
   s  s  s  s  s  s  s  s  a  e.    s  +q       +q     +q     q.       +e
|--------------------------------------------|------------------------------|
|-12-11--------------------------------------|------------------------------|
|-------13-12--------------------------------|----------------0--------(0)--|
|-------------14-13--------------------------|------------------------------|
|-------------------15-14--------------------|------------------------------|
|-------------------------15h16----15-(15)---|-(15)---(15)\-----------------|



   |---------7---------|  |---------7---------|  |---------7---------|  |--3--|
   s  s  s  s    s  s  s  s  s  s  s    s  s  s  s  s  s  s    s  s  s  s  s  s  +e
|-16p13p12-16p==13p12-16p13p12-16p13p==12-16p13p12-16p13p12---16p13p12-16p13p12-(12)/-|
|-------------------------------------------------------------------------------------|
|-------------------------------------------------------------------------------------|
|-------------------------------------------------------------------------------------|
|-------------------------------------------------------------------------------------|
|-------------------------------------------------------------------------------------|



 2/4
         ~~~~
   q    +q
|-------------|
|-------------|
|-14---(14)---|
|-------------|
|-------------|
|-------------|
|
|-|         pm
|  e e   e  e
|-------------|
|-------------|
|-------------|
|--2-3---3--2-|
|--0-1---1--0-|
|-------------|


   4/4
    gtr ii
      pm------------|                   pm------------|
    e e e e s s e e e     h    h      e e e e s s e e e
||---------------------||-----------|--------------------|
||o-------------------o||-----------|--------------------|
||---------------------||-----------|--------------------|
||--4------------------||-4----5----|-4-------2----------|
||o-2---0-2-3-2---3-2-o||-2----3----|-2---0-2---3-2-3-2--|
||----3---------3------||-----------|---3----------------|
                                    |-rhy fill 1      ---|

                        pm
  h    h      h    q.   e 
|-----------|-------------||
|-----------|-------------||
|-----------|-------------||
|-4----5----|------4------||
|-2----3----|-3----2----2-||
|-----------|-1---------0-||

rhy fig 2 x4 d.s. al coda ii (&&)




 outro
  &&
  h    h 
|-----------|
|-----------|
|-----------|
|------4----|
|-3----2----|
|-1---------|

rhy fill 1
rhy fig 5 repeat and fade


4.Welcome Home(Sanitarium)

Gtr I (E A D G B E) - 'James Hetfield (clean)'
Gtr II (E A D G B E) - 'Kirk Hammett (Solo)'
Gtr III (E A D G B E) - 'James Hetfield (Dist Rhythm)'

Intro
  Moderately Q=98
 4/4
  Gtr I
                                  |-3-|
  W            Q     E    +Q    E S S S E
|----------|-<12>---------------3-3h5p3p2-|
|----------|-------<12>-(<12>)----0-------|
|----------|------------------------------|
|----------|------------------------------|
|----------|------------------------------|
|-0--------|--(0)---(0)-------------------|
  W           +Q    +H            Q


  W            Q     E    +Q    E E. S
|----------|-<12>---------------2-2--3-|
|----------|-------<12>-(<12>)----0----|
|----------|---------------------------|
|----------|---------------------------|
|----------|---------------------------|
|-0--------|--(0)---(0)----------------|
  W           +Q    +H            Q


  H      E    Q.       +H        E    Q.
|-0----<12>--------|-----------<12>--------|
|-----------<12>---|-(<12>)---------<12>---|
|------------------|-----------------------|
|------------------|-----------------------|
|------------------|-----------------------|
|-0----------------|----0------------------|
  W                     W


    +H        E    Q.       +H        E    E    Q
|-----------<12>--------|-----------<12>------------|
|-(<12>)---------<12>---|-(<12>)---------<12>-------|
|-----------------------|---------------------<12>--|
|-----------------------|---------------------------|
|-----------------------|---------------------------|
|----0------------------|----0----------------------|
     W                       W


                                         2/4
    E E E E E E E E   E E E E E E E a E   E E a E E  4x
||------------------|-------------------|------------||
||o-----------------|-------------------|-----------o||
||--------0-------0-|-------0-----------|------------||
||------4-------5---|-----7-------0-----|---0-----0--||
||o---2-------3-----|---5-------4-------|-2---------o||
||--0-------0-------|-0-------5-----5s3-|-----3s5----||


 4/4
  Gtr II
  E E  E  E  Q.      E    E  E  E  E  E  E  Q
|----------------------|-------10s12-15s17-17-----|
|----------------------|-10-12--------------------|
|-----11-12---------12-|--------------------------|
|---9-------14---------|--------------------------|
|-7--------------------|--------------------------|
|----------------------|--------------------------|
|
| Gtr I
| E E  E  E  E  E E  E    E  E  E  E  E  E  E a E
|----------------------|--------------------------|
|----------------------|--------------------------|
|---------0----------0-|-----------0--------------|
|------4----------5----|--------7-----------0-----|
|---2-----------3------|-----5-----------4--------|
|-0----------0---------|--0-----------5-------5s3-|


 2/4            4/4
   +Q.       E   E  E  E  E  S  E.    S  +S      +E
|-(17)---------|---15-15-12-12s14----12-(12)b14r(12)-|
|--------------|-------------------------------------|
|--------------|-------------------------------------|
|--------------|-------------------------------------|
|--------------|-------------------------------------|
|--------------|-------------------------------------|
|
|   E  E a E E   E  E  E  E  E     E  E           E
|--------------|-------------------------------------|
|--------------|-------------------------------------|
|--------------|----------0-----------------------0--|
|------0-----0-|-------4--------------5--------------|
|---2----------|----2--------------3-----------------|
|--------3s5---|-0-----------0-----------------------|


                                  2/4
                    |--3--|
   E  E  E  E  Q    S  S  S    E    E  E    E  E
|----12--------------------------|---------------|
|-15----15-13-12---12h13p12------|---------------|
|-----------------------------14-|-12s11---------|
|--------------------------------|---------12----|
|--------------------------------|------------14-|
|--------------------------------|---------------|
|
|  E  E  E  E  E E  E       a  E    E  E a  E  E
|--------------------------------|---------------|
|--------------------------------|---------------|
|-----------0--------------------|---------------|
|--------7----------0------------|-----0-------0-|
|-----5----------4---------------|--2------------|
|--0-----------5------------5s=3-|-------3s=5----|


 4/4
   S  E.    +H.              S  S  Q    S  S  E.   S  E    E
|-------------------------|-------19---19-----------------17--|
|-------------------------|----17---------17------------------|
|-------------------------|-16---------------16s==14-14-------|
|-12s14----(14)-----------|-----------------------------------|
|-------------------------|-----------------------------------|
|-------------------------|-----------------------------------|
|
|  E     E   E  E E E E E    E     E E  E     E E     E a  E
|-------------------------|-----------------------------------|
|-------------------------|-----------------------------------|
|---------------0-------0-|-------------0---------------------|
|------------4--------5---|----------7----------------0-------|
|--------2----------3-----|--------5------------4-------------|
|--0--------------0-------|--0----------------5---------5s=3--|


 2/4                         4/4
                                        ~~~~
   S  S  S  S    S  S  S  S    Q       +H         S  S  S  S
|-17-15-14------------------|-----------------------------12-|
|----------17---15-14-------|--------------------------13----|
|---------------------16-14-|-12b14r==(12)----------14-------|
|---------------------------|--------------------14----------|
|---------------------------|--------------------------------|
|---------------------------|--------------------------------|
|
|  E     E    a  E     E       E    E   E  E E E  E     E
|---------------------------|--------------------------------|
|---------------------------|--------------------------------|
|---------------------------|--------------0------------0----|
|--------0-------------0----|-----------4---------5----------|
|--2------------------------|-------2----------3-------------|
|-------------3s=5----------|--0-------------0---------------|


                                       2/4
   |--3--|
   S  S  S  E  E.    +S    E E E    E   E E  E   E
|-10h12p10---------------------5------|---3---------|
|----------13-12----(12)\-------------|-------------|
|----------------------------6--------|-4--------6--|
|-------------------------/7-------/5-|-----/7------|
|-------------------------------------|-------------|
|-------------------------------------|-------------|
|
|  E        E  E  E        E E E a  E   E E  a E E
|-------------------------------------|-------------|
|-------------------------------------|-------------|
|-----------------0-------------------|-------------|
|--------------7---------------0------|---0------0--|
|-----------5----------------4--------|-2-----------|
|--0-----------------------5-----5s=3-|------3s5----|


   Verse
    $
   4/4                                   2/4
    E E E E E E E E   E E E E E E E a E   E E a E E  4x
||------------------|-------------------|------------||
||o-----------------|-------------------|-----------o||
||--------0-------0-|-------0-----------|------------||
||------4-------5---|-----7-------0-----|---0-----0--||
||o---2-------3-----|---5-------4-------|-2---------o||
||--0-------0-------|-0-------5-----5s3-|-----3s5----||


   4/4                                   2/4
    PM--------------------------------------------|
    E E E E E E E E   E E E E E E E   E   E E   E E
||------------------|-------------------|------------||
||o-----------------|-------------------|-----------o||
||------------------|-------------------|------------||
||------------------|-------------------|------------||
||o-----2-2-----3-3-|-----5-5-----------|-----------o||
||--0-0-----0-0-----|-0-0-----5-5-5---3-|-3-3---5-3--||
|
|   Gtr I
|   E E E E E E E E   E E E E E E E a E   E E a E E
||------------------|-------------------|------------||
||o-----------------|-------------------|-----------o||
||--------0-------0-|-------0-----------|------------||
||------4-------5---|-----7-------0-----|---0-----0--||
||o---2-------3-----|---5-------4-------|-2---------o||
||--0-------0-------|-0-------5-----5s3-|-----3s5----||


 Chorus
 4/4
  Gtrs II, III
     PM|     PM|     PM|                    PM--------|
                                      |-3-|
  Q  S S S S S S S S S S S S   +H     S S S S S S S S S
|----------------------------|--------------------------|
|----------------------------|--------------------------|
|----------------5s4-----5s4-|-(4)----------------------|
|--------5s4-----5s4-----5s4-|-(4)----0h2p0-------------|
|--------5s4-----3s2-----3s2-|-(2)----------3-2---------|
|-0--x-x-3s2-x-x-----x-x-----|------------------5-3-2-3-|


     PM|     PM|     PM|
  Q  S S S S S S S S S S S S
|------------------------------|
|------------------------------|
|----------------5s4-----5s4---|
|--------5s4-----5s4-----5s4---|
|--------5s4-----3s2-----3s2---|
|-0--x-x-3s2-x-x-----x-x-------|


      PM--------|
  +E  S S S S S S S S E S S E
|-----------------------------|
|-----------------------------|
|-(4)-------------------------|
|-(4)-------------------------|
|-(2)-2-2-2-2-2-2-3-2---2-0-3-|
|---------------------3-----1-|


     PM|     PM|     PM|                  PM--------|
                                    |-3-|
  Q  S S S S S S S S S S S S   H    S S S S S S S S S
|----------------------------|--------------------------|
|----------------------------|--------------------------|
|----------------5s4-----5s4-|-4------------------------|
|--------5s4-----5s4-----5s4-|-4----0h2p0---------------|
|--------5s4-----3s2-----3s2-|-2----------3-2-----------|
|-0--x-x-3s2-x-x-----x-x-----|----------------5-3-2-3---|


                           To Coda
                                    B
                                    Gtr III
  W                          W       W
                                     |
                                     o

                                    Gtr II
     PM|     PM|     PM|
  Q  S S S S S S S S S S E   W       E S S S S S S  E S S S  S  E
|--------------------------|------|----------------------------------|
|--------------------------|------|----------------------------10----|
|----------------5s4-----5-|-4----|-------------------7-7-9s11-------|
|--------5s4-----5s4-----5-|-4----|------------7-7-/9----------------|
|--------5s4-----3s2-----3-|-2----|----5-5-7s9-----------------------|
|-0--x-x-3s2-x-x-----x-x---|------|-/7-------------------------------|


  Gtr II
   S  S  S  S  E  E  H          S  S  E  E  S  S  E  E  S  T  T    E
|-------15-17-22-22-19-------|-17h19p17-15-17h19-17----17-19p17---17-|
|-17-19-------24-24-17-------|-19-20-19-17-19-20-19-19-19-20-19---17-|
|----------------------------|----------------------19---------------|
|----------------------------|---------------------------------------|
|----------------------------|---------------------------------------|
|----------------------------|---------------------------------------|
|
| Gtr I
|  E     E     E  E  E E E E    E     E  E  E     E  E  E       a  E
|----------------------------|---------------------------------------|
|----------------------------|---------------------------------------|
|-----------------0--------0-|--------------0------------------------|
|--------------4---------5---|-----------7--------------0------------|
|--------2-------------3-----|--------5--------------4---------------|
|--0-----------------0-------|--0-----------------5-------------5s=3-|


 2/4          4/4
   H            E      +E   +E   +E   Q.        S  S
|-15---------|-14b15==(15)-(15)r(14)-----------14-15-|
|------------|-15b17==(17)-(17)r(15)-15--------------|
|-16---------|---------------------------------------|
|------------|---------------------------------------|
|------------|---------------------------------------|
|------------|---------------------------------------|
|
|  E E a E E    E       E    E    E      E E E  E
|------------|---------------------------------------|
|------------|---------------------------------------|
|------------|--------------------0-------------0----|
|----0-----0-|---------------4---------------5-------|
|--2---------|----------2------------------3---------|
|------3s5---|--0------------------------0-----------|


               |--3--|
   S  S  S  S  T  T  T  S  S  S  S  S  T  T  S  S  S    S  S
|-17-15-14-15-14h15p14----14---------------------------------|
|----------------------17----17-17-14-15p14----14------------|
|-------------------------------------------16----16---14s12-|
|------------------------------------------------------------|
|------------------------------------------------------------|
|------------------------------------------------------------|
|
|  E     E     E           E     E     E        E    a  E
|------------------------------------------------------------|
|------------------------------------------------------------|
|--------------------------0---------------------------------|
|--------------7--------------------------------0------------|
|--------5-----------------------------4---------------------|
|--0-----------------------------5-------------------5s=3----|


 2/4                         4/4
                                  ~~~~~~~~~~~~~~~
   S  S  S  S    S  S  S  S    S  E.  +Q     +E  E  S  S  S  S
|---------------------------|----------------------------17-----|
|---------------------------|----------------------17s15----15s=|
|-14p12-11-12---11----------|-----------------------------------|
|------------------14-12-11-|-12h14--(14)---(14)----------------|
|---------------------------|-----------------------------------|
|---------------------------|-----------------------------------|
|
|  E     E    a  E     E       E  E    E  E      E  E  E  E
|---------------------------|-----------------------------------|
|---------------------------|-----------------------------------|
|---------------------------|-------------0---------------0-----|
|--------0-------------0----|----------4---------------5--------|
|--2------------------------|-----2-----------------3-----------|
|-------------3s=5----------|--0-----------------0--------------|


   S  S  S  S  S  S  S  S  S S  S S S S   S S
|----15-------14-------12------10-----7-------|
|-14----14s12----12s10----10s8----8s7-----7---|
|-------------------------------------------7-|
|---------------------------------------------|
|---------------------------------------------|
|---------------------------------------------|
|
|  E     E     E     E     E    E   E   a E
|---------------------------------------------|
|---------------------------------------------|
|--------------------0------------------------|
|--------------7--------------------0---------|
|--------5----------------------4-------------|
|--0-----------------------5------------5s3---|


 2/4            4/4
  S S E a  E E   H       E S S E E
|--------------|-------------------|
|--------------|-------------------|
|---7-9-9s11-9-|-9---------9-9-9-9-|
|-9------------|-------------------|
|--------------|-------------------|
|--------------|-------------------|
|
| E   E a  E E   E E E E E E   E E
|--------------|-------------------|
|--------------|-------------------|
|--------------|-------0---------0-|
|-----0------0-|-----4---------5---|
|-2------------|---2-------3-------|
|-------3s=5---|-0-------0---------|


                        D.S. al Coda
                                    &
                       2/4
  E E Q    E E E    E    E E    E E
|--------------5------|----3--------||
|---------------------|-------------||
|-9-7--------6--------|-/4--------6-||
|-----5---/7-------/5-|--------/7---||
|---------------------|-------------||
|---------------------|-------------||
|
| E E E E  E E E a  E    E E a  E E
|---------------------|-------------||
|---------------------|-------------||
|-------0-------------|-------------||
|-----7--------0------|----0------0-||
|---5--------4--------|--2----------||
|-0--------5-----5s=3-|------3s=5---||


                     4/4
  W                   W
|-------------------|----------------------------|
|-------------------|----------------------------|
|-------------------|----------------------------|
|-------------------|----------------------------|
|-------------------|----------------------------|
|-------------------|----------------------------|
|
| Gtrs II, III
|                        PM|     PM|     PM|
| |-3-|
| S S S S S S S S S   Q  S S S S S S S S S S E
|-------------------|----------------------------|
|-------------------|----------------------------|
|-------------------|----------------5s4-----5---|
|-0h2p0-------------|--------5s4-----5s4-----5---|
|-------3-2---------|--------5s4-----3s2-----3---|
|-----------5-3-2-3-|-0--x-x-3s2-x-x-----x-x-----|


                               Q=200
            2/4                 4/4
             |-3-|
  W          S S S S S S S S S   W          +W
|----------|-------------------|----------|------------|
|----------|-------------------|----------|------------|
|-4--------|-------------------|----------|------------|
|-4--------|-0h2p0-------------|-2--------|-(2)--------|
|-2--------|-------3-2---------|-2--------|-(2)--------|
|----------|-----------5-3-2-3-|-0--------|-(0)--------|


              pick scrapes
  +W           S  S  S  S  S  S  S  S  S  S  S  S  S  S  S  S
|------------|----------------------------------------------------|
|------------|----------------------------------------------------|
|------------|----------------------------------------------------|
|-(2)--------|-x\-x\-x\-x\-x--x\-x\-x\-x--x\-x\-x\-x--x--x\-x\----|
|-(2)--------|-x\-x\-x\-x\-x\-x\-x\-x\-x\-x\-x\-x\-x\-x\-x\-x\----|
|-(0)--------|-x\-x\-x\-x\-x\-x\-x\-x\-x--x\-x\-x\-x\-x\-x\-x\----|


  Gtrs II, III
  E E E E E E E E   E E E E E E E E   E E E E E E E E   E E E E E E E E
|-----------------|-----------------|-----------------|-----------------|
|-----------------|-----------------|-----------------|-----------------|
|-----------------|-----------------|-----------------|-----------------|
|-----------------|-----------------|-----------------|-----------------|
|-----------------|-----------------|-----------------|-----------------|
|-0-0-0-0-0-0-0-0-|-0-0-0-0-0-0-0-0-|-0-0-0-0-0-0-0-0-|-0-0-0-0-0-0-0-0-|


    E E E E E E E E   E E E E E E E E   E E E E E E E E   E E E E E E E E   4x
||------------------|-----------------|-----------------|-------------------||
||o-----------------|-----------------|-----------------|------------------o||
||------------------|-----------------|-----------------|-------------------||
||--0h1---0h1-------|-----------------|-0h1---0h1---0h1-|---0h2-------------||
||o-0h1---0h1-------|-----------------|-0h1---0h1---0h1-|---0h2------------o||
||------------0-0-0-|-0-0-0-0-0-0-0-0-|-----------------|---------0-0-0-0---||


    Slower Q=98
    S E S H.        S E S H.        S E S H.        S E S Q  S E S Q
||----------------|---------------|---------------|--------------------||
||o---------------|---------------|---------------|-------------------o||
||----------------|-----7-7-------|---------------|-----5-5------4-4---||
||--0-2-2-2-------|-0-2-7-7-------|-0-2-3-3-------|-0-2-5-5--5-4-4-4---||
||o-0-2-2-2-------|-0-2-5-5-------|-0-2-3-3-------|-0-2-3-3--3-2-2-2--o||
||------0-0-------|---------------|-----1-1-------|--------------------||


                                       Guitar Solo
                                     Q=200
                                        D     Eb          D     Eb    E
                                        Gtr III
  W                                      E     E     E     E     E     E     E     E
                                         |     |           |     |     |     |     |
                                         /     /           /     /     o     /     /

                          Gtr IV        Gtr II
  S S S S S S S S S S S S  S  S  S S     S  S  S  S  S  S  S  S  S  S  S  S  S  S  S  S
|------------------------------------||-------------------------------------------------|
|------------------------------------||-------------------------------------------------|
|------------------------------------||-12-12-12-12-12-12-12-12-12-12-12-12-12-12-12-12-|
|------------------------------------||-------------------------------------------------|
|------------------------------------||-------------------------------------------------|
|-0-0-0-0-0-0-0-0-0-0-0-0-12-11-10-9-||-------------------------------------------------|


   E     E     E     E     E     E     E     E
   |     |     |     |     |     |     |     |
   /     /     /     /     /     /     /     /

   S  S  S  S  S  S  S  S  S  S  S  S  S  S  S  S
|-------------------------------------------------|
|-------------------------------------------------|
|-16-12-12-12-12-12-12-12-12-12-12-12-12-12-12-12-|
|-------------------------------------------------|
|-------------------------------------------------|
|-------------------------------------------------|


  D     Eb          D     Eb          D     Eb            D     E/B        E
   E     E     E     E     E     E     E     E       E     E     E    E     E  E   E  E
   |     |           |     |           |     |             |     |          |  |   |  |
   /     /           /     /           /     /             /     /          o  /   /  /

                                                                 |---3---|
   S  S  S  S  S  S  S  S  S  S  S  S  S  S  S  S    S  S  S  S  E  E    E  Q      E  E
|----------------------------------------------12-|-13-12-12-12-15-12---12-17\-------12-|
|-------------------------13-12-12-12-15-12-12----|------------------------------/12----|
|-14-12-12-12-16-12-12-12-------------------------|-------------------------------------|
|-------------------------------------------------|-------------------------------------|
|-------------------------------------------------|-------------------------------------|
|-------------------------------------------------|-------------------------------------|


  D     Eb       D  Eb    E
   E     E  E     E  E     E  E     E    E     E  E     E  E     E  E     E
   |     |        |  |     |  |     |    |     |  |     |  |     |  |     |
   /     /        /  /     o  /     /    /     /  /     /  /     /  /     /

   S  S  E  S  S  E  S  S  E  S  S  E    S  S  E  S  S  E  S  S  E  S  S  E
|-17p15p12-------12-17p15p12----------|-17p15p12-------12-17p15p12-------12----|
|----------17p15-------------17p15-12-|----------17p15-------------15p12-------|
|-------------------------------------|----------------------------------------|
|-------------------------------------|----------------------------------------|
|-------------------------------------|----------------------------------------|
|-------------------------------------|----------------------------------------|


  D     Eb  D        Eb      D     Eb        D  E/B   E
   E    E E   E        E   E  E    E       E  E  E  E   E  E E E
   |    |     |        |      |    |          |  |      |  | | |
   /    /     /        /      /    /          /  /      o  / / /

                       ~~~~~                        ~~~~~~~
                              |---3---|
   Q.        +E       +Q      E  E    E    E  E  E  E  +Q    E E
|-17b19r====(17)b19==(19)r------17---15-|-14----14---------------|
|----------------------------17---------|----15----15-(15)-------|
|---------------------------------------|--------------------2---|
|---------------------------------------|----------------------4-|
|---------------------------------------|------------------------|
|---------------------------------------|------------------------|


  D Eb    D EbE
  E  E  E E E E E   E   E E E E  E  E E E
  |  |    | | | |   |   | | | |  |  | | |
  /  /    / / o /   /   / / / /  /  / / /

                              ~~~~~~
  E +E  E E E E S S E   E E E E +Q.     E
|---------------------|--------------------|
|---------------------|--------------------|
|-4-(4)-4-2---2-4-2---|-----------------4--|
|-----------4-------4-|-3-2----------------|
|---------------------|-----5-2-(2)--------|
|---------------------|--------------------|


  D    Eb     D    Eb     D         Eb            D E/B         E
  E     E   E E     E   E E         E   E         E E         E E     E    E  E
  |     |     |     |     |         |             | |           |     |    |  |
  /     /     /     /     /         /             / /           o     /    /  /

  E    +E   E E    +E   E S    +S   E   S    +S   E S    +S   E E    +E    E  E
|-------------------------------------|-----------------------------------------|
|-----------5-----------5-----------5-|-----------5-----------5--------------12-|
|-7b9==(9)r---7b9==(9)r---7b9==(9)r---|-7b9==(9)r---7b9==(9)r---7b9==(9)r-14----|
|-------------------------------------|-----------------------------------------|
|-------------------------------------|-----------------------------------------|
|-------------------------------------|-----------------------------------------|


  D     Eb    D Eb    E
   E     E  E E  E     E  E E    E  E  E  E     E   E   E  E
   |     |    |  |     |  | |    |  |  |  |     |   |   |  |
   /     /    /  /     o  / /    /  /  /  /     /   /   /  /

                                          ~~~~~~~~~~~~~~
   |---3----|    |---3----|      |--3--|
   Q     Q  Q    Q     Q  Q      Q  Q  Q  Q        +E      S  S
|---------------15b17r15-14---|-12----12------------------------|
|-15b17r15-12-----------------|----15----15b17====(17)r---17-17-|
|-----------------------------|---------------------------------|
|-----------------------------|---------------------------------|
|-----------------------------|---------------------------------|
|-----------------------------|---------------------------------|


  D     Eb          D     Eb       D   Eb
   E     E     E     E     E     E   E  E
   |     |           |     |         |  |
   /     /           /     /         /  /

   S  S  S  S  S  S  S  S  S  S  E   E  S  S
|-15-------15-17-15----15-19-17-15-/21-19-22-|
|----17-18----------19-----------------------|
|--------------------------------------------|
|--------------------------------------------|
|--------------------------------------------|
|--------------------------------------------|


                                            Q=98
        D     E/B          E
   E     E     E       E    E     E   E   E    W                 W
         |     |            |     |   |   |
         /     /            o     /   /   /

   S  S  S  S  E      +E    Q        +Q        S E S Q  E E Q    S E S Q  E E Q
|-22-19----22-22b24==(24)r-22b24====(24)r---||-----------------|-------------------|
|-------22----------------------------------||-----------------|-------------------|
|-------------------------------------------||-----------------|-----7-7--7--------|
|-------------------------------------------||-----2-2--2------|-----7-7--7--------|
|-------------------------------------------||-0-2-2-2--2------|-0-2-5-5--5--------|
|-------------------------------------------||-----0-0--0------|-------------------|


  D E/E                        D E/D5
  Gtr III
  S E S H.                     S E S H.
  | | | |                      | | | |
  / / / /                      / / / /

  Gtr II
                               ~         PM--|
  Q     E  E  S S S S +S  E.   H         S S S S +S  E.
|----------------------------|--------------------------|
|----------------------------|--------------------------|
|----------------------------|--------------------------|
|----------------------------|--------------------------|
|----------5-/7-7-7-5-(5)-7--|-9---------9-9-9-7-(7)-9--|
|----------------------------|--------------------------|


  D  E/B F5                              D   E/C5   C Bm  B+
   S E   S  H.                            S  E S Q  S E   S  Q
   | |   |  |                             |  | | |  | |   |  |
   / /   /  /                             /  / / /  / /   /  /

         ~~~~~~ PM--|                     ~~~       PM--|
   E   S S +Q   S S S  S  +E  a  a S S   +H         S S S S +S  E.
|--------------------------------------|------------------------------|
|--------------------------------------|------------------------------|
|--------------------------------------|------------------------------|
|--------------------------------------|------------------------------|
|-10---9-8-(8)--8-8-8-10-(10)-8h10p8-7-|-(7)--------6-6-6-7-(7)-9-----|
|--------------------------------------|------------------------------|


  D E/E                      D E/D5
  S E S H.                   S E S H.
  | | | |                    | | | |
  / / / /                    / / / /

  ~         PM--|            ~         PM--|
  H         S S S S +S  E.   H         S S S S +S  E S
|--------------------------|---------------------------|
|--------------------------|---------------------------|
|--------------------------|---------------------------|
|--------------------------|---------------------------|
|-7---------7-7-7-5-(5)-7--|-9---------9-9-9-7-(7)-9-9-|
|--------------------------|---------------------------|


  D  E/B F5                              D   E/C5   C Bm  B+
   S E   S  H.                            S  E S Q  S E   S  Q
   | |   |  |                             |  | | |  | |   |  |
   / /   /  /                             /  / / /  / /   /  /

         ~~~~~~ PM--|                     ~~~       PM--|
   E   S S +Q   S S S  S  +E  a  a S S   +H         S S S S +S  E S
|--------------------------------------|-----------------------------|
|--------------------------------------|-----------------------------|
|--------------------------------------|-----------------------------|
|--------------------------------------|--------------------------5--|
|-10---9-8-(8)--8-8-8-10-(10)-8h10p8-7-|-(7)--------6-6-6-7-(7)-9-7--|
|--------------------------------------|-----------------------------|


    D   E/E                      D E/D5
     S  E S H.                   S E S H.
     |  | | |                    | | | |
     /  / / /                    / / / /

     ~~~        PM--|            ~         PM--|
    +H          S S S S +S  E.   H         S S S S +S  E.
||-----------------------------|--------------------------|
||o----------------------------|--------------------------|
||-----------------------------|-2---------2-2-2-------2--|
||--(5)---------5-5-5-4-(4)-5--|-----------------5-(5)----|
||o-(7)---------7-7-7-5-(5)-7--|-9---------9-9-9-7-(7)-9--|
||-----------------------------|--------------------------|


  D  E/B F5                              D   E/C5   C Bm  B+
   S E   S  H.                            S  E S Q  S E   S  Q
   | |   |  |                             |  | | |  | |   |  |
   / /   /  /                             /  / / /  / /   /  /

         ~~~~~~ PM--|                     ~~~       PM--|
   E   S S +Q   S S S  S  +E  a  a S S   +H         S S S S +S  E S
|--------------------------------------|------------------------------||
|--------------------------------------|-----------------------------o||
|------4-5-(5)--5-5-5--7--(7)-5h=7p5---|------------------------4-----||
|--5---------------------------------5-|-(5)--------4-4-4-5-(5)---5---||
|-10---9-8-(8)--8-8-8-10-(10)-8h10p8-7-|-(7)--------6-6-6-7-(7)-9-7--o||
|--------------------------------------|------------------------------||


 Guitar Solo 2
  D E/E                      D E/B  D5
  S E S H.                   S E     S   H.
  | | | |                    | |     |   |
  / / / /                    / /     /   /

  ~         PM--|
  H         S S S S +S  E.   E    S  S  +Q    S  S  S  S  +S   E.
|--------------------------|--------------------------------------|
|--------------------------|--------------------------------------|
|--------------------------|--------------------------------------|
|--------------------------|--------------------------------------|
|-7---------7-7-7-6-(6)-7--|-9---10-12-(12)--12-12-12-10-(10)-12--|
|--------------------------|--------------------------------------|


  D  E/B   F5
   S  E     S   H.
   |  |     |   |
   /  /     /   /

   S  S  S  S  +S   S  S  E      +E    S      +E    S     +S
|-------------------------------------------------------------|
|-------------------------------------------------------------|
|-------12------------12-14b16==(16)r-14b16==(16)r-14b16r(14)-|
|----------14-(14)-14-----------------------------------------|
|-12s14-------------------------------------------------------|
|-------------------------------------------------------------|


   D  E/B C5           C  Bm    B+
   S  E  S   Q         S  E     S   Q
   |  |  |   |         |  |     |   |
   /  /  /   /         /  /     /   /

   S  E.    +E   S  S  S  S  S  S  +E   S  S
|----------------------------------------------|
|---------------------12-------12-(12)---------|
|-12------------------12-------12-(12)---------|
|----14----(14)-14-14----14-14---------14-14---|
|----------------------------------------------|
|----------------------------------------------|



   D  E/B   E
   S  E     S   H.
   |  |     |   |
   /  /     /   /

                  ~~~~~
                             |----3-----|
   S  S  S  S  +S   S  S  S  S     +S   S  S  S  +S   E  S 
|----------------------------------------------------------|
|-12-------12-(12)-----------------------------------------|
|-12-------12-(12)----12-14-14b16r(14)-12------------12-12-|
|----14-14---------14---------------------14-14-(14)-------|
|----------------------------------------------------------|
|----------------------------------------------------------|


   D            E/B   D5

   S            E     S       H.
   |            |     |       |
   /            /     /       /

                     ~~~~~~~~~~~~                    ~~~~~
                                                          |--3--|
  T      +T    S  S  S      +E    S  S  E.     +S   +E    S  S  S
|--------------12--------------------12-15b17==(17)-(17)r-12h15p12-|
|-----------------12-15b17==(17)r-15-------------------------------|
|-14b16==(16)r-----------------------------------------------------|
|------------------------------------------------------------------|
|------------------------------------------------------------------|
|------------------------------------------------------------------|


  D     E/B     F5
   S    E        S  H.
   |    |        |  |
   /    /        /  /

   |---3---|
   S  S    S  S  S  S   S  S  S      +S   +T   T  S  S      +S   +T   T  S     T  T
|-15p12h==15-------------------------------------------------------------------------|
|------------12----------------------------------------------------------------------|
|---------------14-12-----12-14b16==(16)r(14)p12-14-14b16==(16)r(14)p12-14b16r14p12--|
|----------------------14------------------------------------------------------------|
|------------------------------------------------------------------------------------|
|------------------------------------------------------------------------------------|


  D  E/B           C5              C  Bm    B+
   S  E             S  Q            S  E     S   Q
   |  |             |  |            |  |     |   |
   /  /             /  /            /  /     /   /

   S  S     +T   T  S  E      +E    S  S  S  S  +S   E  S
|---------------------------------------------------------|
|---------------------------------------------------------|
|-14-14b16r(14)p12-14-14b16==(16)r-11-11-11-12-(12)-14s16-|
|---------------------------------------------------------|
|---------------------------------------------------------|
|---------------------------------------------------------|


                                                          H.=H
   W                             W                          W
  Gtrs II, III   Gtr IV        Gtrs II, III   Gtr IV        Gtrs II, IIGtr IV
           ~~~                   ~~~~
   E.   S  H.                   +H         H                S E S H    S  S  S  S
|----------------------------|----------------------------|-----------------------|
|-12S==17-17-----------------|-(17)-----------------------|-----------------------|
|----------------------------|--------7-7-----------------|-----------------------|
|--0-2--2--2-----8\-6\-4\-2\-|---0--2-7-7-----8\-6\-4\-2\-|-0-2-3-3----8\-6\-4\-2-|
|--0-2--2--2-----x--x--x--x--|---0--2-5-5-----x--x--x--x--|-0-2-3-3----x--x--x--x-|
|-------0--0-----x--x--x--x--|----------------x--x--x--x--|-----1-1----x--x--x--x-|
   S E  S  H     S  S  S  S      S  E S H     S  S  S  S


 Outro
  Gtrs II, III
                               PM--|
                               |-3-|
  S E S Q  S E S Q    S E S Q  E E E Q
|-------------------|-------------------|
|-------------------|-------------------|
|-----5-5------4-4--|-------------------|
|-0-2-5-5--5-4-4-4--|-0-2-2-2--------2--|
|-0-2-3-3--3-2-2-2--|-0-2-2-2--2-2-2-2--|
|-------------------|-----0-0--0-0-0-0--|


           PM--|               PM--|
           |-3-|               |-3-|
  S E S Q  E E E Q    S E S Q  E E E Q
|-------------------|--------------------|

|-------------------|--------------------|
|-----7-7--------7--|--------------------|
|-0-2-7-7--7-7-7-7--|-0-2-3-3--------3---|
|-0-2-5-5--5-5-5-5--|-0-2-3-3--3-3-3-3---|
|-------------------|-----1-1--1-1-1-1---|


                                                        Q=98
           PM--|      PM--|    PM--|                    TP
           |-3-|      |-3-|    |-3-|
  S E S Q  E E E Q    E E E Q  E E E Q    Q  Q  Q  Q    W
|-------------------|-------------------|-------------|------|
|-------------------|-------------------|-------------|------|
|-----5-5--------4--|-------4--------4--|-4--2--------|------|
|-0-2-5-5--4-4-4-4--|-4-4-4-4--4-4-4-4--|-4--2--5--4--|-2----|
|-0-2-3-3--2-2-2-2--|-2-2-2-2--2-2-2-2--|-2--0--5--4--|-2----|
|-------------------|-------------------|-------3--2--|-0----|


   TP
  +W           Q   Q  H
|------------|-------------*|
|------------|-------------*|
|------------|-------------*|
|-(2)--------|-2\----------*|
|-(2)--------|-2\----------*|
|-(0)--------|-0\----------*|


5.Disposable Heroes

Gtr I (E A D G B E) - 'James Hetfield - Rhythm w/dist'
Gtr II (E A D G B E) - 'Kirk Hammett - Lead w/dist'
Gtr III (E A D G B E) - 'Extra'

Intro
    Fast Rock Q=206
   6/4
    Gtrs I, II
    PM--------|            PM--------|            PM--------|
    E E E E E E Q  Q  Q    E E E E E E Q  Q  Q    E E E E E E Q  Q  Q
||-----------------------|----------------------|-----------------------|
||o----------------------|----------------------|-----------------------|
||-----------------------|----------------------|-----------------------|
||-----------------------|----------------------|-----------------------|
||o-------------4--5--4--|-------------5--7--4--|-------------4--5--4---|
||--0-0-0-0-0-0-2--3--2--|-0-0-0-0-0-0-3--5--2--|-0-0-0-0-0-0-2--3--2---|


  Gtr II
  PM--------------|
  E E E E E E E E E Q.
|-------------------------||-|
|------------------------o||-|
|-------------------9-----||-|
|-------------------9-----||-|
|-------------------7----o||-|
|-0-0-0-0-0-0-0-0-0-------||-|
|
| Gtr I
| PM--------------|
| E E E E E E E E E Q.
|-------------------------||-|
|------------------------o||-|
|-------------------9-----||-|
|-------------------9-----||-|
|-------------------7----o||-|
|-0-0-0-0-0-0-0-0-0-------||-|


    H.            Q   Q   Q    H.            Q   Q   Q
||---------------------------|--------------------------|
||o--------------------------|--------------------------|
||--9------------------------|-9------------------------|
||--9------------11--12--11--|-9------------12--14--11--|
||o-7-------------9--10---9--|-7------------10--12---9--|
||---------------------------|--------------------------|
|
|   PM---------|               PM---------|
|   E  E E E E E  Q   Q   Q    E  E E E E E  Q   Q   Q
||---------------------------|--------------------------|
||o--------------------------|--------------------------|
||---------------------------|--------------------------|
||---------------------------|--------------------------|
||o---------------4---5---4--|---------------5---7---4--|
||--0--0-0-0-0-0--2---3---2--|-0--0-0-0-0-0--3---5---2--|


                            1.
  H.            Q   Q   Q    H.           +Q.      Q.
|--------------------------|-----------------------------||
|--------------------------|----------------------------o||
|-9------------------------|-9------------(9)-----12-----||
|-9------------11--12--11--|-9------------(9)-----12-----||
|-7-------------9--10---9--|-7------------(7)-----10----o||
|--------------------------|-----------------------------||
|
| PM---------|               PM-----------------|
| E  E E E E E  Q   Q   Q    E  E E E E E  E  E E  Q.
|--------------------------|-----------------------------||
|--------------------------|----------------------------o||
|--------------------------|-----------------------9-----||
|--------------------------|-----------------------9-----||
|---------------4---5---4--|-----------------------7----o||
|-0--0-0-0-0-0--2---3---2--|-0--0-0-0-0-0--0--0-0--------||


 2.
  H.           +Q.     Q.
|----------------------------|
|----------------------------|
|-9------------(9)-----9-----|
|-9------------(9)-----9-----|
|-7------------(7)-----7-----|
|----------------------------|
|
| PM-----------------|
| E  E E E E E  E  E E Q.
|----------------------------|
|----------------------------|
|----------------------9-----|
|----------------------9-----|
|----------------------7-----|
|-0--0-0-0-0-0--0--0-0-------|


  Q=188
                    4/4
  Gtrs I, II
                     PM---------------------
  +W.                E S S E E E E S S S S
|----------------||------------------------|
|----------------||o-----------------------|
|-(9)------------||------------------------|
|-(9)------------||------------------------|
|-(7)------------||o-----------------------|
|----------------||--0-0-0-0-0-0-0-0-0-0-0-|
                  |-Rhy Fig 1

 ---------------------------------------------|
  E S S E E E E S S S S   E S S E E E E S S S S
|-----------------------|------------------------|
|-----------------------|------------------------|
|-----------------------|------------------------|
|-----------------------|------------------------|
|-----------------------|------------------------|
|-0-0-0-0-0-0-0-0-0-0-0-|-0-0-0-0-0-0-0-0-0-0-0--|


  Gtr II
  PM------------------|     |-w/Rhy Fig 1 x2
  E S S E E E E S S S S  4x      W                        +H.              Q
|------------------------||-||-------------------------|---------------------------|
|-----------------------o||-||o------------------------|---------------------------|
|------------------------||-||--12---------------------|-(12)-------------14S======|
|------------------------||-||--12---------------------|-(12)-------------14S======|
|-----------------------o||-||o-10---------------------|-(10)-------------12S======|
|-0-0-0-0-0-0-0-0-0-0-0--||-||-------------------------|---------------------------|
|
| Gtr I
| PM--------------------|
| E S S E E E E S S S S  4x
|------------------------||
|-----------------------o||
|------------------------||
|------------------------||
|-----------------------o||
|-0-0-0-0-0-0-0-0-0-0-0--||
           end Rhy Fig 1-|

   W                        +H.              Q
|------------------------|------------------------------|
|------------------------|------------------------------|
|-11---------------------|-(11)-------------14S=========|
|-11---------------------|-(11)-------------14S=========|
|--9---------------------|--(9)-------------12S=========|
|------------------------|------------------------------|



   W                        +H.              Q
|------------------------|---------------------------|
|------------------------|---------------------------|
|-10---------------------|-(10)-------------12S======|
|-10---------------------|-(10)-------------12S======|
|--8---------------------|--(8)-------------10S======|
|------------------------|---------------------------|



  W                       +W
|-----------------------|--------------------------||
|-----------------------|-------------------------o||
|-9---------------------|-(9)----------------------||
|-9---------------------|-(9)----------------------||
|-7---------------------|-(7)---------------------o||
|-----------------------|--------------------------||



    Faster Q=188
    Gtrs I, II
        PM------|   PM--------|
    E S S S S S S E S S S S S S
||------------------------------|
||o-----------------------------|
||------------------------------|
||--6---------------------------|
||o-4-4-4-4-4-4-4-4-4-4-4-4-4-4-|
||------------------------------|


    PM--------|   PM--------|
  E S S S S S S E S S S S S S  3x E E E E E E E E
|------------------------------||-----------------|
|-----------------------------o||-----------------|
|------------------------------||-----------------|
|-6----------------------------||---5p4---4p2-----|
|-4-4-4-4-4-4-4-4-4-4-4-4-4-4-o||-0-----0-----5-4-|
|------------------------------||-----------------|


                  PM------------------------------------------|
  |-3-| |-3-|
  Q Q Q Q Q Q     E S S E E E E S S S S   E S S E E E E S S S S  4x
|-------------||------------------------|------------------------||
|-------------||o-----------------------|-----------------------o||
|-------7-6-4-||------------------------|------------------------||
|-5-4-2-7-6-4-||------------------------|------------------------||
|-5-4-2-5-4-2-||o-----------------------|-----------------------o||
|-3-2-0-------||--0-0-0-0-0-0-0-0-0-0-0-|-0-0-0-0-0-0-0-0-0-0-0--||


   1st,2nd,3rd Verses
    $
    PM------------------------------------------------------------------|
    E S S E E E E S S S S   E S S E E E E S S S S   E S S E E E E S S S S
||------------------------|-----------------------|------------------------|
||o-----------------------|-----------------------|------------------------|
||------------------------|-----------------------|------------------------|
||------------------------|-----------------------|------------------------|
||o-----------------------|-----------------------|------------------------|
||--0-0-0-0-0-0-0-0-0-0-0-|-0-0-0-0-0-0-0-0-0-0-0-|-3-3-3-3-3-3-3-3-3-3-3--|


  PM---------------------------------------------
  E S S E E E E S S S S   E S S E E E E S S S S
|-----------------------|-----------------------|
|-----------------------|-----------------------|
|-----------------------|-----------------------|
|-----------------------|-----------------------|
|-----------------------|-----------------------|
|-2-2-2-2-2-2-2-2-2-2-2-|-0-0-0-0-0-0-0-0-0-0-0-|


 ---------------------------------------------|
  E S S E E E E S S S S   E S S E E E E S S S S
|-----------------------|-----------------------|
|-----------------------|-----------------------|
|-----------------------|-----------------------|
|-----------------------|-----------------------|
|-----------------------|-----------------------|
|-0-0-0-0-0-0-0-0-0-0-0-|-3-3-3-3-3-3-3-3-3-3-3-|


  PM---------------------------------------------
  E S S E E E E S S S S   E S S E E E E S S S S
|-----------------------|-----------------------|
|-----------------------|-----------------------|
|-----------------------|-----------------------|
|-----------------------|-----------------------|
|-----------------------|-----------------------|
|-7-7-7-7-7-7-7-7-7-7-7-|-0-0-0-0-0-0-0-0-0-0-0-|


 ---------------------------------------------|
  E S S E E E E S S S S   E S S E E E E S S S S
|-----------------------|-----------------------|
|-----------------------|-----------------------|
|-----------------------|-----------------------|
|-----------------------|-----------------------|
|-----------------------|-----------------------|
|-0-0-0-0-0-0-0-0-0-0-0-|-3-3-3-3-3-3-3-3-3-3-3-|


  PM---------------------------------------------
  E S S E E E E S S S S   E S S E E E E S S S S
|-----------------------|-----------------------|
|-----------------------|-----------------------|
|-----------------------|-----------------------|
|-----------------------|-----------------------|
|-----------------------|-----------------------|
|-2-2-2-2-2-2-2-2-2-2-2-|-0-0-0-0-0-0-0-0-0-0-0-|


 ---------------------------------------------|
  E S S E E E E S S S S   E S S E E E E S S S S
|-----------------------|-----------------------|
|-----------------------|-----------------------|
|-----------------------|-----------------------|
|-----------------------|-----------------------|
|-----------------------|-----------------------|
|-0-0-0-0-0-0-0-0-0-0-0-|-0-0-0-0-0-0-0-0-0-0-0-|


  PM------------------|        PM------|   PM--------|
  E S S E E E E S S S S    E S S S S S S E S S S S S S
|-----------------------||-----------------------------|
|-----------------------||-----------------------------|
|-----------------------||-----------------------------|
|-----------------------||-6---------------------------|
|-----------------------||-4-4-4-4-4-4-4-4-4-4-4-4-4-4-|
|-0-0-0-0-0-0-0-0-0-0-0-||-----------------------------|


                               3/4
    PM--------|   PM--------|       PM------|   PM|
  E S S S S S S E S S S S S S   E S S S S S S E S S
|-----------------------------|---------------------|
|-----------------------------|---------------------|
|-----------------------------|---------------------|
|-6---------------------------|-6-------------------|
|-4-4-4-4-4-4-4-4-4-4-4-4-4-4-|-4-4-4-4-4-4-4-4-4-4-|
|-----------------------------|---------------------|


                       4/4
      PM------|   PM|       PM------|   PM--------|
  E S S S S S S E S S   E S S S S S S E S S S S S S
|---------------------|-----------------------------|
|---------------------|-----------------------------|
|---------------------|-----------------------------|
|-4-------------------|-6---------------------------|
|-2-2-2-2-2-2-2-2-2-2-|-4-4-4-4-4-4-4-4-4-4-4-4-4-4-|
|---------------------|-----------------------------|


                               3/4
    PM--------|   PM--------|       PM------|   PM|
  E S S S S S S E S S S S S S   E S S S S S S E S S
|-----------------------------|---------------------|
|-----------------------------|---------------------|
|-----------------------------|---------------------|
|-6---------------------------|-6-------------------|
|-4-4-4-4-4-4-4-4-4-4-4-4-4-4-|-4-4-4-4-4-4-4-4-4-4-|
|-----------------------------|---------------------|


                       4/4
      PM------|   PM|       PM------|   PM--------|
  E S S S S S S E S S   E S S S S S S E S S S S S S
|---------------------|-----------------------------|
|---------------------|-----------------------------|
|---------------------|-----------------------------|
|-4-------------------|-6---------------------------|
|-2-2-2-2-2-2-2-2-2-2-|-4-4-4-4-4-4-4-4-4-4-4-4-4-4-|
|---------------------|-----------------------------|


                               3/4
    PM--------|   PM--------|       PM------|   PM|
  E S S S S S S E S S S S S S   E S S S S S S E S S
|-----------------------------|---------------------|
|-----------------------------|---------------------|
|-----------------------------|---------------------|
|-6---------------------------|-6-------------------|
|-4-4-4-4-4-4-4-4-4-4-4-4-4-4-|-4-4-4-4-4-4-4-4-4-4-|
|-----------------------------|---------------------|


                       4/4
      PM------|   PM|       PM------|   PM--------|
  E S S S S S S E S S   E S S S S S S E S S S S S S
|---------------------|-----------------------------|
|---------------------|-----------------------------|
|---------------------|-----------------------------|
|-4-------------------|-6---------------------------|
|-2-2-2-2-2-2-2-2-2-2-|-4-4-4-4-4-4-4-4-4-4-4-4-4-4-|
|---------------------|-----------------------------|


                               3/4
    PM--------|   PM--------|       PM------|   PM|
  E S S S S S S E S S S S S S   E S S S S S S E S S
|-----------------------------|---------------------|
|-----------------------------|---------------------|
|-----------------------------|---------------------|
|-6---------------------------|-6-------------------|
|-4-4-4-4-4-4-4-4-4-4-4-4-4-4-|-4-4-4-4-4-4-4-4-4-4-|
|-----------------------------|---------------------|


                        4/4
  Gtr II
      PM------|   PM|
  E S S S S S S E S S    Q     +E.     T T Q     +E.     T T
|---------------------||-------------------------------------|
|---------------------||-------------------------------------|
|---------------------||-4-----(4)h====5p4S2-----(2)s====4h5-|
|-4-------------------||-------------------------------------|
|-2-2-2-2-2-2-2-2-2-2-||-------------------------------------|
|---------------------||-------------------------------------|
|
| Gtr I
|     PM------|   PM|        PM--------|     PM----------|
| E S S S S S S E S S    E S S  S  S S S   E S S  S  S S S
|---------------------||-------------------------------------|
|---------------------||-------------------------------------|
|---------------------||-------------------------------------|
|-4-------------------||-4-----------------------------------|
|-2-2-2-2-2-2-2-2-2-2-||-2-2-2--2--2-2-2---2-2-2--2--2-2-2---|
|---------------------||-------------------------------------|


  Q     +E.     T T Q     +E.     T T
|--------------------------------------|
|--------------------------------------|
|-4-----(4)h====5p4S2-----(2)s====4h5--|
|--------------------------------------|
|--------------------------------------|
|--------------------------------------|
|
|     PM--------|     PM----------|
| E S S  S  S S S   E S S  S  S S S
|--------------------------------------|
|--------------------------------------|
|--------------------------------------|
|-4------------------------------------|
|-2-2-2--2--2-2-2---2-2-2--2--2-2-2----|
|--------------------------------------|


 3/4
                            \1                    |
                            ~~~~~~~~~~~~~~~~~~~~~~~~~
  Q     +E.     T T Q       Q      +Q        +E  +E
|-------------------------|----------------------------|
|-------------------------|----------------------------|
|-4-----(4)h====5p4S2-----|-4------(4)-------(4)-(4)---|
|-------------------------|----------------------------|
|-------------------------|----------------------------|
|-------------------------|----------------------------|
|
|     PM--------|     PM|        PM--------|      PM-|
| E S S  S  S S S   E S S   E  S S  S  S S S  E   S  S
|-------------------------|----------------------------|
|-------------------------|----------------------------|
|-------------------------|----------------------------|
|-4-----------------------|-2--------------------------|
|-2-2-2--2--2-2-2---2-2-2-|-0--0-0--0--0-0-0--0---0--0-|
|-------------------------|----------------------------|


 4/4
  Q     +E.     T T Q     +E.     T T   Q     +E.     T T Q     +E.     T T
|-------------------------------------|----------------------------------------|
|-------------------------------------|----------------------------------------|
|-4-----(4)h====5p4S2-----(2)s====4h5-|-4-----(4)h====5p4S2-----(2)s====4h5----|
|-------------------------------------|----------------------------------------|
|-------------------------------------|----------------------------------------|
|-------------------------------------|----------------------------------------|
|
|     PM--------|     PM----------|         PM--------|     PM----------|
| E S S  S  S S S   E S S  S  S S S     E S S  S  S S S   E S S  S  S S S
|-------------------------------------|----------------------------------------|
|-------------------------------------|----------------------------------------|
|-------------------------------------|----------------------------------------|
|-4-----------------------------------|-4--------------------------------------|
|-2-2-2--2--2-2-2---2-2-2--2--2-2-2---|-2-2-2--2--2-2-2---2-2-2--2--2-2-2------|
|-------------------------------------|----------------------------------------|


 3/4
                            \1                    |
                            ~~~~~~~~~~~~~~~~~~~~~~~~~
  Q     +E.     T T Q       Q      +Q        +E  +E
|-------------------------|----------------------------|
|-------------------------|----------------------------|
|-4-----(4)h====5p4S2-----|-4------(4)-------(4)-(4)---|
|-------------------------|----------------------------|
|-------------------------|----------------------------|
|-------------------------|----------------------------|
|
|     PM--------|     PM|        PM--------|      PM-|
| E S S  S  S S S   E S S   E  S S  S  S S S  E   S  S
|-------------------------|----------------------------|
|-------------------------|----------------------------|
|-------------------------|----------------------------|
|-4-----------------------|-2--------------------------|
|-2-2-2--2--2-2-2---2-2-2-|-0--0-0--0--0-0-0--0---0--0-|
|-------------------------|----------------------------|


      To Coda
 4/4
  |-3-|
  Q Q Q Q  Q    E S S E E E E E E
|-------------|--------------------|
|-------------|--------------------|
|-4-3-4-5--4--|--------------------|
|-4-3-4-5--4--|-----------------5--|
|-2-1-2-3--2--|-----------------5--|
|-------------|-0-0-0-0-0-0-0-0-3--|
|
| |-3-|
| Q Q Q Q  Q    E S S E E E E E E
|-------------|--------------------|
|-------------|--------------------|
|-4-3-4-5--4--|--------------------|
|-4-3-4-5--4--|-----------------5--|
|-2-1-2-3--2--|-----------------5--|
|-------------|-0-0-0-0-0-0-0-0-3--|


  Gtrs I, II
  +H     +E  Q  E   +H     +E  Q  E   +H     +E  Q.     E S S E E E E E E
|-----------------|-----------------|-----------------|-------------------|
|-----------------|-----------------|-----------------|-------------------|
|-----------------|-----------------|-----------------|-------------------|
|-(5)----(5)-8--4-|-(4)----(4)-7--3-|-(3)----(3)-5----|-----------------5-|
|-(5)----(5)-8--4-|-(4)----(4)-7--3-|-(3)----(3)-5----|-----------------5-|
|-(3)----(3)-6--2-|-(2)----(2)-5--1-|-(1)----(1)-3----|-0-0-0-0-0-0-0-0-3-|


  +H     +E  Q  E   +H     +E  Q  E   +H     +E  Q.     E S S E E E E E E
|-----------------|-----------------|-----------------|-------------------|
|-----------------|-----------------|-----------------|-------------------|
|-----------------|-----------------|-----------------|-------------------|
|-(5)----(5)-8--4-|-(4)----(4)-7--3-|-(3)----(3)-5----|-----------------5-|
|-(5)----(5)-8--4-|-(4)----(4)-7--3-|-(3)----(3)-5----|-----------------5-|
|-(3)----(3)-6--2-|-(2)----(2)-5--1-|-(1)----(1)-3----|-0-0-0-0-0-0-0-0-3-|


  +H     +E  Q  E   +H     +E  Q  E   +H     +E  Q.     E S S E E E E E E
|-----------------|-----------------|-----------------|-------------------|
|-----------------|-----------------|-----------------|-------------------|
|-----------------|-----------------|-----------------|-------------------|
|-(5)----(5)-8--4-|-(4)----(4)-7--3-|-(3)----(3)-5----|-----------------5-|
|-(5)----(5)-8--4-|-(4)----(4)-7--3-|-(3)----(3)-5----|-----------------5-|
|-(3)----(3)-6--2-|-(2)----(2)-5--1-|-(1)----(1)-3----|-0-0-0-0-0-0-0-0-3-|


  +H     +E  Q  E   +H     +E  Q  E
|-----------------|-----------------|
|-----------------|-----------------|
|-----------------|-----------------|
|-(5)----(5)-8--4-|-(4)----(4)-7--3-|
|-(5)----(5)-8--4-|-(4)----(4)-7--3-|
|-(3)----(3)-6--2-|-(2)----(2)-5--1-|


                   7/8               2/4
                    PM------------|
  +H     +E  Q.     E S S E E E E E   E E Q
|-----------------|-----------------|----------||
|-----------------|-----------------|---------o||
|-----------------|-----------------|----------||
|-(3)----(3)-5----|-----------------|----------||
|-(3)----(3)-5----|-----------------|-2-------o||
|-(1)----(1)-3----|-0-0-0-0-0-0-0-0-|-0--------||


                     Bridge
 7/8                 4/4
  PM------------|        PM|     PM|
  E S S E E E E E     Q  E E E E E E
|-----------------||-----------------|
|-----------------||o----------------|
|-----------------||-----------------|
|-----------------||--2--------------|
|-----------------||o-2------5h7-----|
|-0-0-0-0-0-0-0-0-||--0--0-0-0---0-0-|


     PM|     PM|      PM|     PM|      PM|
  Q  E E E E E E   Q  E E E E E E   Q  E E E E Q   4x
|----------------|----------------|----------------||
|----------------|----------------|---------------o||
|----------------|----------------|----------------||
|----------------|-2--------------|----------------||
|-5------4h7-----|-2------5h7-----|-5------4h7-2--o||
|-0--0-0-0---0-0-|-0--0-0-0---0-0-|-0--0-0-0---0---||
                 |-Rhy Fig 2         end Rhy Fig 2-|

 Guitar Solo
w/Rhy Fig 2 x8
  Gtr II
   E      +E    +E       +E    Q        +E    E        +Q     S  S  E  E  E      +E    E
|---------------------------------------------------|---------------------------------12-|
|-15-----(15)--(15)-----(15)--15-------(15)--15-----|-(15)-------------------------------|
|-14b16==(16)r-(14)b16==(16)r-14b16====(16)r-14b16==|=(16)r--14-12----12-14b16==(16)r----|
|---------------------------------------------------|--------------14--------------------|
|---------------------------------------------------|------------------------------------|
|---------------------------------------------------|------------------------------------|



   S  S  S  S  S  E.    a  E  S  S  S  S  E
|----------------------12-------------12----|
|-15-12----12-15-12-------12-15-12-15----12-|
|-------14----------------------------------|
|-------------------------------------------|
|-------------------------------------------|
|-------------------------------------------|



   S      +S    E  S      +S    E  E      +E    S      +S    E
|--------------12--------------12---------------------------12---|
|-15b17==(17)r----15b17==(17)r----15b17==(17)r-15b17==(17)r------|
|----------------------------------------------------------------|
|----------------------------------------------------------------|
|----------------------------------------------------------------|
|----------------------------------------------------------------|




                ~~~~~~~~~~~~~~
   E      +E    Q        +Q      S      +S    S  S    S  S  E  E  E      +E    E  S  S  E
|-22b24==(24)r-22b24====(24)r---22b24==(24)r-22p19-|-22p19----19--------------19----------|
|--------------------------------------------------|-------22----22b24==(24)r----22p19-22-|
|--------------------------------------------------|--------------------------------------|
|--------------------------------------------------|--------------------------------------|
|--------------------------------------------------|--------------------------------------|
|--------------------------------------------------|--------------------------------------|




   S      +S    E  S  S  E  S      +S    E  S  S  E
|--------------19-----------------------19----------|
|-22b24==(24)r----22p19-22-22b24==(24)r----22p19-22-|
|---------------------------------------------------|
|---------------------------------------------------|
|---------------------------------------------------|
|---------------------------------------------------|



                                   ~~~~~~~~~~~~~~~~~~~
   S      +S    E  S      +S    E  Q        +E   +E
|--------------19--------------19-----------------------|
|-22b24==(24)r----22b24==(24)r----22b24====(24)-(24)r---|
|-------------------------------------------------------|
|-------------------------------------------------------|
|-------------------------------------------------------|
|-------------------------------------------------------|



   |--3--|  |---3---|  |---3---|  |---3---|    |--3--|  |---3---|  |---3---|  |---3---|
   E  E  E  E  E    E  E  E    E  E  E    E    E  E  E  E  E    E  E  E    E  E  E    E
|-19-20-22-20-19---17-19-17---15-17-15S==14-|-15-17-14-15-14---12-14-12S==10-12-10------|
|-------------------------------------------|----------------------------------------13-|
|-------------------------------------------|-------------------------------------------|
|-------------------------------------------|-------------------------------------------|
|-------------------------------------------|-------------------------------------------|
|-------------------------------------------|-------------------------------------------|



   |--3--|  |------3------|  |---3---|  |---3---|
   E  E  E  E  E    a  a  E  E  E    E  E  E    E
|----10-12-10--------------------------------------|
|-13----------13---12h13p12-12-10---12-10----------|
|-----------------------------------------12---11--|
|--------------------------------------------------|
|--------------------------------------------------|
|--------------------------------------------------|



         T        T     T        T        T           T
   |------6-------|  |-----6-----|  |-----6-----|  |---3---|
   S  S  S  S  S  S  E  S  S  S  S  S  S  S  S  E  E  S  S E
|------------------------------------------------------------|
|-15p12-17p15p12-17p15-17p12h15-17p12h15-17p12h15-15-17p12s5-|
|------------------------------------------------------------|
|------------------------------------------------------------|
|------------------------------------------------------------|
|------------------------------------------------------------|



                        |--3--|
  E     E E E E E E E   Q Q   Q   E +E  E E
|---------------------|---------------------|
|---------------------|---------------------|
|-9b11==9-9-9-9-9---9-|-9-9---9---9r(9)-7-9-|
|---------------------|---------------------|
|---------------------|---------------------|
|---------------------|---------------------|



  S    +S  E E E S S E E E   E E  E E Q   +Q
|--------------------------|-------------------|
|--------------------------|-------------------|
|-9b11r(9)p7---7-9p7-------|-------------------|
|------------9-------9-7---|-------------------|
|------------------------9-|-8-7----7-9---(9)--|
|--------------------------|-----10------------|



   S  S  E  E  E  E  E  E  E    E   E  E  E  Q.      E
|-18p15----------------------|--------------------------|
|-------16S13----------------|--------------------------|
|-------------12-------------|--------------15------15--|
|----------------13-12-------|-----13-15S17-------------|
|----------------------15-13-|-15-----------------------|
|----------------------------|--------------------------|
|
|  W                           +H           +E  Q.
|----------------------------|--------------------------|
|----------------------------|--------------------------|
|--5-------------------------|-(5)----------(5)-7-------|
|--5-------------------------|-(5)----------(5)-7-------|
|--3-------------------------|-(3)----------(3)-5-------|
|----------------------------|--------------------------|


   |--3--|  |--3--|  |--3--|  |--3--|    |--3---|  |--3--|  |--3--|  |--3--|
   E  E  E  E  E  E  E  E  E  E  E  E    E   E  E  E  E  E  E  E  E  E  E  E
|----------------------------13-13-13-|--------------------------------------|
|-13-13-13-15-15-15-16-16-16----------|--------------------13-13-13-15-16-17-|
|-------------------------------------|-12--12-12-14-14-14-------------------|
|-------------------------------------|--------------------------------------|
|-------------------------------------|--------------------------------------|
|-------------------------------------|--------------------------------------|
|
|  W                                    +W
|-------------------------------------|--------------------------------------|
|-------------------------------------|--------------------------------------|
|--5----------------------------------|-(5)----------------------------------|
|--5----------------------------------|-(5)----------------------------------|
|--3----------------------------------|-(3)----------------------------------|
|-------------------------------------|--------------------------------------|



   |--3--|  |---3---|  |---3---|  |---3---|
   E  E  E  E  E    E  E  E    E  E  E    E
|-17p12----17p12------17p12------17p12------|
|-------12---------12---------12---------12-|
|-------------------------------------------|
|-------------------------------------------|
|-------------------------------------------|
|-------------------------------------------|
|
|           PM---|                PM---|
|  Q        E    E     E    E     E    E
|-------------------------------------------|
|-------------------------------------------|
|-------------------------------------------|
|--2----------------------------------------|
|--2-------------------5h===7---------------|
|--0--------0----0-----0----------0----0----|


   |--3--|  |---3---|  |---3---|  |---3---|    |--3--|  |---3---|  |---3---|  |---3---|
   E  E  E  E  E    E  E  E    E  E  E    E    E  E  E  E  E    E  E  E    E  E  E    E
|-16p12----16p12------16p12------16p12------|-17p12----17p12------16p12------16p12------|
|-------12---------12---------12---------12-|-------12---------12---------12---------12-|
|-------------------------------------------|-------------------------------------------|
|-------------------------------------------|-------------------------------------------|
|-------------------------------------------|-------------------------------------------|
|-------------------------------------------|-------------------------------------------|
|
|           PM---|                PM---|                PM---|                PM---|
|  Q        E    E     E    E     E    E       Q        E    E     E    E     E    E
|-------------------------------------------|-------------------------------------------|
|-------------------------------------------|-------------------------------------------|
|-------------------------------------------|-------------------------------------------|
|-------------------------------------------|--2----------------------------------------|
|--5-------------------4h===7---------------|--2-------------------5h===7---------------|
|--0--------0----0-----0----------0----0----|--0--------0----0-----0----------0----0----|


                                                                     ~~~~~
   |--3--|  |---3---|  |---3---|  |--3--|                            |---3---|
   E  E  E  E  E    E  E  E    E  E  E  E    Q       +Q     Q       +E    E  E
|-17p12----17p12------16p12------16p12----|---------------------------------------|
|-------12---------12---------12-------12-|-15b17===(17)r--15b17===(17)r-12-------|
|-----------------------------------------|---------------------------------14----|
|-----------------------------------------|---------------------------------------|
|-----------------------------------------|---------------------------------------|
|-----------------------------------------|---------------------------------------|
|
|           PM---|
|  Q        E    E     E    E     Q          W
|-----------------------------------------|---------------------------------------|
|-----------------------------------------|---------------------------------------|
|-----------------------------------------|--5------------------------------------|
|-----------------------------------------|--5------------------------------------|
|--5-------------------4h===7-----2-------|--3------------------------------------|
|--0--------0----0-----0----------0-------|---------------------------------------|


               ~~~~~~~~~~~~
                               |--3--|
   E  E  S  S  E      +Q       E  E  E
|--------------------------------------|
|-12-15-12h15-15b17==(17)r----15-14----|
|-----------------------------------12-|
|--------------------------------------|
|--------------------------------------|
|--------------------------------------|
|
|  H                  +E   Q.
|--------------------------------------|
|--------------------------------------|
|--5------------------(5)--7-----------|
|--5------------------(5)--7-----------|
|--3------------------(3)--5-----------|
|--------------------------------------|


      ~~~~~~~~~~~                              ~~~~~~~~~~~~~~~~~~~
   |3-|            |--3---|
   Q  E      +Q    E   E  E  E  E    E   E  E  E      +Q    +Q
|----15b17==(17)--15r-12----------|--------------------------------|
|-12---------------------15-12----|--------------------------------|
|------------------------------14-|-12-----12-14b16==(16)--(16)r\--|
|---------------------------------|-----14-------------------------|
|---------------------------------|--------------------------------|
|---------------------------------|--------------------------------|
|
|  W                                +W
|---------------------------------|--------------------------------|
|---------------------------------|--------------------------------|
|--5------------------------------|-(5)----------------------------|
|--5------------------------------|-(5)----------------------------|
|--3------------------------------|-(3)----------------------------|
|---------------------------------|--------------------------------|

w/Rhy Fig 2 x2
  PM---------------------------------
  E E E E E E E E   E E E E E E E E
|-----------------|-----------------|
|-----------------|-----------------|
|-----------------|-----7-5-4-7-7-5-|
|-9-----5-4---7-5-|-9-7-------------|
|---7-7-----5-----|-----------------|
|-----------------|-----------------|



 ---------------|
  E E E E E E E  E   E  E  E  E  Q    +Q
|-------------7----|------------17---(17)\--|
|-------7-------10-|---17-15-14-------------|
|-9-7-7---9-7------|------------------------|
|------------------|------------------------|
|------------------|------------------------|
|------------------|------------------------|



    Q   E  E  E  Q    E    E  Q    E  E  E  E  E
|-----------------------|------------12----------|
|------------13---------|-15---------------------|
|-/12--12-12----12---12-|----12---12----12-12-12-|
|-----------------------|------------------------|
|-----------------------|------------------------|
|-----------------------|------------------------|
|
|   Q   E  E  E  E E  E    E  E E  E  E  E  E  E
|-----------------------|------------------------|
|-----------------------|------------------------|
|-----------------------|------------------------|
|-----------------------|------------------------|
|------------10p=7------|-10p=7------10p=7-------|
|--/8---8--8-------8--8-|-------8--8--------8--8-|


   Q   E  E  E  Q    E    E  Q    E  Q        +E   +E
|----------------------|------------15b17====(17)r(15)-|
|-----------13---------|-15----------------------------|
|-12--12-12----12---12-|----12---12--------------------|
|----------------------|-------------------------------|
|----------------------|-------------------------------|
|----------------------|-------------------------------|
|
|  Q   E  E  E  E E  E    E  E E  E  E     E   E    E
|----------------------|-------------------------------|
|----------------------|-------------------------------|
|----------------------|-------------------------------|
|----------------------|-------------------------------|
|--7--------10p=7------|-10p=7------10p====7-----------|
|--8---8--8-------8--8-|-------8--8------------8----8--|


w/Rhy Fig 2 x2
   |--3--|  |---3---|  |---3---|  |---3---|    |--3--|  |---3---|  |---3---|     |---3---|
   E  E  E  E  E    E  E  E    E  E  E    E    E  E  E  E  E    E  E  E    E  a  E  E    E
|-15-12----12-------------------------------|-------------------------------------------12-|
|-------15----15---12-15-12------12------12-|-15-12----------------------------------------|
|-----------------------------14----14------|-------14-12------12-14-12---14-12h14p12------|
|-------------------------------------------|-------------14-------------------------------|
|-------------------------------------------|----------------------------------------------|
|-------------------------------------------|----------------------------------------------|



                                                                 ~~~
   |--3--|  |---3---|  |---3---|  |---3---|    |-----3------|
   E  E  E  E  E    E  E  E    E  E  E    E    Q      Q     Q    H
|-15p12-------------------------------------|----------------------------|
|-------15-12------12-15-12-----------------|----------------------------|
|-------------14--------------14-12------12-|-14b16==16r---12------------|
|-----------------------------------14------|-------------------14-------|
|-------------------------------------------|----------------------------|
|-------------------------------------------|----------------------------|



    Q   E  E  E  Q    E    E  Q    E  E  E  E  E
|-----------------------|------------12----------|
|------------13---------|-15---------------------|
|-/12--12-12----12---12-|----12---12----12-12-12-|
|-----------------------|------------------------|
|-----------------------|------------------------|
|-----------------------|------------------------|
|
|   Q   E  E  E  E E  E    E  E E  E  E  E  E  E
|-----------------------|------------------------|
|-----------------------|------------------------|
|-----------------------|------------------------|
|-----------------------|------------------------|
|------------10p=7------|-10p=7------10p=7-------|
|--/8---8--8-------8--8-|-------8--8--------8--8-|


   Q   E  E  E  Q    E    E  Q    E  Q        +E   +E
|----------------------|------------15b17====(17)r(15)-|
|-----------13---------|-15----------------------------|
|-12--12-12----12---12-|----12---12--------------------|
|----------------------|-------------------------------|
|----------------------|-------------------------------|
|----------------------|-------------------------------|
|
|  Q   E  E  E  E E  E    E  E E  E  E     E   E    E
|----------------------|-------------------------------|
|----------------------|-------------------------------|
|----------------------|-------------------------------|
|----------------------|-------------------------------|
|--7--------10p=7------|-10p=7------10p====7-----------|
|--8---8--8-------8--8-|-------8--8------------8----8--|


w/Rhy Fig 2 x4
   |--3--|  |---3---|  |---3---|  |---3---|    |--3--|  |---3---|  |---3---|  |---3---|
   E  E  E  E  E    E  E  E    E  E  E    E    E  E  E  E  E    E  E  E    E  E  E    E
|-15-12----12----------------------------14-|-17-15-14-15-14------14--------------------|
|-------15----15---12-15-12------12---------|------------------17----17---15-17-15---14-|
|-----------------------------14----14------|-------------------------------------------|
|-------------------------------------------|-------------------------------------------|
|-------------------------------------------|-------------------------------------------|
|-------------------------------------------|-------------------------------------------|



   |--3--|  |---3---|  |---3---|  |---3---|    |--3--|  |---3---|
   E  E  E  E  E    E  E  E    E  E  E    E    E  E  E  E  E    E  E      +E    E      +E
|-19-17-15------------21-19---17------------|-22-21-19------------22b24==(24)r-22b24==(24)r-|
|----------19-17---16------------21-19---17-|----------22-21---19---------------------------|
|-------------------------------------------|-----------------------------------------------|
|-------------------------------------------|-----------------------------------------------|
|-------------------------------------------|-----------------------------------------------|
|-------------------------------------------|-----------------------------------------------|



  Gtr III
   ~~~~~~~~~~~~~~~~~
   E      +S   +S   Q   H
|-22b24==(24)-(24)r-------------|
|-------------------------------|
|-------------------------------|
|-------------------------------|
|-------------------------------|
|-------------------------------|



  W                W                W
|----------------|----------------|---------------|
|----------------|----------------|---------------|
|----------------|----------------|---------------|
|----------------|----------------|---------------|
|----------------|----------------|---------------|
|----------------|----------------|---------------|



    Gtrs I, II
    Rhy Fig 2 x3


 7/8               4/4
  PM------------|                            PM------------|
  E S S E E E E E   E E Q  H      W          E E E E E E E E
|-----------------|-------------|----------|------------------|
|-----------------|-------------|----------|------------------|
|-----------------|-------------|----------|------------------|
|-----------------|-------------|----------|------------------|
|-----------------|-------------|----------|------------------|
|-0-0-0-0-0-0-0-0-|-0-----------|----------|-3-3-3-3-3-3-3-3--|


  PM------------|         PM------|   PM--------|
  E E E E E E E E     E S S S S S S E S S S S S S
|-----------------||------------------------------|
|-----------------||o-----------------------------|
|-----------------||------------------------------|
|-----------------||--6---------------------------|
|-----------------||o-4-4-4-4-4-4-4-4-4-4-4-4-4-4-|
|-3-3-3-3-3-3-3-3-||------------------------------|


    PM--------|   PM--------|
  E S S S S S S E S S S S S S  3x E E E E E E E E
|------------------------------||-----------------|
|-----------------------------o||-----------------|
|------------------------------||-----------------|
|-6----------------------------||---5p4---4p2-----|
|-4-4-4-4-4-4-4-4-4-4-4-4-4-4-o||-0-----0-----5-4-|
|------------------------------||-----------------|


   D.S. al Coda
               &
  |-3-| |-3-|     |-3-|
  Q Q Q Q Q Q     Q Q Q Q  Q    E S S E E E E E E
|--------------||-------------|-------------------|
|--------------||-------------|-------------------|
|-------7-6-4--||-6-5-6-7--8--|-------------------|
|-5-4-2-7-6-4--||-6-5-6-7--8--|-----------------5-|
|-5-4-2-5-4-2--||-4-3-4-5--6--|-----------------5-|
|-3-2-0--------||-------------|-0-0-0-0-0-0-0-0-3-|


  +H     +E  Q  E   +H     +E  Q  E
|-----------------|------------------|
|-----------------|------------------|
|-----------------|------------------|
|-(5)----(5)-8--4-|-(4)----(4)-7--3--|
|-(5)----(5)-8--4-|-(4)----(4)-7--3--|
|-(3)----(3)-6--2-|-(2)----(2)-5--1--|


  +H     +E  Q.     E S S E E E E E E   +H     +E  Q  E   +H     +E  Q  E
|-----------------|-------------------|-----------------|-----------------|
|-----------------|-------------------|-----------------|-----------------|
|-----------------|-------------------|-----------------|-----------------|
|-(3)----(3)-5----|-----------------5-|-(5)----(5)-8--4-|-(4)----(4)-7--3-|
|-(3)----(3)-5----|-----------------5-|-(5)----(5)-8--4-|-(4)----(4)-7--3-|
|-(1)----(1)-3----|-0-0-0-0-0-0-0-0-3-|-(3)----(3)-6--2-|-(2)----(2)-5--1-|
|-Rhy Fig 3                                                 end Rhy Fig 3-|


Rhy Fig 3 x2


w/Rhy Fig 3 x4
  Gtr III
   H      Q     E E   +H          +E   Q   E
|-------------------|------------------------|
|-----------------8-|-(8)---------(8)S11S==7-|
|-------------------|------------------------|
|-------------------|------------------------|
|-------------------|------------------------|
|-------------------|------------------------|



  +H     +E   Q  E   +H     +E  Q.
|------------------|------------------|
|-(7)----(7)S10S=6-|-(6)----(6)S8-----|
|------------------|------------------|
|------------------|------------------|
|------------------|------------------|
|------------------|------------------|



   H     +Q.     E   +H          +E   Q   E
|------------------|------------------------|
|--5-----(5)-----8-|-(8)---------(8)S11S==7-|
|------------------|------------------------|
|------------------|------------------------|
|------------------|------------------------|
|------------------|------------------------|



  +H     +E   Q  E   +H     +E  Q.
|------------------|------------------|
|-(7)----(7)S10S=6-|-(6)----(6)S8-----|
|------------------|------------------|
|------------------|------------------|
|------------------|------------------|
|------------------|------------------|



   H     +Q.     E   +H          +E   Q   E
|----------------6-|-(6)---------(6)S=9S==5-|
|--5-----(5)-----8-|-(8)---------(8)S11S==7-|
|------------------|------------------------|
|------------------|------------------------|
|------------------|------------------------|
|------------------|------------------------|



  +H     +E   Q  E   +H     +E  Q.
|-(5)----(5)S=8S=4-|-(4)----(4)-6-----|
|-(7)----(7)S10S=6-|-(6)----(6)S8-----|
|------------------|------------------|
|------------------|------------------|
|------------------|------------------|
|------------------|------------------|



   H     +Q.     E   +H          +E   Q   E
|--3-----(3)-----6-|-(6)---------(6)S=9S==5-|
|--5-----(5)-----8-|-(8)---------(8)S11S==7-|
|------------------|------------------------|
|------------------|------------------------|
|------------------|------------------------|
|------------------|------------------------|



  +H     +E   Q  E   +H     +E  Q.
|-(5)----(5)S=8S=4-|-(4)----(4)-6-----|
|-(7)----(7)S10S=6-|-(6)----(6)S8-----|
|------------------|------------------|
|------------------|------------------|
|------------------|------------------|
|------------------|------------------|



 7/8                 4/4
  Gtrs I, II
                          PM------|   PM--------|
  E S S E E E E E     E S S S S S S E S S S S S S
|-----------------||------------------------------|
|-----------------||o-----------------------------|
|-----------------||------------------------------|
|-----------------||--6---------------------------|
|-----------------||o-4-4-4-4-4-4-4-4-4-4-4-4-4-4-|
|-0-0-0-0-0-0-0-0-||------------------------------|


    PM--------|   PM--------|     PM--------|   PM--------|
  E S S S S S S E S S S S S S   E S S S S S S E S S S S S S
|-----------------------------|-------------------------------|
|-----------------------------|-------------------------------|
|-----------------------------|-------------------------------|
|-6---------------------------|-6-----------------------------|
|-4-4-4-4-4-4-4-4-4-4-4-4-4-4-|-4-4-4-4-4-4-4-4-4-4-4-4-4-4---|
|-----------------------------|-------------------------------|


  1.                 2.
  PM          PM------|           PM|       PM------|   PM--------|
  E E E E E E E E     E E E E E E E E   E S S S S S S E S S S S S S
|------------------||-----------------|-----------------------------|
|-----------------o||-----------------|-----------------------------|
|------------------||-----------------|-----------------------------|
|---5p4---4p2------||---5p4---4p2-----|-7---------------------------|
|-0-----0-----5-4-o||-0-----0-----5-4-|-5-5-5-5-5-5-5-5-5-5-5-5-5-5-|
|------------------||-----------------|-----------------------------|


    PM--------|   PM--------|     PM--------|   PM--------|
  E S S S S S S E S S S S S S   E S S S S S S E S S S S S S
|-----------------------------|-------------------------------|
|-----------------------------|-------------------------------|
|-----------------------------|-------------------------------|
|-7---------------------------|-7-----------------------------|
|-5-5-5-5-5-5-5-5-5-5-5-5-5-5-|-5-5-5-5-5-5-5-5-5-5-5-5-5-5---|
|-----------------------------|-------------------------------|


  PM          PM|       PM------|   PM--------|
  E E E E E E E E   E S S S S S S E S S S S S S
|-----------------|-----------------------------|
|-----------------|-----------------------------|
|-----------------|-----------------------------|
|---5p4---4p2-----|-6---------------------------|
|-0-----0-----5-4-|-4-4-4-4-4-4-4-4-4-4-4-4-4-4-|
|-----------------|-----------------------------|


    PM--------|   PM--------|     PM--------|   PM--------|
  E S S S S S S E S S S S S S   E S S S S S S E S S S S S S
|-----------------------------|------------------------------|
|-----------------------------|------------------------------|
|-----------------------------|------------------------------|
|-6---------------------------|-6----------------------------|
|-4-4-4-4-4-4-4-4-4-4-4-4-4-4-|-4-4-4-4-4-4-4-4-4-4-4-4-4-4--|
|-----------------------------|------------------------------|


  PM          PM|
                    |-3-| |-3-|
  E E E E E E E E   Q Q Q Q Q Q   H    H      H    H
|-----------------|-------------|-----------|-----------|
|-----------------|-------------|-----------|-----------|
|-----------------|-------7-6-4-|-6----6----|-6----6----|
|---5p4---4p2-----|-5-4-2-7-6-4-|-6----6----|-6----6----|
|-0-----0-----5-4-|-5-4-2-5-4-2-|-4----4----|-4----4----|
|-----------------|-3-2-0-------|-----------|-----------|


                              PM------|   PM--------|
  W          +W           E S S S S S S E S S S S S S
|----------|------------|-----------------------------|
|----------|------------|-----------------------------|
|-6--------|-(6)--------|-----------------------------|
|-6--------|-(6)--------|-6---------------------------|
|-4--------|-(4)--------|-4-4-4-4-4-4-4-4-4-4-4-4-4-4-|
|----------|------------|-----------------------------|


    PM--------|   PM--------|     PM--------|   PM--------|
  E S S S S S S E S S S S S S   E S S S S S S E S S S S S S
|-----------------------------|-------------------------------|
|-----------------------------|-------------------------------|
|-----------------------------|-------------------------------|
|-6---------------------------|-6-----------------------------|
|-4-4-4-4-4-4-4-4-4-4-4-4-4-4-|-4-4-4-4-4-4-4-4-4-4-4-4-4-4---|
|-----------------------------|-------------------------------|


  PM          PM|
                    |-3-| |-3-|
  E E E E E E E E   Q Q Q Q Q Q   H    +Q    Q
|-----------------|-------------|---------------*|
|-----------------|-------------|---------------*|
|---4p2p0-4p0-----|-------7-6-4-|-6----(6)\-----*|
|---5p4---4p2-4-2-|-5-4-2-7-6-4-|-6----(6)\-----*|
|-0-----0-----5-4-|-5-4-2-5-4-2-|-4----(4)\-----*|
|-----------------|-3-2-0-------|---------------*|

6.Leper Messiah

Gtr I (E A D G B E) - 'James Hetfield'
Gtr II (E A D G B E) - 'Kirk Hammett'

Intro
  Moderate Rock Q=136
 4/4
          Gtrs I, II
          PM|      PM|                           PM|                 PM|
  H.      E E   Q  E E Q  Q    +H.      E E   Q  E E H      +H.      E E
|-------------|--------------|--------------|-------------|---------------|
|-------------|--------------|--------------|-------------|---------------|
|-------------|-----------2--|-(2)----------|-------------|---------------|
|-------------|-5------5--2--|-(2)----------|-5------5----|-(5)-----------|
|---------2-2-|-5--2-2-5--0--|-(0)------2-2-|-5--2-2-5----|-(5)------2-2--|
|---------0-0-|-3--0-0-3-----|----------0-0-|-3--0-0-3----|-(3)------0-0--|


                                               3/4
     PM|                           PM|    PM|
                                                        |-3-|
  Q  E E Q  Q    +H.      E E   Q  E E Q  E E   E E E E E E E
|--------------|--------------|---------------|---------------||
|--------------|--------------|---------------|---------------||
|--------------|--------------|--------2------|---------------||
|-5------5--3--|-(3)----------|-5------2------|---------------||
|-5--2-2-5--3--|-(3)------2-2-|-5--2-2-0--2-2-|-----2---------||
|-3--0-0-3--1--|-(1)------0-0-|-3--0-0----0-0-|-5-3---5-3-2-1-||


   4/4
           PM|      PM                  PM----|      PM
    Q  E E E E Q    E E E E E E Q    Q  E E E E Q    E E E E E E E E
||----------------|----------------|---------------|-------------------||
||o---------------|----------------|---------------|------------------o||
||----------------|----------------|---------------|-------------------||
||--2--4---4---4--|-----4---4-5-4--|-2----------4--|-----4---4-5-4-4---||
||o-2--4---4-3-4--|-----4---4-5-4--|-2--------3-4--|-----4---4-5-4-4--o||
||--0--2---2---2--|-2---2---2-3-2--|-0--0-0-2---2--|-2---2---2-3-2-2---||


  W          +W           +W
|----------|------------|------------|
|----------|------------|------------|
|----------|------------|------------|
|-2--------|-(2)--------|-(2)--------|
|-2--------|-(2)--------|-(2)--------|
|-0--------|-(0)--------|-(0)--------|


                    PM|    PM|      PM|
  +W           +Q   E E Q  E E   Q  E E H
|------------|-----------------|-------------|
|------------|-----------------|-------------|
|------------|-----------------|-------------|
|-(2)--------|-(2)-------------|-------------|
|-(2)--------|-(2)--2-2----2-2-|----2-2------|
|-(0)--------|-(0)--0-0----0-0-|----0-0------|


                                                   5/4
       PM|    PM|      PM|             PM|    PM|          PM|
    Q  E E Q  E E   Q  E E H        Q  E E Q  E E   E E Q  E E Q  E E
||----------------|--------------||---------------|---------------------|
||o---------------|-------------o||---------------|---------------------|
||----------------|--------------||---------------|------------2--5-----|
||----------------|--------------||---------------|-3-2-5------2--5-----|
||o----2-2----2-2-|----2-2------o||----2-2----2-2-|-3-2-5--3-2-0--3-----|
||-----0-0----0-0-|----0-0-------||----0-0----0-0-|-1-0-3--1-0----------|


 4/4
       PM|      PM|        PM--|
  Q    Q   Q    Q     Q    Q     Q    Q
|-------------------|----------------------|
|-------------------|----------------------|
|-------------------|----------------------|
|-2--------2--------|-2----------2----3-5--|
|-3p2------3p2------|-3p2--------3p2--3-5--|
|------0-0------0-0-|------0-0-0------1-3--|
  S E. E E S E. E E   S E. E S S S E. S E.


       PM|      PM------|    PM|
  Q    Q   Q    Q     E E Q  E E Q
|-------------------|----------------||
|-------------------|----------------||
|-------------------|------------2---||
|-2--------2--------|-----5------2---||
|-3p2------3p2------|-----5------0---||
|------0-0------0-0-|-1-0-3--1-0-----||
  S E. E E S E. E E


   1st,2nd Verses
         PM|      PM|        PM--|
    Q    Q   Q    Q     Q    Q     Q    Q
||--------------------|----------------------|
||o-------------------|----------------------|
||--------------------|----------------------|
||--2--------2--------|-2----------2----3-5--|
||o-3p2------3p2------|-3p2--------3p2--3-5--|
||-------0-0------0-0-|------0-0-0------1-3--|
    S E. E E S E. E E   S E. E S S S E. S E.
 |-Rhy Fig 1

         PM       PM         PM
  S E. E E S E. E E   S E. E E S E. S E.
|-------------------|--------------------|
|-------------------|--------------------|
|-------------------|--------------------|
|-------------------|--------------------|
|-5s4------5s4------|-5s4------5s4--4s5--|
|-3s2--2-2-3s2--2-2-|-3s2--2-2-3s2--2s3--|
                           end Rhy Fig 1-|

Rhy Fig 1 x3


  H    H      H    H      H    H      H    H
|-----------|-----------|-----------|-----------||
|-----------|-----------|-----------|-----------||
|------8----|-7----6----|------8----|-7----6----||
|-9----8----|-7----6----|-9----8----|-7----6----||
|-7----6----|-5----4----|-7----6----|-5----4----||
|-0---------|-----------|-0---------|-----------||


 Chorus
     PM|      PM|        PM|      PM|      PM|      PM|        PM|      PM|
  Q  E E S E. E E   S E. E E S E. E E   Q  E E S E. E E   S E. E E S E. E E
|-----------------|-------------------|-----------------|-------------------|
|-----------------|-------------------|-----------------|-------------------|
|-----------------|-------------------|-----------------|-------------------|
|-9------9s8------|-8-7------7-6------|-9------9s8------|-8S7------7-6------|
|-7------7s6------|-6-5------5-4------|-7------7s6------|-6S5------5-4------|
|-7--0-0-7s6--0-0-|-6-5--0-0-5-4--0-0-|-7--0-0-7s6--0-0-|-6S5--0-0-5-4--0-0-|


     PM--|      PM--|        PM--|      PM--|
  Q  E S S S E. E S S   S E. E S S S E. E S S
|---------------------|-----------------------|
|---------------------|-----------------------|
|-9--------9s8--------|-8-7--------7-6--------|
|-9--------9s8--------|-8-7--------7-6--------|
|-7--------7s6--------|-6-5--------5-4--------|
|-7--0-0-0-7s6--0-0-0-|-6-5--0-0-0-5-4--0-0-0-|


     PM  PM|      PM  PM|        PM----|      PM----|
  Q  S S S S S E. S S S S   S E. S S S S S E. S S S S
|-------------------------|---------------------------|
|-------------------------|---------------------------|
|-------------------------|---------------------------|
|-9----------9s8----------|-8s7----------7-6----------|
|-7----------7s6----------|-6s5----------5-4----------|
|-7--0-0-0-0-7s6--0-0-0-0-|-6s5--0-0-0-0-5-4--0-0-0-0-|


       PM----|      PM----|        PM----|      PM----|
  S E. S S S S S E. S S S S   S E. S S S S S E. S S S S
|---------------------------|---------------------------|
|---------------------------|---------------------------|
|---------------------------|---------------------------|
|---------------------------|---------------------------|
|-6-5----------6s5----------|-6-5----------6s5----------|
|-4-3--3-3-3-3-4s3--3-3-3-3-|-4-3--3-3-3-3-4s3--3-3-3-3-|


         PM|      PM
  Q  E E E E Q    E E E E E E Q
|---------------|-----------------|
|---------------|-----------------|
|---------------|-----------------|
|-2--4---4---4--|-----4---4-5-4---|
|-2--4---4-3-4--|-----4---4-5-4---|
|-0--2---2---2--|-2---2---2-3-2---|


                                                   5/4
     PM----|      PM                       PM|      PM             PM|
  Q  E E E E Q    E E E E E E E E   Q  E E E E Q    E E E E E E Q  E E
|---------------|-----------------|---------------|--------------------|
|---------------|-----------------|---------------|--------------------|
|---------------|-----------------|---------------|--------------------|
|-2----------4--|-----4---4-5-4-4-|-2--4---4---4--|-----4---4-5-4------|
|-2--------3-4--|-----4---4-5-4-4-|-2--4---4-3-4--|-----4---4-5-4--2-2-|
|-0--0-0-2---2--|-2---2---2-3-2-2-|-0--2---2---2--|-2---2---2-3-2--0-0-|


 4/4             3/4               4/4
     PM|    PM----------------|
                          |-3-|             |-3-|      |-3-|    |-3-|
  Q  E E Q  E E   E E E E E E E     H.      E E E   Q  E E E Q  E E E
|---------------|----------------||---------------|-------------------||
|---------------|---------------o||---------------|-------------------||
|--------2------|----------------||---------------|-------------------||
|-5------2------|----------------||-2-------------|-2--------2--------||
|-5--2-2-0--2-2-|-----2---------o||-2-------------|-2--------2--------||
|-3--0-0----0-0-|-5-3---5-3-2-1--||-0-------3-2-1-|-0--3-2-1-0--3-2-1-||


 Interlude
  Faster Q=184
  Gtr II
  PM----| ~       PM-----| ~      PM----| ~      PM------------|
  E E E E H       E  E E E H      E E E E H      E E E E E E E E
|--------------|----------------|--------------|-----------------|
|--------------|----------------|--------------|-----------------|
|---4-0--------|-----4-0--------|---4-0--------|-----4---5---4-5-|
|-2-----4-2----|--2------4-2----|-2-----4-3----|-7-5---7---7-----|
|--------------|----------------|--------------|-----------------|
|--------------|----------------|--------------|-----------------|
|
| Gtr I
| W              +W               W              H       H
|--------------|----------------|--------------|-----------------|
|--------------|----------------|--------------|-----------------|
|--------------|----------------|--------------|-----------------|
|--------------|----------------|--------------|---------2-------|
|-2------------|-(2)------------|-3------------|-5-------0-------|
|-0------------|-(0)------------|-1------------|-3---------------|


  Gtr II
  PM----| ~       PM-----| ~      PM----| ~      PM------------|
  E E E E H       E  E E E H      E E E E H      E E E E E E E E
|--------------|----------------|--------------|-----------------|
|--------------|----------------|--------------|-----------------|
|---4-0--------|-----4-0--------|---4-4-3-2----|-----4---5---4-5-|
|-2-----4-2----|--2------4-2----|-2------------|-7-5---7---7-----|
|--------------|----------------|--------------|-----------------|
|--------------|----------------|--------------|-----------------|
|
| Gtr I
| W              +W               W              H       H
|--------------|----------------|--------------|-----------------|
|--------------|----------------|--------------|-----------------|
|--------------|----------------|--------------|---------4-------|
|--------------|----------------|-7------------|-2-------4-------|
|-2------------|-(2)------------|-5------------|-0-------2-------|
|-0------------|-(0)------------|--------------|-----------------|


  Gtr II
  PM----| ~      PM----| ~      PM----| ~      PM------------|
  E E E E H      E E E E H      E E E E H      E E E E E E E E
|--------------|--------------|--------------|-----------------|
|--------------|--------------|--------------|-----------------|
|---4-0--------|---4-0--------|---4-0--------|-----4---5---4-5-|
|-2-----4-2----|-2-----4-2----|-2-----4-3----|-7-5---7---7-----|
|--------------|--------------|--------------|-----------------|
|--------------|--------------|--------------|-----------------|
|
| Gtr I
| W              E E Q   H      W              H       H
|--------------|--------------|--------------|-----------------|
|--------------|--------------|--------------|-----------------|
|--------------|--------------|--------------|-----------------|
|--------------|--------------|--------------|---------2-------|
|-2------------|-2-2----------|-3------------|-5-------0-------|
|-0------------|-0-0----------|-1------------|-3---------------|


  Gtr II
  PM----| ~      PM----| ~      PM----| ~
  E E E E H      E E E E H      E E E E H      S E. E S T T Q  Q
|--------------|--------------|--------------|----------------------|
|--------------|--------------|--------------|----------------------|
|---4-0--------|---4-0--------|---4-4-3-2----|----------------------|
|-2-----4-2----|-2-----4-2----|-2------------|-2-2--2---4-4-4--4----|
|--------------|--------------|--------------|-0-0--0---2-2-2--2----|
|--------------|--------------|--------------|----------------------|
|
| Gtr I
| W              E E Q   H      W              S E. E S T T Q  Q
|--------------|--------------|--------------|----------------------|
|--------------|--------------|--------------|----------------------|
|--------------|--------------|--------------|----------------------|
|--------------|--------------|-7------------|-2-2--2---4-4-4--4----|
|-2------------|-2-2----------|-5------------|-0-0--0---2-2-2--2----|
|-0------------|-0-0----------|--------------|----------------------|


   Bridge
    Gtrs I, II
    PM----|    PM----|      PM----|    PM----|
    S S S S Q  S S S S Q    S S S S Q  S S S S Q
||------------------------|-----------------------|
||o-----------------------|-----------------------|
||------------------------|-----------------------|
||----------2----------2--|---------2----------2--|
||o---------2----------2--|---------2----------2--|
||--0-0-0-0-0--0-0-0-0-0--|-0-0-0-0-0--0-0-0-0-0--|


  PM----|    PM----|      PM----|    PM----|
  S S S S Q  S S S S Q    S S S S Q  S S S S Q
|-----------------------|-------------------------|
|-----------------------|-------------------------|
|-----------------------|-------------------------|
|---------3----------3--|---------5----------7----|
|---------3----------3--|---------5----------7----|
|-1-1-1-1-1--1-1-1-1-1--|-3-3-3-3-3--5-5-5-5-5----|


  PM----|    PM----|      PM----|    PM----|
  S S S S Q  S S S S Q    S S S S Q  S S S S Q
|-----------------------|-----------------------|
|-----------------------|-----------------------|
|-----------------------|-----------------------|
|---------2----------2--|---------2----------2--|
|---------2----------2--|---------2----------2--|
|-0-0-0-0-0--0-0-0-0-0--|-0-0-0-0-0--0-0-0-0-0--|


  PM----|    PM----|
  S S S S Q  S S S S Q    S E. E S T T Q  Q
|-----------------------|----------------------||
|-----------------------|---------------------o||
|---------7----------7--|----------------------||
|---------7----------7--|-2-2--2---4-4-4--4----||
|-5-5-5-5-5--5-5-5-5-5--|-0-0--0---2-2-2--2---o||
|-----------------------|----------------------||


 Guitar Solo
  Gtr II
   |--3--|  |--3--|  |--3--|  |--3--|    |--3--|  |--3--|  |--3--|  |--3--|
   E  E  E  E  E  E  E  E  E  E  E  E    E  E  E  E  E  E  E  E  E  E  E  E
|-19p15----------15-19p15----------15-|-19p15----------15-19p15----------15-|
|-------17----17----------17----17----|-------17----17----------17----17----|
|----------16----------------16-------|----------16----------------16-------|
|-------------------------------------|-------------------------------------|
|-------------------------------------|-------------------------------------|
|-------------------------------------|-------------------------------------|
|
| Gtr I
|  PM------------------------------------------------------------------------
|  |--3--|  |--3--|  |--3--|  |--3--|    |--3--|  |--3--|  |--3--|  |--3--|
|  Q     E  Q     E  Q     E  Q     E    Q     E  Q     E  Q     E  Q     E
|-------------------------------------|-------------------------------------|
|-------------------------------------|-------------------------------------|
|-------------------------------------|-------------------------------------|
|-------------------------------------|-------------------------------------|
|--2-----2--2-----2--2-----2--2-----2-|--2-----2--2-----2--2-----2--2-----2-|
|--0-----0--0-----0--0-----0--0-----0-|--0-----0--0-----0--0-----0--0-----0-|
|-Rhy Fig 2

   |--3--|  |--3--|  |--3--|  |--3--|    |--3--|  |--3--|  |--3--|  |--3--|
   E  E  E  E  E  E  E  E  E  E  E  E    E  E  E  E  E  E  E  E  E  E  E  E
|-20p17----------17-20p17----------17-|-22p19----------19-22p19----------19----|
|-------18----15----------18----18----|-------20----20----------20----20-------|
|----------17----------------17-------|----------19----------------19----------|
|-------------------------------------|----------------------------------------|
|-------------------------------------|----------------------------------------|
|-------------------------------------|----------------------------------------|
|
|------------------------------------------------------------------------|
|  |--3--|  |--3--|  |--3--|  |--3--|    |--3--|  |--3--|  |--3--|  |--3--|
|  Q     E  Q     E  Q     E  Q     E    Q     E  Q     E  Q     E  Q     E
|-------------------------------------|----------------------------------------|
|-------------------------------------|----------------------------------------|
|-------------------------------------|----------------------------------------|
|-------------------------------------|--------------------2-----2--2-----2----|
|--3-----3--3-----3--3-----3--3-----3-|--5-----5--5-----5--0-----0--0-----0----|
|--1-----1--1-----1--1-----1--1-----1-|--3-----3--3-----3----------------------|


   |--3--|  |--3--|  |--3--|  |--3--|    |--3--|  |--3--|  |--3--|  |--3--|
   E  E  E  E  E  E  E  E  E  E  E  E    E  E  E  E  E  E  E  E  E  E  E  E
|-19p15----------15-19p15----------15-|-19p15----------15-19p15----------15-|
|-------17----17----------17----17----|-------17----17----------17----17----|
|----------16----------------16-------|----------16----------------16-------|
|-------------------------------------|-------------------------------------|
|-------------------------------------|-------------------------------------|
|-------------------------------------|-------------------------------------|
|
|  PM------------------------------------------------------------------------
|  |--3--|  |--3--|  |--3--|  |--3--|    |--3--|  |--3--|  |--3--|  |--3--|
|  Q     E  Q     E  Q     E  Q     E    Q     E  Q     E  Q     E  Q     E
|-------------------------------------|-------------------------------------|
|-------------------------------------|-------------------------------------|
|-------------------------------------|-------------------------------------|
|-------------------------------------|-------------------------------------|
|--2-----2--2-----2--2-----2--2-----2-|--2-----2--2-----2--2-----2--2-----2-|
|--0-----0--0-----0--0-----0--0-----0-|--0-----0--0-----0--0-----0--0-----0-|


   S  S  S    S  S  S  S    S  S  S  S    S  S  S  S    S
|-22-20-19---17-21-19-17------19-16---------17------------|
|--------------------------20-------20---19----20-19---17-|
|---------------------------------------------------------|
|---------------------------------------------------------|
|---------------------------------------------------------|
|---------------------------------------------------------|
|
|----------------------------------------------------|
|  |---3---|     |---3---|     |---3---|     |---3---|
|  Q       E     Q       E     Q       E     Q       E
|---------------------------------------------------------|
|---------------------------------------------------------|
|---------------------------------------------------------|
|--7-------7-----7-------7-----7-------7-----7-------7----|
|--5-------5-----5-------5-----5-------5-----5-------5----|
|---------------------------------------------------------|


   S  S   S  S  S  S  S  S    S  E.  +S   S  S  S
|---------------------------------------------------|
|-20-19--17----19-17-15-14---17p15--(15)-13-12-15---|
|-----------19--------------------------------------|
|---------------------------------------------------|
|---------------------------------------------------|
|---------------------------------------------------|
|
|
|  S  E.        E     S  T T  Q       Q
|---------------------------------------------------|
|---------------------------------------------------|
|---------------------------------------------------|
|--2--2---------2--------4-4--4-------4-------------|
|--0--0---------0--------2-2--2-------2-------------|
|---------------------------------------------------|
                                      end Rhy Fig 2-|

w/Rhy Fig 2

                                 |--3--|
   E      +E      E      +E      E  E  E  E  E
|------------------------------------------------|
|-15b17==(17)r---15b17==(17)r---15s12----12-15---|
|-------------------------------------14---------|
|------------------------------------------------|
|------------------------------------------------|
|------------------------------------------------|


                          ~~~~~~~~~~~~
   E  Q          +E      E      +E      S  S  S    S
|----------------------------------------------------|
|-12-15b17======(17)r---15b17==(17)r---15p12------12-|
|--------------------------------------------13------|
|----------------------------------------------------|
|----------------------------------------------------|
|----------------------------------------------------|



   E  S    S  S  S  S    S  S  S  E    E  E      E  Q.           +Q       Q
|-15-15p==12----------------------------------|--------------------------(7)/---|
|------------15p12------12-15p12--------------|----15-----------(15)\-----------|
|------------------14------------14---12------|-12-14b16========(16)r\----------|
|----------------------------------------14---|---------------------------------|
|---------------------------------------------|---------------------------------|
|---------------------------------------------|---------------------------------|



   S  S  S    S  S  S  S    S  S  S  S    S  S  S  S    S
|-19p15------15-19p15-17p==15----15-19p==15-17p15------15-|
|-------17--------------------17------------------17------|
|---------------------------------------------------------|
|---------------------------------------------------------|
|---------------------------------------------------------|
|---------------------------------------------------------|


   S  S  E    S  S  S    S  E  S    S  S  E.
|-19p15------19p15-17p==15----19p==15-17p15----|
|-------17-----------------15------------------|
|----------------------------------------------|
|----------------------------------------------|
|----------------------------------------------|
|----------------------------------------------|


                            ~~~~~                                      ~~~~~~~~~~~~~
                                   |--3--|
   Q        +Q      E      +E      E  E  E    E     Q        +E        Q       +Q
|-20b22====(22)r---20b22==(22)r---19p17----|-17----22b24====(24)r-----22b24===(24)r----|
|-20b22====(22)r------------------------19-|-------------------------------------------|
|------------------------------------------|-------------------------------------------|
|------------------------------------------|-------------------------------------------|
|------------------------------------------|-------------------------------------------|
|------------------------------------------|-------------------------------------------|



    Faster Q=184
    Gtr II
    PM--------------------------------------------------------------------|
    E E E E E E E E    E  E E E E E E E   E E E E E E E E   E E E E E E E E
||------------------|-------------------|-----------------|------------------|
||o-----------------|-------------------|-----------------|------------------|
||----4-0-----------|-----4-0-----------|---4-0-----2-0---|-----4---5---4-5--|
||--2-----4-2-5-4-2-|--2------4-2-5-4-2-|-2-----4-3-----3-|-7-5---7---7------|
||o-----------------|-------------------|-----------------|------------------|
||------------------|-------------------|-----------------|------------------|
|
|   Gtr I
|   W                 +W                  W                 H       H
||------------------|-------------------|-----------------|------------------|
||o-----------------|-------------------|-----------------|------------------|
||------------------|-------------------|-----------------|------------------|
||------------------|-------------------|-----------------|---------2--------|
||o-2---------------|-(2)---------------|-3---------------|-5-------0--------|
||--0---------------|-(0)---------------|-1---------------|-3----------------|


  PM-----------------------------------
  E E E E E E E E    E  E E E E E E E
|-----------------|-------------------|
|-----------------|-------------------|
|---4-0-----------|-----4-0-----------|
|-2-----4-2-5-4-2-|--2------4-2-5-4-2-|
|-----------------|-------------------|
|-----------------|-------------------|
|
| W                 +W
|-----------------|-------------------|
|-----------------|-------------------|
|-----------------|-------------------|
|-----------------|-------------------|
|-2---------------|-(2)---------------|
|-0---------------|-(0)---------------|


 -------|
  E E E E E E E E   S E. E S T T Q  Q
|-----------------|-----------------------||
|-----------------|----------------------o||
|---4-4-3-2-4-3-2-|-----------------------||
|-2---------------|-2-2--2---4-4-4--4-----||
|-----------------|-0-0--0---2-2-2--2----o||
|-----------------|-----------------------||
|
| W                 S E. E S T T Q  Q
|-----------------|-----------------------||
|-----------------|----------------------o||
|-----------------|-----------------------||
|-7---------------|-2-2--2---4-4-4--4-----||
|-5---------------|-0-0--0---2-2-2--2----o||
|-----------------|-----------------------||


  Gtrs I, II
  E S S E S S E S S E S S   E S S E S S E S S E S S
|-------------------------|-------------------------|
|-------------------------|-------------------------|
|-------------------------|-------------------------|
|-------------------------|-------------------------|
|-------------------------|-------------------------|
|-5-5-5-5-5-5-5-5-5-5-5-5-|-5-5-5-5-5-5-5-5-5-5-5-5-|


  E S S E S S E S S E S S   E S S E S S E S S E S S
|-------------------------|----------------------------||
|-------------------------|----------------------------||
|-------------------------|----------------------------||
|-------------------------|----------------------------||
|-------------------------|----------------------------||
|-3-3-3-3-3-3-3-3-3-3-3-3-|-2-2-2-2-2-2-1-1-1-1-1-1----||


  H    H      H    H      H    H      H    H
|-----------|-----------|-----------|-----------||
|-----------|-----------|-----------|-----------||
|------8----|-7----6----|------8----|-7----6----||
|-9----8----|-7----6----|-9----8----|-7----6----||
|-7----6----|-5----4----|-7----6----|-5----4----||
|-0---------|-----------|-0---------|-----------||


  PM----|    PM----|      PM----|    PM----|
  S S S S Q  S S S S Q    S S S S Q  S S S S Q
|-----------------------|-----------------------|
|-----------------------|-----------------------|
|-----------------------|-----------------------|
|---------2----------2--|---------2----------2--|
|---------2----------2--|---------2----------2--|
|-0-0-0-0-0--0-0-0-0-0--|-0-0-0-0-0--0-0-0-0-0--|


  H    H      H    H      H    H      H    H
|-----------|-----------|-----------|-----------||
|-----------|-----------|-----------|-----------||
|------8----|-7----6----|------8----|-7----6----||
|-9----8----|-7----6----|-9----8----|-7----6----||
|-7----6----|-5----4----|-7----6----|-5----4----||
|-0---------|-----------|-0---------|-----------||


  PM----|    PM----|      PM----|    PM----|          PM------|   PM------|
  S S S S Q  S S S S Q    S S S S Q  S S S S Q      E S S E S S E S S E S S
|-----------------------|-----------------------||---------------------------|
|-----------------------|-----------------------||o--------------------------|
|-----------------------|-----------------------||---------------------------|
|---------5----------5--|---------5----------5--||---------------------------|
|---------5----------5--|---------5----------5--||o-7-----------6------------|
|-3-3-3-3-3--3-3-3-3-3--|-3-3-3-3-3--3-3-3-3-3--||----0-0-0-0-0---0-0-0-0-0--|


    PM------|   PM------|       PM------|   PM------|
  E S S E S S E S S E S S     E S S E S S E S S E S S
|--------------------------||-------------------------|
|-------------------------o||-------------------------|
|--------------------------||-------------------------|
|--------------------------||-5-----------5-----------|
|-5-----------4-----------o||-5-----------5-----------|
|---0-0-0-0-0---0-0-0-0-0--||-3-3-3-3-3-3-3-3-3-3-3-3-|


    PM------|   PM------|
  E S S E S S E S S E S S   H    H
|-------------------------|-----------|
|-------------------------|-----------|
|-------------------------|-----------|
|-5-----------5-----------|-5----5----|
|-5-----------5-----------|-5----5----|
|-3-3-3-3-3-3-3-3-3-3-3-3-|-3----3----|


                                                   Q=136
                          \1                        |
  H    H      W          +W           +W           +W
|-----------|----------|------------|------------|--------||
|-----------|----------|------------|------------|--------||
|-----------|----------|------------|------------|--------||
|-5----5----|-5--------|-(5)--------|-(5)--------|-(5)----||
|-5----5----|-5--------|-(5)--------|-(5)--------|-(5)----||
|-3----3----|-3--------|-(3)--------|-(3)--------|-(3)----||


                             PM|
              |-3-|
  E E E E E E E E E   Q  E E E E Q
|-------------------|---------------|
|-------------------|---------------|
|-------------------|---------------|
|-------------------|-2--4---4---4--|
|---------2---------|-2--4---4-3-4--|
|-3-2-5-3---5-3-2-1-|-0--2---2---2--|


  PM                  PM----|      PM
  E E E E E E Q    Q  E E E E Q    E E E E E E E E
|----------------|---------------|-------------------|
|----------------|---------------|-------------------|
|----------------|---------------|-------------------|
|-----4---4-5-4--|-2----------4--|-----4---4-5-4-4---|
|-----4---4-5-4--|-2--------3-4--|-----4---4-5-4-4---|
|-2---2---2-3-2--|-0--0-0-2---2--|-2---2---2-3-2-2---|


                 5/4                  4/4             3/4
         PM|      PM             PM|      PM|    PM----------------|
                                                               |-3-|
  Q  E E E E Q    E E E E E E Q  E E   Q  E E Q  E E   E E E E E E E
|---------------|--------------------|---------------|----------------|
|---------------|--------------------|---------------|----------------|
|---------------|--------------------|--------2------|----------------|
|-2--4---4---4--|-----4---4-5-4------|-5------2------|----------------|
|-2--4---4-3-4--|-----4---4-5-4--2-2-|-5--2-2-0--2-2-|-----2----------|
|-0--2---2---2--|-2---2---2-3-2--0-0-|-3--0-0----0-0-|-5-3---5-3-2-1--|


 4/4
                  |-3-|
  Q  Q  H      Q  E E E Q  Q
|------------|----------------*|
|------------|----------------*|
|------------|----------------*|
|-2----------|-3--2-2-2-2-----*|
|-2----------|-3--2-2-2-2-----*|
|-0----------|-1--0-0-0-0-----*|

7.Orion

Gtr I (E A D G B E) - 'James Hetfield (Rhythm)'
Gtr II (E A D G B E) - 'Kirk Hammett (Rhythm)'
Gtr III (E A D G B E) - 'James Hetfield (Lead)'
Gtr IV (E A D G B E) - 'Kirk Hammett (Lead)'
Gtr V (E A D G B E) - 'Synth'

Moderate Rock Q=128
                                                        E
   4/4
                                                        Gtr V
    W           W           W          W                W
                                                        |
                                                        /

    Gtr V                                               Gtr I
                                                          PM|   PM|   PM
    W          +W           W          W         8x     E E E E E E E E
||-----------|------------|----------|-----------||-||---------------------|
||o----------|------------|----------|----------o||-||o--------------------|
||-----------|------------|-4--------|-----------||-||---------------------|
||-----------|------------|----------|-4---------||-||--5-----5-----5------|
||o-7--------|-(7)--------|-5--------|-6--------o||-||o-7-----7-----7------|
||--0--------|-(0)--------|----------|-----------||-||----0-0---0-0---0----|


                     Bm                Ebm
  +W                 W                 W
   |                 |                 |
   /                 /                 /

     PM|   PM|   PM    PM|   PM|         PM|   PM|
   E E E E E E E E   E E E E E E E E   E E E E E E E E  6x
|------------------|-----------------|------------------||
|------------------|-----------------|-----------------o||
|------------------|-----------------|------------------||
|--4-----5-----5---|-4-----4-----4-4-|-4-----4-----4-4--||
|--7-----7-----7---|-5-----5-----5-5-|-6-----6-----6-6-o||
|----0-0---0-0---0-|---7-7---7-7-----|---7-7---7-7------||


              A5         E5
  Gtr II
      S S S S Q     +E   Q.
      | | | | |      |   |
      o / / / /      /   /

  Gtr I
      S S S S E S S  S S E  S S S S
|-||----------------------------------|
|-||o---------------------------------|
|-||----------2----------4------------|
|-||--2-2-2-2---2-2--2-2----2-2-2-2---|
|-||o---------------------------------|
|-||----------------------------------|


  C5                                C5         E5
  W                         S S S S Q     +E   Q.
  |                         | | | | |      |   |
  /                         o / / / /      /   /

  E S S S S E S S E S S E   S S S S E S S  S S E  S S S S
|-------------------------|-------------------------------|
|-------------------------|-------------------------------|
|-5-----------------------|---------5----------4----------|
|---2-2-2-2-2-2-2-3-3-3-2-|-2-2-2-2---2-2--2-2----2-2-2-2-|
|-------------------------|-------------------------------|
|-------------------------|-------------------------------|


 1.,2.,3.
  A5
  W
  |
  /

  E S S S S E S S E S S E   4x
|---------------------------||
|--------------------------o||
|-2-------------------------||
|---2-2-2-2-2-2-2-3-3-3-2---||
|--------------------------o||
|---------------------------||


  4.
  A5
  Gtr III    Gtr III
  Q.         E H               W
  |
  /

  Gtr II     Gtrs I, II
                                       PM----|   PM----|
  E  S S S S E S S E S S E     E S S E S S S S E S S S S
|--------------------------||----------------------------|
|--------------------------||o---------------------------|
|-2------------------------||----------------------------|
|----2-2-2-2-2-2-2-3-3-3-2-||--------2---------2---------|
|--------------------------||o-------0---------2---------|
|------------0-0-0-1-1-1-0-||--0-0-0---0-0-0-0---0-0-0-0-|


    PM--------------------------|   PM----|   PM----|
  E S S S S E S S E S S E   E S S E S S S S E S S S S
|-------------------------|---------------------------|
|-------------------------|---------------------------|
|-------------------------|---------------------------|
|-5-----------------------|-------5---------2---------|
|-3-----------------------|-------3---------2---------|
|---0-0-0-0-0-0-0-1-1-1-0-|-0-0-0---0-0-0-0---0-0-0-0-|


    PM------------------|
  E S S S S E S S E S S E  4x
|--------------------------||
|-------------------------o||
|--------------------------||
|-2------------------------||
|-0-----------------------o||
|---0-0-0-0-0-0-0-1-1-1-0--||


    Gtr I
      PM|   PM|   PM    PM|   PM|   PM    PM|   PM|         PM|   PM|
    E E E E E E E E   E E E E E E E E   E E E E E E E E   E E E E E E E E
||------------------|-----------------|-----------------|-------------------||
||o-----------------|-----------------|-----------------|------------------o||
||------------------|-----------------|-----------------|-------------------||
||--5-----5-----5---|-4-----5-----5---|-4-----4-----4-4-|-4-----4-----4-4---||
||o-7-----7-----7---|-7-----7-----7---|-5-----5-----5-5-|-6-----6-----6-6--o||
||----0-0---0-0---0-|---0-0---0-0---0-|---7-7---7-7-----|---7-7---7-7-------||


  EmE       EmE       EmE   EsusE       EmE       EmE
  Gtr I
  E E E     E E E     E E    E  E E     E E E     E E
  | | |     | | |     | |    |  | |     | | |     | |
  / o /     / o /     / o    /  o /     / o /     / o

  Gtr IV
      |-3-|     |-3-|             |-3-|     |-3-|
  Q   S S S E E S S S Q     +Q    S S S E E S S S Q
|-------------------------|---------------------------|
|-------------------------|---------------------------|
|-------------------------|---------------------------|
|-----4h5p4---4-4h5p4-----|-------4h5p4---4-4h5p4-----|
|-----------7---------7---|-(7)---------7---------7---|
|-------------------------|---------------------------|


  D   B   D B   D     Ebm B   EbB   Ebm
   E  E E E E E E E    E  E E E E E E E
   |  | | | | | | |    |  | | | | | | |
   /  o / / o / / /    /  o / / o / / /

                ~~~~~~~~~~
  +E  E E E E E Q     +Q    E E E E Q
|-------------------|--------------------
|-------------------|--------------------
|-------------------|--------------------
|---------5-5-4-----|---------5-5-4-4----
|-(7)-----------5---|-(5)----------------
|-------------------|--------------------


  EmE       EmE       EmE   EsusE       EmE       EmE
  E E E     E E E     E E    E  E E     E E E     E E
  | | |     | | |     | |    |  | |     | | |     | |
  / o /     / o /     / o    /  o /     / o /     / o

      |-3-|     |-3-|             |-3-|     |-3-|
  Q   S S S E E S S S Q     +Q    S S S E E S S S Q
|-------------------------|---------------------------|
|-------------------------|---------------------------|
|-------------------------|---------------------------|
|-----4h5p4---4-4h5p4-----|-------4h5p4---4-4h5p4-----|
|-----------7---------7---|-(7)---------7---------7---|
|-------------------------|---------------------------|


  D   B   D B   D     Ebm B   EbB   Ebm
   E  E E E E E E E    E  E E E E E E E
   |  | | | | | | |    |  | | | | | | |
   /  o / / o / / /    /  o / / o / / /

                ~~~~~~~~~~
  +E  E E E E E Q     +Q    E E E E Q
|-------------------|--------------------|
|-------------------|--------------------|
|-------------------|--------------------|
|---------5-5-4-----|---------5-5-4-4----|
|-(7)-----------5---|-(5)----------------|
|-------------------|--------------------|


  EmE   EmE   EmE    EsuE2    Em E       Em E
  E E E E E E E  E    E  E  E  E   E   E  E  E
  | | | | | | |  |    |  |  |  |   |   |  |  |
  / o / / o / /  o    /  o  /  /   o   /  /  o

  E E E E E E E  E    E  E  E  E  +E   E  E  E
|------------------|------------------------------|
|------------------|------------------------------|
|------------------|---------------------12-14b16-|
|-2s5-5s7-7s9-9s12-|-12s14-14-14-(14)-14----------|
|------------------|------------------------------|
|------------------|------------------------------|


  D    B    D B    D          Ebm  B     EbB   Ebm
    E  E  E E  E E  E     E     E   E  E E E E  E  E
    |  |  | |  | |  |     |     |   |  | | | |  |  |
    /  o  / /  o /  /     /     /   o  / / o /  /  /

   +Q     Q    Q    E  a  E    +E   E  H        E  E
|---------------------------|------------------------|
|---------------------------|---------------------15-|
|-(14)---14---12---11-11h12-|-(12)-11----------12----|
|---------------------------|---------12-------------|
|---------------------------|------------------------|
|---------------------------|------------------------|


  Em    E          Em   E      Em E    Esus2 E           Em    E       Em E
   E      E   E      E    E  E  E  E    E     E     E     E     E    E  E  E
   |      |   |      |    |  |  |  |    |     |     |     |     |    |  |  |
   /      o   /      /    o  /  /  o    /     o     /     /     o    /  /  o

                     ~~~~~~~~
   E     +E   E     +E   +Q     E  E    E     S  S  E     S  S  Q       E  E
|------------------------------------|------------------------------------12-|
|-15----(15)----------------------12-|-15b17-15-15-15b17-15-15-15b17---15----|
|-14b16-(16)-14b16r(14)-(14)---14----|---------------------------------------|
|------------------------------------|---------------------------------------|
|------------------------------------|---------------------------------------|
|------------------------------------|---------------------------------------|


  D     B           D        B              D
   E     E     E     E        E     E        E     E
   |     |     |     |        |     |        |     |
   /     o     /     /        o     /        /     /

                     |--3--|
   S  S  S  S  S  S  S  S  S  S  S  S  T  T  S  S  E
|-15-14-12-15-14-12-15p14p12-15-14-12-15p14p12-15p12---|
|------------------------------------------------------|
|------------------------------------------------------|
|------------------------------------------------------|
|------------------------------------------------------|
|------------------------------------------------------|


  Ebm   B       EbB            Ebm        B5           B          B5 A
   E    E  E    E  E       E   E  E         E  E  E    E  E     E  E  E
   |    |  |    |  |       |   |  |         |  |  |    |  |     |  |  |
   /    o  /    /  o       /   /  /         /  /  /    o  /     /  /  o

                           ~~~~~
   Q       Q       E      +E   E  E        +Q     Q       S  S  E  E  E
|-17b19---17b19---17b19==(19)r---------||-----------------------------------|
|--------------------------------17b19-||-(19)---17b19---17p15----15-17b19==|
|--------------------------------------||----------------------16-----------|
|--------------------------------------||-----------------------------------|
|--------------------------------------||-----------------------------------|
|--------------------------------------||-----------------------------------|


  B5             B         B5A   F#m/A             A                 F#m/A E
    E   E   E     E  E  E  E E    E     E     E     E     E     E     E     E
    |   |   |     |  |  |  | |    |     |     |     |     |     |     |     |
    /   /   /     o  /  /  / o    /     /     /     o     /     /     /     o

                        ~~~
   +E   E   S  S  E  E  Q.        S  S  S  S  S  S  S  S  S  S  S  S  S  S  E
|------------------------------|----------------------------------------------|
|-(19)-17r-17p15----15---------|----15-19----15-19----15-19----15-19----15-19-|
|----------------16----16------|-16-------16-------16-------16-------16-------|
|------------------------------|----------------------------------------------|
|------------------------------|----------------------------------------------|
|------------------------------|----------------------------------------------|


  F#5           F#                 A
   E    E  E      E        E  E  E  E
   |    |  |      |        |  |  |  |
   /    /  /      o        /  /  /  o

                           ~~~~
   Q       E     +E       +Q     E  E
|-17b19---17b19-(19)pb19r(17)---14-15-|
|-------------------------------------|



|-------------------------------------|
|-------------------------------------|
|-------------------------------------|
|-------------------------------------|


  B5(type 2B              B5(typA 2)   F#m/A       A       F#m/E
   E  E  E  E  E     E     E    E      E   E   E   E   E E E   E
   |  |  |  |  |     |     |    |      |   |   |   |   | | |   |
   /  /  /  o  /     /     /    o      /   /   /   o   / / /   o

   E  E  E  E  S  S  S  S  S  S S  S   S S S S S S S S Q   S S E
|-17-15-14-15-14h15-12h14-10h12-8h10-|-7h8-5h7-3h5-2h3p2---3p2---|
|------------------------------------|-------------------------5-|
|------------------------------------|---------------------------|
|------------------------------------|---------------------------|
|------------------------------------|---------------------------|
|------------------------------------|---------------------------|


  F#5   F#            F#5     E5       E C     E5
  E E E E     E   E   E   E   Q.       E  E  E Q
  | | | |     |   |   |   |   |        |  |  | |
  / / / o     /   /   /   /   /        o  /  / /

  E E E E    +E   E   S S E   S E. +E  E +E  Q   E
|---------------------------|----------------------|
|-3---3-5b7==(7)r-5b7-5p3---|-3h5--(5)-3-(3)-2---3-|
|---4---------------------4-|----------------------|
|---------------------------|----------------------|
|---------------------------|----------------------|
|---------------------------|----------------------|


                             B5    B5(typE5/B
  W                           Q.   E E E E E
  |                           |    | | | |
  /                           /    / / / /

  |---5---| |---5---|
  S S S S S S S S S S H      +W
|--------------------------|-------------------|
|--------------------------|-------------------|
|-4h6p4h6p4h6p4h6p4h6p4----|-(4)---------------|
|--------------------------|-------------------|
|--------------------------|-------------------|
|--------------------------|-------------------|


  Gtr I
       PM----|        PM----|
         |-3-|          |-3-|
  Q.   E Q Q Q   Q.   E Q Q Q   W          +W
|--------------|--------------|----------|--------||
|--------------|--------------|----------|--------||
|--------------|--------------|----------|--------||
|-4----3-3-2-2-|-4----3-3-2-2-|-2--------|-(2)----||
|-0----0-0-0-0-|-4----4-4-4-4-|-2--------|-(2)----||
|--------------|-2----2-2-2-2-|-0--------|-(0)----||


  Slowly Q.=54
 6/8
  W        H    E  E   a     +H       E   E     E   E   E   E   E   E
|--------|----------------|------------------|-------------------------|
|--------|----------------|------------------|-------------------------|
|--------|----------------|----------<4>-<4>-|-<4>-<4>-<4>-<4>-<4>-<4>-|
|--------|------------<9>-|-(<9>)------------|-------------------------|
|--------|--------<9>-----|------------------|-------------------------|
|--------|----------------|------------------|-------------------------|


   H     E   E     E   E   E   E   E   E     H    +Q     W
|---------------|-------------------------|------------|------|
|-------<3>-<3>-|-<3>-<3>-<3>-<3>-<3>-<3>-|-/7----(7)--|------|
|---------------|-------------------------|------------|------|
|-/4------------|-------------------------|-/4----(4)--|------|
|---------------|-------------------------|------------|------|
|---------------|-------------------------|------------|------|


    Gtrs I, III
     Q.       +Q.      +Q.     E     +E  S  S   H.        +Q.   +E  +E   E
||------------------|-------------------------|---------|-------------------||
||o-----------------|-------------------------|---------|------------------o||
||---9b11----(11)---|-(11)-----9b11r=(9)-6h=9-|-6-------|-(6)---(6)-(6)\----||
||---9b11====(11)---|-(11)r----9b11r=(9)-7h=9-|-7-------|-(7)---(7)-(7)\----||
||o-----------------|-------------------------|---------|------------------o||
||------------------|-------------------------|---------|-------------------||
|    Q.       +Q.      +Q.     E     +E  S  S   H.        +Q.   +E  +E   E
|
|   Gtr II
|    Q.       +Q.      +Q.     E     +E  S  S   H.        +Q.   +E  +E   E
||------------------|-------------------------|---------|-------------------||
||o-----------------|-------------------------|---------|------------------o||
||------------------|-------------------------|---------|-------------------||
||------------------|-------------------------|---------|-------------------||
||o-11b13====(13)---|-(13)r---11b13r(11)-9h11-|-9-------|-(9)---(9)-(9)\---o||
||------------------|-------------------------|---------|-------------------||


  Gtrs I, III
   Q.       +Q.      +Q.     E     +E  S  S   E E E Q.     +Q.   +E  +E   E
|-----------------|-------------------------|------------|------------------|
|-----------------|-------------------------|------------|------------------|
|--9b11----(11)---|--(9)-----9b11r=(9)-6h=9-|-6----------|------------------|
|--9b11====(11)---|--(9)r----9b11r=(9)-7h=9-|-7-7-7-7----|-(7)---(7)-(7)\---|
|-----------------|-------------------------|---9-9-9----|-(9)---(9)-(9)\---|
|-----------------|-------------------------|------------|------------------|
|  Q.       +Q.      +Q.     E     +E  S  S   E E E Q.     +Q.   +E  +E   E
|
| Gtr II
|  Q.       +Q.      +Q.     E     +E  S  S   E E E Q.     +Q.   +E  +E   E
|-----------------|-------------------------|------------|------------------|
|-----------------|-------------------------|------------|------------------|
|-----------------|-------------------------|------------|------------------|
|-----------------|-------------------------|------------|------------------|
|-11b13====(13)---|-(13)r---11b13r(11)-9h11-|-9----------|------------------|
|-----------------|-------------------------|---9-9-9----|-(9)---(9)-(9)\---|


  Gtrs I, III
   Q.       +Q.      +Q.     E     +E  S  S   E E E E E E   E E S S  Q.
|-----------------|-------------------------|-------------|---------------|
|-----------------|-------------------------|-------------|---------------|
|--9b11----(11)---|--(9)-----9b11r=(9)-6h=9-|-6-----------|---------------|
|--9b11====(11)---|--(9)r----9b11r=(9)-7h=9-|-7-7-7-7-6-6-|-6-6-6h7s=9----|
|-----------------|-------------------------|---9-9-9-7-7-|-7-7-7h9s11----|
|-----------------|-------------------------|-------------|---------------|
|  Q.       +Q.      +Q.     E     +E  S  S   E E E E E E   E E S S  Q.
|
| Gtr II
|  Q.       +Q.      +Q.     E     +E  S  S   E E E E E E   E E S S  Q.
|-----------------|-------------------------|-------------|---------------|
|-----------------|-------------------------|-------------|---------------|
|-----------------|-------------------------|-------------|---------------|
|-----------------|-------------------------|-------------|---------------|
|-11b13====(13)---|-(13)r---11b13r(11)-9h11-|-9-----------|---------------|
|-----------------|-------------------------|---9-9-9-7-7-|-7-7-7h9s12----|


                PM----|
  H.        +E  S S S S  E E S S   E  E E Q.
|---------|----------------------|-------------|
|---------|----------------------|-------------|
|---------|----------------------|-6-----------|
|---------|---------7-9-11-9-7-9-|----4-7-7----|
|-9-------|-(9)-7-9--------------|--------9----|
|---------|----------------------|-------------|
| W          W                     Q.     Q.
|
| W          W                     W
|---------|----------------------|-------------|



  +Q.   +Q    S     +S        +H.
|--------------------------|---------|
|--------------------------|---------|
|-------------9b11r=(9)b11-|-(11)----|
|-(7)---(7)---9b11r=(9)b11-|-(11)----|
|-(9)---(9)----------------|---------|
|--------------------------|---------|
| +Q.   +Q    S     +S        +H.
|
|  Q.    Q    S     +S        +H.
|--------------------------|---------|
|--------------------------|---------|
|--------------------------|---------|
|--------------------------|---------|
|------------11b13r(11)b13-|-(13)----|
|--------------------------|---------|


   +Q     S     +S   +E       +E  S  S
|--------------------------------------|
|--------------------------------------|
|-(11)----9b11r=(9)--(9)pb11r=(9)-6h=9-|
|-(11)r---9b11r=(9)--(9)pb11r=(9)-7h=9-|
|--------------------------------------|
|--------------------------------------|
|  +Q     S     +S   +E       +E  S  S
|
|  +Q     S     +S   +E       +E  S  S
|--------------------------------------|
|--------------------------------------|
|--------------------------------------|
|--------------------------------------|
|-(13)r--11b13r(11)-(11)pb13r(11)-9h11-|
|--------------------------------------|


  E E E E E E   E E S S  E. S S S    E S S E E E E
|-------------|-------------------||----------------|
|-------------|-------------------||----------------|
|-6-----------|-------------9-9-9-||-9-9-9-9-9-6-6s=|
|-7-7-7-7-6-6-|-6-6-6-7S=9--------||----------------|
|---9-9-9-7-7-|-7-7-7-9S11--------||----------------|
|-------------|-------------------||----------------|
| E E E E E E   E E S S  Q.
|
| E E E E E E   E E S S  Q.          W
|-------------|-------------------||----------------|
|-------------|-------------------||----------------|
|-------------|-------------------||----------------|
|-4-----------|-------------------||----------------|
|---4-4-4-----|-------------------||----------------|
|---------5-5-|-5-4-4-5--4--------||----------------|


  E E E S S E S S   H.
|-----------------|---------|
|-----------------|---------|
|-7-7-7---------6-|-6-------|
|-------9-7-6-7---|-7-------|
|-----------------|---------|
|-----------------|---------|
| W                 H.
|
| W                 H.
|-----------------|---------|
|-----------------|---------|
|-----------------|---------|
|-----------------|-4-------|
|-----------------|---------|
|-----------------|---------|


  +Q.   +S   S  S  S   S  S     E  S  S  E  E  E  E
|---------------------------|------------------------|
|---------------------------|------------------------|
|-(6)---(6)--9--9--9--/9--9-|--/9--9--9--9--9--6--6--|
|-(7)---(7)-11-11-11-/11-11-|-/11-11-11-11-11--------|
|---------------------------|-----------------12-12--|
|---------------------------|------------------------|
| +Q.   +S   S  S  S   S  S     E  S  S  E  E  E  E
|
| +Q.   +S   S  S  S   S  S     E  S  S  E  E  E  E
|---------------------------|------------------------|
|---------------------------|------------------------|
|---------------------------|------------------------|
|-(4)---(4)--4--4--4--/4--4-|--/4--4--4--4--4--------|
|---------------------------|------------------4--4--|
|---------------------------|------------------------|


  E E E  S S  E S  S    H.
|--------------------|----------|
|--------------------|----------|
|-7-7-7------------6-|--6-------|
|-9-9-9--9-7--6-7----|----------|
|-------11-9----9-12-|-12-------|
|------------12------|----------|
| E E E  S S  E S  S    H.
|
| E E E  S S  E S  S    H.
|--------------------|----------|
|--------------------|----------|
|--------------------|----------|
|--------------------|--4-------|
|-5-5-5--2---------4-|----------|
|----------5--4-5----|----------|


   +Q.   E   +E    S S   H.        +Q.   +E. S S S
|----------------------|---------|-----------------|
|----------------------|-2-------|-(2)---(2)-------|
|--(6)---4b6r(4)b6r4p2-|-2-------|-(2)---(2)-----2-|
|----------------------|-4-------|-(4)---(4)-2-2---|
|-(12)-----------------|---------|-----------------|
|----------------------|---------|-----------------|
|  +Q.   Q         E     H.        +Q.   +Q    E
|
|  +Q.   Q.              W          W
|----------------------|---------|-----------------|
|----------------------|---------|-----------------|
|----------------------|---------|-----------------|
|--(4)-----------------|---------|-----------------|
|----------------------|---------|-----------------|
|----------------------|---------|-----------------|


                          Gtr I
  H.        +Q.   Q.      E S S S S E S S S S   E S S E E S S S S
|---------|------------||---------------------|-------------------|
|---------|------------||---------------------|-------------------|
|---------|------------||-------6---6---6-9-6-|-7-7---------------|
|-4-------|-(4)---4\---||-----7---7---7-------|-----9-6-----6-9-6-|
|---------|------------||-9-9-----------------|---------7-7-------|
|---------|------------||---------------------|-------------------|


  Gtr I
  E S S S S E S S S S   E S S E E S S S S
|---------------------|-------------------|
|---------------------|-------------------|
|-------6---6---6-9-6-|-7-7---------------|
|-7---7---7---7-------|-----9-6-----6-9-6-|
|---9-----------------|---------7-7-------|
|---------------------|-------------------|
|
| Gtr II
| W                     W
|---------------------|-------------------|



  E S S S S E S S  S S   E S S E E S S S S
|----------------------|---------------------|
|----------------------|---------------------|
|-------6---6---6--9-6-|-7-7-----------------|
|-7---7---7---7--------|-----9-6-----6-9-6---|
|---9------------------|---------7-7---------|
|----------------------|---------------------|
|
| E S S S S E S S  S S   E S S E E S S S S
|----------------------|---------------------|
|-----------------10---|-7-7-----------------|
|-6---6-9-6-9-6-9----9-|-----7---------7-----|
|---7------------------|-------9-6-6-9---9---|
|----------------------|---------------------|
|----------------------|---------------------|


  E S S S S E S S  S S   S T T S S S S E S S S S
|----------------------|-------------------------|
|----------------------|-------------------------|
|-------6---6---6--9-6-|-7-7-7-7-----------------|
|-7---7---7---7--------|---------9-6-9-----6-9-6-|
|---9------------------|---------------7-7-------|
|----------------------|-------------------------|
|
| E S S S S E S S  S S   S T T S S S S E S S S S
|----------------------|-------------------------|
|-----------------10---|-7-7-7-7-----------------|
|-6---6-9-6-9-6-9----9-|---------7---7-------7---|
|---7------------------|-----------9---6-6-9---9-|
|----------------------|-------------------------|
|----------------------|-------------------------|


    Q  S  S Q  S  S   Q  S  S Q  S S    4x
||------------------|-------------------||
||o--------------10s|=7--7-10----------o||
||--6--6--9-6--9----|---------9--9-9----||
||------------------|-------------------||
||o-----------------|------------------o||
||------------------|-------------------||
|
|   Q  S  S Q  S  S   Q  S  S Q  S S    4x
||------------------|-------------------||
||o------10---------|------------------o||
||-----9----9--9--9s|=7--7--9------6----||
||--7---------------|---------6--7------||
||o-----------------|------------------o||
||------------------|-------------------||


  F#5                A5                  E5                C#5
  Gtr I
   Q.                 Q           E       Q           E     Q           E
   |                  |           |       |           |     |           |
   /                  /           /       /           /     /           /

  Gtr IV
   S   S  S  S  S  S  S  S  S  S  S  S    S  S  S  S  S  S  S  S  S  S  S  S
|--------------------------------------|----------------------------14-15-17-|
|--------------------------------------|----------------12-14-15-17----------|
|--------------------------------------|-------11-13-14----------------------|
|--------------11----------11-12-14-11-|-12-14-------------------------------|
|-12--11-12-14----11-12-14-------------|-------------------------------------|
|--------------------------------------|-------------------------------------|


  F#5       A5                     E5                C#5
   Q   E     Q              E       Q           E     Q                E
   |   |     |              |       |           |     |                |
   /   /     /              /       /           /     /                /

   Q   E  a  S  T  T  S  S  S  S    S  S  S  S  S  S  S     S  E      +E
|-17--17-17-14-17p14-14-17-14-12-|------------------------------------------|
|--------------------------------|-14p12-------------------17---------------|
|--------------------------------|-------14p11-14-16-16b18----16b18==(18)r--|
|--------------------------------|------------------------------------------|
|--------------------------------|------------------------------------------|
|--------------------------------|------------------------------------------|


  F#5        A5       E5               C#5          F#5        A5
  Q.         Q.       Q.               Q.           Q.         Q           E
  |          |        |                |            |          |           |
  /          /        /                /            /          /           /

                                                               |---3---|
  E  S S E a E  E E   T T T S T T T  E E  S S S S   S  S E S S S   +S  S E S S
|-2--2-4-5-5h7--5-4-|---------4h5h7-/9-7--7-5-4-5-|-4--------------------------|
|-------------------|-2s3h5h7---------------------|----5-----------------------|
|-------------------|-----------------------------|------4-2-4-4b6r(4)p2-----2-|
|-------------------|-----------------------------|----------------------4-4---|
|-------------------|-----------------------------|----------------------------|
|-------------------|-----------------------------|----------------------------|


  E5                C#5        E5         G5
  Q       E         Q.         Q.         Q.
  |       |         |          |          |
  /       /         /          /          /

  S S S S S   +T  T E  +Q      Q      +E  Q.
|---------------------------||-----------------|
|---------------------------||-----------------|
|-4-2-4-2-4b6r(4)p2---------||-9pb12r=(9)-9----|
|-------------------4--(4)--||-7pb9r===7--5----|
|---------------------------||-----------------|
|---------------------------||-----------------|
                               Q       E  Q.


  D5            B5
   Q.           Q.
   |            |
   /            /

  +S  S S S S S S  S S S T T T T
|--------------------------------|
|--------------------------------|
|-(9)-----9---9--------4-5p4---4-|
|-----7-7---5---4--5-7-------7---|
|--------------------------------|
|--------------------------------|


  E5                      G5
  Q.                      Q.
  |                       |
  /                       /

  T T T T T T T T T T T T Q.
|------------------------------|
|------------------------------|
|-5p4---4-5p4---4-5p4---4------|
|-----7-------7-------7---5----|
|------------------------------|
|------------------------------|


  D5              B5              E5           G5
   Q.             Q.              Q.           Q.
   |              |               |            |
   /              /               /            /

  +S  T T S S S S T T S S S S S   S  S S S S S S  S S S S S
|-------------------------------|----------------------------|
|-------------------------------|-3------3-------------------|
|-----4-5-7-5-4-5-5p4---4-5-4-5-|-4--4---4-4---4------4------|
|-(5)-----------------7---------|----5-5---5-5-5--5-2-5-5-2--|
|-------------------------------|------7-----7----7-3---7-3--|
|-------------------------------|----------------------------|
                                  S  S S S S S S  S S S S S


  D5           B5             E5                      G5
  Q.           Q.              Q.                      Q.
  |            |               |                       |
  /            /               /                       /

  S  S S S S S S  S S S S S    E     S  S  S      +S   S   S  T  T S  S S
|---------------------------|---------------------------------------------|
|---------------------------|---------------------------------------------|
|-5--2---5-2---2--------2---|-11b12r11--9-11b12==(12)r=9--11-11p=9s7--9-7-|
|-7--4-4-7-4-4-4--4---4-4-4-|---------------------------------------------|
|------5-----5----5-5-5---5-|-12b14r12-10-12b14==(10)r10--12-12p10s9-10-9-|
|-------------------7-------|---------------------------------------------|
  S  S S S S S S  S S S S S    E     S  S  S      +S   S   S  T  T S  S S


  D5                 B5
   Q.                Q.
   |                 |
   /                 /

      |-3--|
   S  T  T T S S S S S  S S S S S
|----------------------------------|
|----------------------------------|
|--9--7h=9p7p5-7-5-4-5--4-2-4-5-4--|
|----------------------------------|
|-10--9h10p9p7-9-7-5-7--5-3-5------|
|-----------------------------3-2--|
   S  T  T T S S S S S  S S S S S
      |-3--|


           Q=128
  E5
 2/8      4/4                             3/4           4/4
  S S E    W                 W             W             W
  | |
  / /

                                     PM|
  S S E    Q.   E +Q   Q    +H.      E E   Q.   E +Q     W
|-------||----------------|--------------|-------------|------||
|-------||----------------|--------------|-------------|------||
|-------||-2-----------5--|-(5)----------|-5-----------|-2----||
|-5-5---||-2----2-(2)--5--|-(5)----------|-5----2-(2)--|-2----||
|-------||-0----2-(2)--3--|-(3)----------|-3----2-(2)--|-0----||
|-0-0---||------0-(0)-----|----------0-0-|------0-(0)--|------||
  S S E


  B5(type 2)    B         A5(type 2)    B5(type 2)       B                  B5(type 2)F#m/A
   E    E  E    E  E    E  E     E        E   E     E     E     E     E     E  E
   |    |  |    |  |    |  |              |   |     |     |     |     |     |
   /    /  /    o  /    /  /              /   /     /     o     /     /     /

   Q       Q       Q       E     E       +E   E     E     E     E     Q        S  S
|-------------------------------------|---------------------------------------------|
|-10b12---10b12---10b12---10b12-10b12-|-(12)-10b12-10b12-10b12-10b12-10b12====10rp7-|
|-------------------------------------|---------------------------------------------|
|-------------------------------------|---------------------------------------------|
|-------------------------------------|---------------------------------------------|
|-------------------------------------|---------------------------------------------|


                       A                F#m/A         F#5           F#             A5(type 2)
  E       E    E        E   E       E    E     E       E   E    E    E      E   E    E    E
  |       |    |        |   |       |    |             |   |    |    |      |   |    |
  /       /    /        o   /       /    /             /   /    /    o      /   /    /

                                                                     |-3-|
  S    S  S S  S     S  S S S    S  S S  E     S  S    S S S  S S S  S S S  S S S  S S S  S S
|---------------------------------------------------|-10p7---10p7---10p7---10p7---10p7---10p7-|
|------7-10p7-10b12r10-10p7------7-10p7-10b12=10rp7-|------7------7------7------7------7------|
|-9b11----------------------9b11--------------------|-----------------------------------------|
|---------------------------------------------------|-----------------------------------------|
|---------------------------------------------------|-----------------------------------------|
|---------------------------------------------------|-----------------------------------------|


  B5(type 2)     B           A5(type 2)  F#m/A          A           F#m/A
   E    E  E       E    E  E  E  E         E   E  E       E    E  E E  E
   |    |  |       |    |  |  |            |   |  |       |    |  | |
   /    /  /       o    /  /  /            /   /  /       o    /  / /

                   ~~~~~~~~
   Q       E      +E   +E  E  E  E        +Q      E      +E   +Q.      S S
|-10b12---10b12==(12)r(10)-7-10-10b12==|=(12)r---10b12==(12)r(10)-----10p7-|
|--------------------------7-----------|-----------------------------------|
|--------------------------------------|-----------------------------------|
|--------------------------------------|-----------------------------------|
|--------------------------------------|-----------------------------------|
|--------------------------------------|-----------------------------------|


  F#5            F#          A5(type 2)E5          E         E5
   E    E    E   E   E   E   E   E     E   E   E   E   E   E E E
   |    |    |   |   |   |   |         |   |   |   |   |   | |
   /    /    /   o   /   /   /         /   /   /   o   /   / /

   S S  S S  S S S S S S S S S S S S   S S S S S S S S S S Q   E
|-10p7-------------------------------|----------------------------|
|------10p7-10p7---------------------|----------------------------|
|----------------9-7-9p7-------------|----------------------------|
|------------------------9-7-9p7-----|----------------------------|
|--------------------------------9-8-|-7p5-7p5---7p5-7p5---5------|
|------------------------------------|---------7---------7--------|


  B5(type 2)B       A5(type 2)   B5(type 2)             B                 B5(type 2)
  E   E   E E   E E  E    E       E        E         E   E     E     E     E        E
  |   |   | |   | |  |            |        |         |   |     |     |     |
  /   /   / o   / /  /            /        /         /   o     /     /     /

                                              ~~~~~~~~~~
  S S S S E S S E E +E    S  S    S     S  S  S     +E   S  S  E     S  S  S     S  S  S
|------------------------------|------------------------------22b24r22p19-------19-22p19-|
|---------------------------19-|-------19-22-22b24r(22)-22p19-------------22b24----------|
|---------------7--------------|-21b23---------------------------------------------------|
|-----------7h9---9-(9)/-21----|---------------------------------------------------------|
|-----5-7h9--------------------|---------------------------------------------------------|
|-5h7--------------------------|---------------------------------------------------------|


  F#m/A                      A                          F#m/A
   E        E        E        E        E        E        E           E
   |        |        |        |        |        |        |
   /        /        /        o        /        /        /

   S     S  S     S  S     S  S     S  S     S  S     S  S       S   S  S
|-------19-------19-------19-------19-------19-------19---------19--------|
|-22b24----22b24----22b24----22b24----22b24----22b24----22b24==(22)r22-22-|
|-------------------------------------------------------------------------|
|-------------------------------------------------------------------------|
|-------------------------------------------------------------------------|
|-------------------------------------------------------------------------|


  F#5                        F#                       A5(type 2)
   E        E        E       E        E       E        E      E
   |        |        |       |        |       |        |
   /        /        /       o        /       /        /

                                                       ~~~~~~~~~~
                     |------5------|  |------5------|
   S     S  S  T  T  S  S  S    S  S  S  S  S    S  S  E     +E
|----------------------------------------------------------------|
|-------19-22-19----19-22p19------19-22p19------19-22-22b24r(22)-|
|-21b23----------21------------21----------21--------------------|
|----------------------------------------------------------------|
|----------------------------------------------------------------|
|----------------------------------------------------------------|


  B5(type B)        A5(type 2F#m/A     A         F#m/A
  E  E  E E    E  E E    E   E    E  E E    E  E E   E
  |  |  | |    |  | |        |    |  | |    |  | |
  /  /  / o    /  / /        /    /  / o    /  / /

                                     ~~
  E  E  E S S  E  E S S  E   S S  E  E S S  E  E S S S S
|---22-22-----22-22-----22-|-----22-22-----22-22----------|
|--------------------------|------------------------------|
|---------2h4-------2h4----|-2h4-------2h4-------2h4-7p6--|
|--------------------------|------------------------------|
|--------------------------|------------------------------|
|--------------------------|------------------------------|


  F#5         F#            A5(type 2)E5          E       E5
  E   E   E   E     E   E   E   E     E   E   E   E   E E E E
  |   |   |   |     |   |   |         |   |   |   |   | | |
  /   /   /   o     /   /   /         /   /   /   o   / / /

                                                          ~
              |-3-|
  S S S S S S S S S S S S S S S S S   S S S S S S S S E E Q
|-----------------------------------|-------------------------|
|-----------------------------------|-------------------------|
|-7p6---7p6---7p6---7p6---7p6---7p6-|-4p2p0-4p2p0-4p2-2-------|
|-----9-----9-----9-----9-----9-----|-------------------2-2---|
|-----------------------------------|-------------------------|
|-----------------------------------|-------------------------|


     ~~~      PM--| PM  PM----|     PM---------------------
     E  S S E S S S S E S S S S   E S S S S E S S E S S E
||------------------------------|-------------------------|
||o-----------------------------|-------------------------|
||------------------------------|-------------------------|
||--(2)-----2---------2---------|-5-----------------------|
||o---------0---------2---------|-3-----------------------|
||---0--0-0---0-0-0-0---0-0-0-0-|---0-0-0-0-0-0-0-1-1-1-0-|
    +H            H


 -----|   PM----|   PM----|     PM------------------|
  E S S E S S S S E S S S S   E S S S S E S S E S S E
|---------------------------|--------------------------||
|---------------------------|-------------------------o||
|---------------------------|--------------------------||
|-------5---------2---------|-2------------------------||
|-------3---------2---------|-0-----------------------o||
|-0-0-0---0-0-0-0---0-0-0-0-|---0-0-0-0-0-0-0-1-1-1-0--||

8.Damage Inc.

Gtr I (E A D G B E) - 'James Hetfield intro dist electric'
Gtr II (E A D G B E) - 'James Hetfield dist electric'
Gtr III (E A D G B E) - 'Kirk Hammett dist electric'

Intro
 4/4
  Gtr I
  <    <      <    <      <    <      <    <       <    <
  h    h      h    h      h    h      h    h       h    h
|-5----3----|-----------|-----------|------------|-5----3----|
|-----------|-3----5----|-7----7----|-8----3-----|-----------|
|-2----4----|-4----6----|-7----4----|-5----7p==0-|-2----4----|
|-----------|-----------|-----------|------------|-----------|
|-----------|-----------|-----------|------------|-----------|
|-----------|-----------|-----------|------------|-----------|
                                      h    q.  e


  <    <       <       <      <         <       <    <      <    <
  h    q.  e   q.  s s h      q.  t t s q.  e   h    h      h    q.  e
|------------|--------------|-----------------|-5----3----|------------|
|-3----5p==3-|-7p==5p3-7----|-8p==5h7p5-3p==0-|-----------|-3----5p==3-|
|-4----6p==2-|-7-------4----|-5---------7p==0-|-2----4----|-4----6p==2-|
|------------|--------------|-----------------|-----------|------------|
|------------|--------------|-----------------|-----------|------------|
|------------|--------------|-----------------|-----------|------------|
               h       h      h         q.  e


  <     <          <         <                   <
  q.  e q  +e. s   q.  t t s h      +w           w
|----------------|----------------|------------|------|
|-7p==3-7--(7)p3-|-8p==5h7p5-3----|-(3)--------|------|
|-7-----4--------|-5p==2h4p2-0----|-(0)--------|------|
|----------------|----------------|------------|------|
|----------------|----------------|------------|------|
|----------------|----------------|------------|-0----|
  h     h


    q=190
    gtr ii
                           |-3-|
    q  q  q  q    q  q  q  e e e
||--------------|-----------------||
||o-------------|----------------o||
||--------------|-----------------||
||--2-----2-----|-2-----2--3-3-3--||
||o-2-----2-----|-2-----2--3-3-3-o||
||--0-----0-----|-0-----0--1-1-1--||


                         |-3-|
  q  q  q  q    q  q  q  e e e   q  q  q  q    q  q  q  q
|-------------|----------------|-------------|-------------|
|-------------|----------------|-------------|-------------|
|-------------|----------------|-------------|-------------|
|-2--2--2--2--|-2--2--2--3-3-3-|-2--2--2--2--|-2--2--2--2--|
|-2--2--2--2--|-2--2--2--3-3-3-|-2--2--2--2--|-2--2--2--2--|
|-0--0--0--0--|-0--0--0--1-1-1-|-0--0--0--0--|-0--0--0--0--|


  pm----------------------------|
  s s s s s s s s s s s s s s s s   e e e e e e e e
|---------------------------------|------------------|
|---------------------------------|------------------|
|---------------------------------|------------------|
|---------------------------------|---7s8---7s8---7s=|
|---------------------------------|---7s8---7s8---7s=|
|-0-0-0-0-0-0-0-0-0-0-0-0-0-0-0-0-|-5-----x-----x----|
|-rhy fig 1

      pm------------------------|
    e s s s s s s s s s s s s s s   e e e e e e e e
||--------------------------------|------------------|
||o-------------------------------|------------------|
||--------------------------------|------------------|
||--8-----------------------------|---7s8---7s8---7s=|
||o-8-----------------------------|---7s8---7s8---7s=|
||----0-0-0-0-0-0-0-0-0-0-0-0-0-0-|-5-----x-----x----|


    pm------------------------|
  e s s s s s s s s s s s s s s   e e e e e e e e
|-------------------------------|------------------|
|-------------------------------|------------------|
|-------------------------------|------------------|
|-8-----------------------------|---7s8---7s8---7s=|
|-8-----------------------------|---7s8---7s8---7s=|
|---0-0-0-0-0-0-0-0-0-0-0-0-0-0-|-5-----x-----x----|


                                 1.
    pm------------------------|
  e s s s s s s s s s s s s s s   e e e e e e e e
|-------------------------------|-----------------|
|-------------------------------|-----------------|
|-------------------------------|-----------------|
|-8-----------------------------|---5s4---5s4---5s|
|-8-----------------------------|---5s4---5s4---5s|
|---2-2-2-2-2-2-2-2-2-2-2-2-2-2-|-3-----x-----x---|


    pm------------------------|
  e s s s s s s s s s s s s s s
|--------------------------------|
|--------------------------------|
|--------------------------------|
|-4------------------------------|
|-4------------------------------|
|---0-0-0-0-0-0-0-0-0-0-0-0-0-0--|


                      2.
  e e e e e e e e     e e e e e e e e   h    h      h    h
|------------------||-----------------|-----------|-----------|
|-----------------o||-----------------|-----------|-----------|
|------------------||-----------------|-4---------|-----------|
|---7s8---7s8---7--||---5s4---5s4---5-|-4----5----|-7----5----|
|---7s8---7s8---7-o||---5s4---5s4---5-|-2----5----|-7----5----|
|-5-----x-----x----||-3-----x-----x---|------3----|-5----3----|
                                                end rhy fig 1-|

                                   7/8
  pm----------------------------|
  s s s s s s s s s s s s s s s s   e e q  q  e
|---------------------------------|-------------|
|---------------------------------|-------------|
|---------------------------------|-------------|
|---------------------------------|-------------|
|-4-4-4-4-4-4-4-4-4-4-4-4-4-4-4-4-|-4-----------|
|-2-2-2-2-2-2-2-2-2-2-2-2-2-2-2-2-|-2-----------|


   4/4
        pm------------|       pm------------|
    e e s s e e e s s e   e e s s e e e s s e
||----------------------|---------------------|
||o---------------------|---------------------|
||----------------------|---------------------|
||----------------------|---------------------|
||o-8s5-----------------|-8s5-----------------|
||--6s3-0-0-0-0-0-0-0-0-|-6s3-0-0-0-0-0-0-0-0-|
 |-rhy fig 2

                                               2/4
      pm----------|         pm------------|
  e e s s e e e s s e   e e s s e e e s s e     h
|---------------------|----------------------||------||
|---------------------|---------------------o||------||
|---------------------|----------------------||------||
|---------------------|----------------------||------||
|-8s5-----------------|-8s5-----------------o||-8----||
|-6s3-0-0-0-0-0-0-0-0-|-6s3-1-1-1-0-0-0-0-0--||-6----||
                               end rhy fig 2-|

   verse
    $
   4/4

||--
||o- rhy fig 2
||--
||--
||o-
||--

rhy fig 2 - 1st 3 bars


   s  s  s  s  s  s  s  s s s s s s s s s
|-----------------------------------------|
|-----------------------------------------|
|-----------------------------------------|
|-----------------------------------------|
|-------------------------6-6-6-6-6-6-6-6-|
|-10-10-10-10-10-10-10-10-6-6-6-6-6-6-6-6-|

rhy fig 2
rhy fig 2 - 1st 3 bars


   s  s  s  s  s  s  s  s s s s s s s s s   h    h      h    h
|-----------------------------------------|-----------|-----------|
|-----------------------------------------|-----------|-----------|
|-----------------------------------------|-4---------|-----------|
|-----------------------------------------|-4----5----|-7----5----|
|-----------------------------------------|-2----5----|-7----5----|
|-10-10-10-10-10-10-10-10-6-6-6-6-6-6-6-6-|------3----|-5----3----|


                                                         to coda
  pm------------------------------------------------------------|
  s s s s s s s s s s s s s s s s   s s s s s s s s s s s s s s e
|---------------------------------|--------------------------------|
|---------------------------------|--------------------------------|
|---------------------------------|--------------------------------|
|---------------------------------|--------------------------------|
|-4-4-4-4-4-4-4-4-4-4-4-4-4-4-4-4-|-4-4-4-4-4-4-4-4-4-4-4-4-4-4-4--|
|-2-2-2-2-2-2-2-2-2-2-2-2-2-2-2-2-|-2-2-2-2-2-2-2-2-2-2-2-2-2-2-2--|


                          pm----------------------------|
  h    h      h    h      s s s s s s s s s s s s s s s s   e e q  h
|-----------|-----------|---------------------------------|-------------|
|-----------|-----------|---------------------------------|-------------|
|-4---------|-----------|---------------------------------|-------------|
|-4----5----|-7----5----|---------------------------------|-------------|
|-2----5----|-7----5----|-4-4-4-4-4-4-4-4-4-4-4-4-4-4-4-4-|-4-----------|
|------3----|-5----3----|-2-2-2-2-2-2-2-2-2-2-2-2-2-2-2-2-|-2-----------|


  1.
                         |-3-|
  q  q  q  q    q  q  q  e e e   q  q  q  q    q  q  q  q
|-------------|----------------|-------------|--------------||
|-------------|----------------|-------------|-------------o||
|-------------|----------------|-------------|--------------||
|-2-----2-----|-2-----2--3-3-3-|-2--2--2--2--|-2--2--2--2---||
|-2-----2-----|-2-----2--3-3-3-|-2--2--2--2--|-2--2--2--2--o||
|-0-----0-----|-0-----0--1-1-1-|-0--0--0--0--|-0--0--0--0---||


  2.
  pm-------------------------------
  s s s s s s s s s s s s s s s s
|---------------------------------|
|---------------------------------|
|---------------------------------|
|---------------------------------|
|-4-4-4-4-4-4-4-4-4-4-4-4-4-4-4-4-|
|-2-2-2-2-2-2-2-2-2-2-2-2-2-2-2-2-|


                       1.,2.,3.
 -----|     pm  pm  pm      pm  pm    pm
    e e s s e e e e e   s s e e e s s e q
||--------------------|-----------------------||
||o-------------------|----------------------o||
||--------------------|-----------------------||
||--------------------|-----------------------||
||o-----7-7---8---5---|-7-7---8---7-7---8----o||
||--0-0-----0---0---0-|-----0---0-----0-6-----||
 |-rhy fig 3

  4.
      pm  pm  pm
  s s e e e e e q 
|------------------||
|------------------||
|------------------||
|---------------4--||
|-7-7---3---5---2--||
|-----0---0---0----||
     end rhy fig 3-|

rhy fig 3

bridge - rhy fig 3


 7/8          4/4
   e e e h      h    q  e  e
|------------|--------------|
|------------|--------------|
|------------|--------------|
|------------|--------------|
|-9----------|---------9\---|
|-7----------|---------7\---|


 guitar solo
   pm------------------------------|
   s  s  s  s  s  s  s  s  s  s  s  s  s  s  s  s
|-------------------------------------------------|
|-------------------------------------------------|
|-------------------------------------------------|
|-------------------------------------------------|
|-------------------------------------------------|
|--0--0--0--0--0--0--0--0--0--0--0--0--0--0--0--0-|
|-riff a
|
| gtr iii
|  s  s  s  s  s  s  s  s  s  s  s  s  s  s  s  s
|-15p12-12-15-15p14-12-15-15p14-12-15-15p14-12-12-|
|-------------------------------------------------|
|-------------------------------------------------|
|-------------------------------------------------|
|-------------------------------------------------|
|-------------------------------------------------|

w/riff a
   s  s  s  s  s  s  s  s  s  s  s  s  s  s  s  s
|-15p14-12-15-15p14-12-15-15p14-12-15-15p14-12-15-|
|-------------------------------------------------|
|-------------------------------------------------|
|-------------------------------------------------|
|-------------------------------------------------|
|-------------------------------------------------|


   s  s  s  s  s  s  s  s  s  s  s  s  s  s  s  s
|-15-15-15-15-15-14p12-15-15-15-15-15-15p14p12-12-|
|-------------------------------------------------|
|-------------------------------------------------|
|-------------------------------------------------|
|-------------------------------------------------|
|-------------------------------------------------|


   s  s  s  s  s  s  s  s  q          s   s  s  s
|-15-14-12-12-15-14-12-15-15b17----------------14-|
|-------------------------------------------15----|
|---------------------------------------/16-------|
|-------------------------------------------------|
|-------------------------------------------------|
|-------------------------------------------------|


   e    e    e    s  s  s  s  s  s s  e.
|-17---15---14---15-14-15-14----14-x---------|
|----------------------------17------17\-----|
|--------------------------------------------|
|--------------------------------------------|
|--------------------------------------------|
|--------------------------------------------|



   s  s  s  s  +s   s  s  s  +s   s e    s s  e
|-------------------------------------------------|
|-15s14-12-14-(14)-12-10-12-(12)-10-9---10-9------|
|--------------------------------------------11---|
|-------------------------------------------------|
|-------------------------------------------------|
|-------------------------------------------------|



  e    e    s s  e   e    e    s s  e
|---------------------------------------|
|-----10---10p9----------10---10p9------|
|-9-------------11---9-------------11---|
|---------------------------------------|
|---------------------------------------|
|---------------------------------------|



  e    e    s s  e   e    e    s s  e
|---------------------------------------|
|-----10---10p9----------10---10p9------|
|-9-------------11---9-------------11---|
|---------------------------------------|
|---------------------------------------|
|---------------------------------------|


   pm--------------------------------------
   s s  s s  s  s s s  s s  s s  s  s s s
|-----------------------------------------|
|-----------------------------------------|
|-----------------------------------------|
|-----------------------------------------|
|-----------------------------------------|
|--2-2--2-2--2--2-2-2--2-2--2-2--2--2-2-2-|
|-riff b
|
|  e    e    s  s e    e    e    s  s e
|-----------------------------------------|
|------12---12p10p9--------12---12p10p9---|
|-11------------------11------------------|
|-----------------------------------------|
|-----------------------------------------|
|-----------------------------------------|

w/riff b
   e   e   s  s  s  s  e   e   t  t  s  e
|------9---9---------------9---9-------------|
|------------12p10---------------12p10-------|
|-11---------------11-11---------------11----|
|--------------------------------------------|
|--------------------------------------------|
|--------------------------------------------|



   e    e    s  s e    e    e    s  s e
|-----------------------------------------|
|------12---12p10p9--------12---12p10p9---|
|-11------------------11------------------|
|-----------------------------------------|
|-----------------------------------------|
|-----------------------------------------|


|  s  s  e   s  t  t  e    e   e   s  s  s  s
|----(9)-9---9-----------------9---9-----------|
|--------------12p10-----------------12p10-----|
|-11-----------------11---11---------------11--|

|----------------------------------------------|
|----------------------------------------------|
|----------------------------------------------|


   e.        +s       +e.      +s  e   s  s  s s e
|-12b14r====(12)b14==(14)r====(12)-9---9h12-12p9-9---|
|----------------------------------------------------|
|----------------------------------------------------|
|----------------------------------------------------|
|----------------------------------------------------|
|----------------------------------------------------|


   s s s s  s s  s    s  s s  s    s  s s  s s
|-12p9-9-9-12p9-------9-12p9-------9-12p9------|
|---------------12b14--------12b14--------12---|
|----------------------------------------------|
|----------------------------------------------|
|----------------------------------------------|
|----------------------------------------------|


   s s e    s s s s  s s s s  s  s s s
|--------------------------------------|
|-10p7-0---11p8-0-0-12p9-0-0-13p10-0-0-|
|--------------------------------------|
|--------------------------------------|
|--------------------------------------|
|--------------------------------------|


   s  s e    s  s e    s  s e    s  s e
|-----------------------------------------|
|-----------------------------------------|
|-----------------------------------------|
|-----------------------------------------|
|-----------------------------------------|
|--2--2-2----3--3-3----5--5-5----6--6-6---|
|
|  s  s s s  s  s s s  s  s s s  s  s s s
|-----------------------------------------|
|-14p11-0-0-15p12-0-0-16p13-0-0-17p14-0-0-|
|-----------------------------------------|
|-----------------------------------------|
|-----------------------------------------|
|-----------------------------------------|

w/rhy fig 1
   e.        s     +e     e       +s   e.        e       +s   s
|-12--------12----(12)---12------(12)-12--------12--------------|
|-15b17-----15b17-(17)---15b17---(17)-15b17-----15b17r==(15)p12-|
|---------------------------------------------------------------|
|---------------------------------------------------------------|
|---------------------------------------------------------------|
|---------------------------------------------------------------|


         ~~~~
   q    +q     +e    e     e  e
|----------------------------14--|
|-13---(13)---(13)-(13)\-/15-----|
|--------------------------------|
|--------------------------------|
|--------------------------------|
|--------------------------------|


                                                     ~~~
   e  e    e    e       +q         e       +s   s    h.            e  e
|-15-17---17---17b19---(19)-------17b19r==(17)p14-|-15------------14-15--|
|-------------------------------------------------|----------------------|
|-------------------------------------------------|----------------------|
|-------------------------------------------------|----------------------|
|-------------------------------------------------|----------------------|
|-------------------------------------------------|----------------------|



                                 |----3----|
   e  e    e    s  s  s  s  e    e    e    e      s  s  e  e  e  q    e  e
|-17-15---14---15p14-15p14------14-------------|-------------17---------------|
|--------------------------17--------17---14---|-15p14----15------------------|
|----------------------------------------------|-------16-------14---14-16b18-|
|----------------------------------------------|------------------------------|
|----------------------------------------------|------------------------------|
|----------------------------------------------|------------------------------|


   +e   e    s  s  s  s  s  s  s  s  s  s  s  s
|-----------------------------------------------|
|------14---17p14----14-17p14----14-17p14----14-|
|-(18)------------16----------16----------16----|
|-----------------------------------------------|
|-----------------------------------------------|
|-----------------------------------------------|


   s  s  s      +s   +s   +s   e  h
|--------------------------------17b19--------|
|-17-14-17b19==(19)-(19)r(17)p14--------------|
|---------------------------------------------|
|---------------------------------------------|
|---------------------------------------------|
|---------------------------------------------|



  e  q.              q           q             q.        e     +h
|-------------------------------------------|-----------------------------|
|---15--------------15----------15----------|-15--------15----(15)--------|
|---14b16-----------14b16-------14b16-------|-14b16-----14b16-(16)--------|
|-------------------------------------------|-----------------------------|
|-------------------------------------------|-----------------------------|
|-------------------------------------------|-----------------------------|



   s  s  s  s  s  s  s  s  s  s  s  s  s  s  s  s
|-15-15-15-15-15-15-15-12-15-15-15-15-15-15p12-12-|
|-------------------------------------------------|
|-------------------------------------------------|
|-------------------------------------------------|
|-------------------------------------------------|
|-------------------------------------------------|



                           ~~~~~
   s  s  s  s  s  s  s  s  q       +e    s  s
|-15-15-15-12-15-15-12-15-15b17---(17)\-------|
|---------------------------------------10s12-|
|---------------------------------------------|
|---------------------------------------------|
|---------------------------------------------|
|---------------------------------------------|



   s  s  s  s  s  s  s  s  a  q        s  s  s  s
|-10-10-12-12s14-14-15-15-15s17-------15-15-17-17s|
|-------------------------------------------------|
|-------------------------------------------------|
|-------------------------------------------------|
|-------------------------------------------------|
|-------------------------------------------------|


   s  s  s  s  s  s  s  s  s  s  s  s  s  s  s  s
|-19-19-19-17-17-17-19-19s20-20-20-19-19-19-20-20s==|
|---------------------------------------------------|
|---------------------------------------------------|
|---------------------------------------------------|
|---------------------------------------------------|
|---------------------------------------------------|



                           |--------5---------|  |--------5---------|
   s  s  s  s  s  s  s  s  s  s    s    s     s  s  s    s     s    s
|-22-22-20-19-22-20-18-18-21-19---17---17\---20-18-16---16\---19---17-|
|---------------------------------------------------------------------|
|---------------------------------------------------------------------|
|---------------------------------------------------------------------|
|---------------------------------------------------------------------|
|---------------------------------------------------------------------|


   |------5-------|  |------5-------|   |-------6-------|   |--3--|
|  s  s   s    s  s  s   s  s    s  s   s  s  s   s  s  s   s  s  s  +e
|-15-15\-18---16-14-14\-17-15---13-13\-16p14p12\-15p13p12\-14p12p10-(10)-|
|------------------------------------------------------------------------|
|------------------------------------------------------------------------|
|------------------------------------------------------------------------|
|------------------------------------------------------------------------|
|------------------------------------------------------------------------|


  h    h      h    h
|-----------|-------------|
|-----------|-------------|
|-4---------|-------------|
|-4----5----|-7----5------|
|-2----5----|-7----5------|
|------3----|-5----3------|
|
| w           h    q  e e
|-----------|-------------|
|-----------|-----------0-|
|-----------|-------------|
|-----------|-------------|
|-----------|-------------|
|-----------|-------------|


w/riff b
   t         t         t         t         t         t         t         t
   |-------6--------|  |-------6--------|  |-------6--------|  |-------6--------|
   s  s   s  s  s   s  s  s   s  s  s   s  s s    s  s s    s  s s    s  s s    s
|---------------------------------------------------------------------------------|
|-12p10p==7-12p10p==7-13p10p==7-13p10p==7-14p7h==10-14p7h==10-15p7h==10-15p7h==10-|
|---------------------------------------------------------------------------------|
|---------------------------------------------------------------------------------|
|---------------------------------------------------------------------------------|
|---------------------------------------------------------------------------------|


   t         t         t         t         t         t         t
   |-------6--------|  |-------6--------|  |-------6--------|
   s s    s  s s    s  s s    s  s s    s  s s    s  s s    s  q
|--------------------------------------------------------------------------|
|-16p7h==10-16p7h==10-16p7h==10-16p7h==10-16p7h==10-16p7h==10-16\----------|
|--------------------------------------------------------------------------|
|--------------------------------------------------------------------------|
|--------------------------------------------------------------------------|
|--------------------------------------------------------------------------|




  gtrs ii, iii
  h    h      h    h
|-----------|-----------|
|-----------|-----------|
|-4---------|-----------|
|-4----5----|-7----5----|
|-2----5----|-7----5----|
|------3----|-5----3----|


  pm----------|   pm------------------------|   pm--------|
  e s s +s  s e e s s +s  s e   e s s +s  s e e s s +s  s e
|-----------------------------|-----------------------------|
|-----------------------------|-----------------------------|
|-----------------------------|-----------------------------|
|-----------------------------|-----------------------------|
|-4-4-4-(4)-4-4-5-5-5-(5)-5-5-|-7-7-7-(7)-7-7-8-8-8-(8)-8-8-|
|-2-2-2-(2)-2-2-3-3-3-(3)-3-3-|-5-5-5-(5)-5-5-6-6-6-(6)-6-6-|


    pm|     pm  pm  pm      pm  pm    pm
    e e s s e e e e e   s s e e e s s e q
||--------------------|--------------------|
||o-------------------|--------------------|
||--------------------|--------------------|
||--------------------|--------------------|
||o-----7-7---8---5---|-7-7---8---7-7---8--|
||--0-0-----0---0---0-|-----0---0-----0-6--|


                     1.
  pm|     pm  pm  pm      pm  pm    pm
  e e s s e e e e e   s s e e e s s e q
|-------------------|---------------------||
|-------------------|--------------------o||
|-------------------|---------------------||
|-------------------|-----------------7---||
|-----7-7---8---5---|-7-7---8---7-7---5--o||
|-0-0-----0---0---0-|-----0---0-----0-----||


  2.
      pm  pm    pm
  s s e e e s s e q    h    h      h    h
|--------------------|-----------|-----------|
|--------------------|-----------|-----------|
|--------------------|-4---------|-----------|
|-----------------4--|-4----5----|-7----5----|
|-7-7---3---5-5---2--|-2----5----|-7----5----|
|-----0---0-----0----|------3----|-5----3----|


                    d.s. al coda
  s s s s s s s s s s s s s s s s
|---------------------------------|
|---------------------------------|
|---------------------------------|
|---------------------------------|
|-4-4-4-4-4-4-4-4-4-4-4-4-4-4-4-4-|
|-2-2-2-2-2-2-2-2-2-2-2-2-2-2-2-2-|


 outro
  &
                          pm----------------------------|
  h    h      h    h      s s s s s s s s s s s s s s s s
|-----------|-----------|----------------------------------|
|-----------|-----------|----------------------------------|
|-4---------|-----------|----------------------------------|
|-4----5----|-7----5----|----------------------------------|
|-2----5----|-7----5----|-4-4-4-4-4-4-4-4-4-4-4-4-4-4-4-4--|
|------3----|-5----3----|-2-2-2-2-2-2-2-2-2-2-2-2-2-2-2-2--|


                                       |-3-|
  e e q  h      q  q  q  q    q  q  q  e e e   e e q  h
|-------------|-------------|----------------|-------------*|
|-------------|-------------|----------------|-------------*|
|-------------|-------------|----------------|-------------*|
|-------------|-2-----2-----|-2-----2--3-3-3-|-3-----------*|
|-4-----------|-2-----2-----|-2-----2--3-3-3-|-3-----------*|
|-2-----------|-0-----0-----|-0-----0--1-1-1-|-1-----------*|
comments
print report bad tab
7 comments total. Showing first comments.
0 reply
Maitinin wrote on January 22 2007, 11:26 am

great tab, I suppose you just copied it from here: http://mikesguitarsite.co.uk/tabs/metallica/ ...but great tab nevertheless!

0 reply
I was here wrote on January 28 2007, 07:03 pm

God damn it, i submitted the master of puppets album like around november and they rejected it :(

But nice tab

0 reply
aliceinchains42 wrote on April 23 2007, 05:13 pm

nice greatest one

I want to post or [tab]
guest
You may want to rate the tab now too:
select rating
Please do not post tabs as comments. Select "correction" instead!