Oops, an error
Loading. Please wait.

Master Of Puppets Tab

ver2
44,428 views 36 this week
no commentswrite comment
1 2 3 4 5
accurate
x 18
Autoscroll
+/-
esc
set tempo
stop
Contributor
WARNING: You are trying to view
                                    content from Ultimate-Guitar.com
                                    in an unauthorized application,
                                    which is prohibited.

                                    Please use an official Ultimate
                                    Guitar Tabs application for iPhone,
                                    iPad or Android to access legitimate
                                    chords, guitar, bass, and drum tabs
                                    from Ultimate-Guitar.com database.

                                    Type "ultimate guitar tabs" in Apple
                                    App Store's or Android Market's
                                    search to find the application.
#----------------------------------PLEASE NOTE---------------------------------#
#This file is the author's own work and represents their interpretation of the #
#song. You may only use this file for private study, scholarship, or research. #
#------------------------------------------------------------------------------#

                                MASTER OF PUPPETS
                            As recorded by Metallica
                     (From the 1986 Album MASTER OF PUPPETS)


Music by Metallica
Transcribed by Zac Broaddus & Jon Symons

           E                   Em                 Emopen                 D5
     x x x x 17 x         x x x x 17 15         0 2 2 0 0 0          x 5 7 7 x x

          C5                   A5                   B5                   Eb5
      x 3 5 5 x x          x 0 2 2 x x          x 2 4 4 x x          x 6 8 8 x x

Gtr I (E A D G B E) - 'James(clean)'
Gtr II (E A D G B E) - 'James'
Gtr III (E A D G B E) - 'Kirk'

 Intro
  Fast Rock Q=220
  E5         D5 C#5C5                    E5
 4/4
                                         Gtr III
                                         |
                                         /

  Gtrs II, III                           Gtr II
                                         PM------------|
|----------|------------|------------||------------------|
|----------|------------|------------||o-----------------|
|-9--------|-7--6--5----|-(5)--------||------------------|
|-9--------|-7--6--5----|-(5)--------||------------------|
|-7--------|-5--4--3----|-(3)--------||o-----7-----6-----|
|-0--------|------------|------------||--0-0---0-0---0-0-|


  D5 C#5C5                                   E5
  |  |  |                                    |
  /  /  /                                    /

               PM----------------------------|
                                                  4x
|------------|-----------------|------------------||
|------------|-----------------|-----------------o||
|-7--6--5----|-----------------|------------------||
|-7--6--5----|-----------------|------------------||
|-5--4--3----|-----------------|-----------------o||
|------------|-0-0-7-0-0-6-0-0-|-5-0-4-0-3-0-2-0--||


    N.C.                                                  G5F#5 G5F#5 G5F#5
    Gtr II                                                Gtrs II, III
    PM------------------------------------------------|       PM    PM
||------------------|-----------------|-----------------|-------------------||
||o-----------------|-----------------|-----------------|------------------o||
||------------------|-----------------|-----------------|-------------------||
||------------------|-----------------|-----------------|-------------------||
||o-----2-----3-----|-4-----3-----2-2-|-----2-----3-----|-5s4---5s4---5s4--o||
||--0-1---0-1---0-1-|---0-1---0-1-----|-0-1---0-1---1-0-|-3s2-0-3s2-0-3s2---||


    N.C.                                                              B5
    PM--------------------------------------------------------------|
||------------------|-----------------|-----------------|-----------------
||o-----------------|-----------------|-----------------|-----------------
||------------------|-----------------|-----------------|-------------4---
||------------------|-----------------|-----------------|-------------4---
||o-----2-----3-----|-4-----3-----2-2-|-----2-----3-----|-4-----3-----2---
||--0-1---0-1---0-1-|---0-1---0-1-----|-0-1---0-1---0-1-|---0-1---1-0-----


  N.C.                                                  G5F#5 G5F#5 G5F#5
  PM------------------------------------------------|       PM    PM
|-----------------|-----------------|-----------------|------------------||
|-----------------|-----------------|-----------------|-----------------o||
|-----------------|-----------------|-----------------|------------------||
|-----------------|-----------------|-----------------|------------------||
|-----2-----3-----|-4-----3-----2-2-|-----2-----3-----|-5s4---5s4---5s4-o||
|-0-1---0-1---0-1-|---0-1---0-1-----|-0-1---0-1---1-0-|-3s2-0-3s2-0-3s2--||


  G5F#5 G5F#5 G5F#5 N.C.
  Gtr II
      PM    PM
|-----------------|-----------------|-------------------|
|-----------------|-----------------|-------------------|
|-----------------|-----------------|-------------------|
|-----------------|-2---------------|-------------------|
|-5s4---5s4---5s4-|-2---------------|-------------------|
|-3s2-0-3s2-0-3s2-|-0---------------|-------------------|
|
| Gtr III
|     PM    PM      PM--------------------------| ~~~~~~
|-----------------|-----------------|-------------------|
|-----------------|-----------------|-------------------|
|-----------------|-----------------|-------------------|
|-----------------|-----8-----8-----|-8-----8-----8-(8)-|
|-5s4---5s4---5s4-|---7-----7-----7-|-----7-----7-------|
|-3s2-0-3s2-0-3s2-|-0-----0-----0---|---0-----0---------|


    N.C.                G5A5  BbA5G5A5  N.C.                G5A5G5A5
                                                         5/8
    Gtrs II, III
    PM----------------|                 PM----------------|
||------------------|-----------------|-----------------|-------------||
||o-----------------|-----------------|-----------------|------------o||
||------------------|-----------------|-----------------|-------------||
||------------------|-----------------|-----------------|-------------||
||o-----------------|---5s7---8s7-5s7-|-----------------|---5s7-5s7--o||
||--0-0-0-0-0-0-0-0-|-0-3s5-0-6s5-3s5-|-0-0-0-0-0-0-0-0-|-0-3s5-3s5---||


   Verse
    $
    N.C.                G5A5  BbA5G5A5  N.C.                G5A5G5A5
   4/4                                                   5/8
    Gtrs II, III
    PM----------------|                 PM----------------|
                                                                     4x
||------------------|-----------------|-----------------|------------||
||o-----------------|-----------------|-----------------|-----------o||
||------------------|-----------------|-----------------|------------||
||------------------|-----------------|-----------------|------------||
||o-----------------|---5s7---8s7-5s7-|-----------------|---5s7-5s7-o||
||--0-0-0-0-0-0-0-0-|-0-3s5-0-6s5-3s5-|-0-0-0-0-0-0-0-0-|-0-3s5-3s5--||


  $$
  N.C.                F#B5AC5B5F#B5A N.C.                F#m/A
 4/4                                                  5/8
  PM----------------|                PM----------------|
|-----------------|----------------|-----------------|-----------|
|-----------------|----------------|-----------------|-----------|
|-----------------|----------------|-----------------|-----------|
|-----------------|---4-4--5s4-4-4-|-----------------|---4---4---|
|-----------------|---0-2--3s2-0-2-|-----------------|---0h2-0h2-|
|-2-2-2-2-2-2-2-2-|-2--------------|-2-2-2-2-2-2-2-2-|-2---------|


  N.C.                F#B5AC5B5F#B5A
 4/4
  PM----------------|
|-----------------|----------------|
|-----------------|----------------|
|-----------------|----------------|
|-----------------|---4-4--5s4-4-4-|
|-----------------|---0-2--3s2-0-2-|
|-2-2-2-2-2-2-2-2-|-2--------------|


  N.C.                F#m/A     B5
                   5/8         4/4
  PM----------------|           PM------|
|-----------------|-----------|------------------||
|-----------------|-----------|------------------||
|-----------------|-----------|-4-4-4-4-4-4-4-4--||
|-----------------|---4---4---|-4-4-4-4-4-4-4-4--||
|-----------------|---0h2-0h2-|-2-2-2-2-2-2-2-2--||
|-2-2-2-2-2-2-2-2-|-2---------|------------------||


 Pre-Chorus
  E5      D5 E5   N.C.                      C5  B5   C#5     Eb5B5
  PM----|                     ~~
|---------------|-----------------|----------------|---------------||
|---------------|-----------------|----------------|---------------||
|-9-------7--9--|-----------------|----------------|---------8-----||
|-9-------7--9--|-----9-----------|---------10--9--|---------8--9--||
|-7-------5--7--|-7-9---10-9h10---|---------10--9--|---------6--9--||
|-0-0-0-0-------|-----------------|-8-8-8-8--8--7--|-8-8-8-8----7--||


                                                      1.,2.
    E5      D5 E5   N.C.                      C5  B5   N.C.    Eb5B5
    PM----|                     ~~
                                                                       3x
||----------------|-----------------|----------------|-----------------||
||o---------------|-----------------|----------------|----------------o||
||--9-------7--9--|-----------------|----------------|---------8-------||
||--9-------7--9--|-----9-----------|---------10--9--|---------8--9----||
||o-7-------5--7--|-7-9---10-9h10---|---------10--9--|---------6--9---o||
||--0-0-0-0-------|-----------------|-8-8-8-8--8--7--|-8-8-8-8----7----||


                                          Chorus
  3.
                  E5          F5           E5
                                                    PM--|
|---------------|-----------|-----------||----------------|
|---------------|-----------|-----------||----------------|
|---------------|-----------|-----------||----------------|
|-7-5-4--4------|-2--2------|-3--3------||-2----(2)-------|
|-9-7-6--6-7-6--|-2--2------|-3--3------||-2----(2)-------|
|----------8-7--|-0--0------|-1--1------||-0----(0)-0-0-0-|


            G5                      C5       N.C.    B5N.C.
 2/4       4/4                                      2/4
      PM|                                    PM--|     PM--|
|---------|----------|------------|----------------|----------|
|---------|----------|------------|----------------|----------|
|---------|----------|------------|-5----(5)-------|----------|
|---------|-5--------|-(5)--------|-5----(5)-------|-4--------|
|---------|-5--------|-(5)--------|-3----(3)-0-0-0-|-2-0-0-0--|
|-2p0-0-0-|-3--------|-(3)--------|----------------|----------|


  A5                      D5       N.C.    C5N.C.    B5
 4/4                                      2/4       4/4
                                   PM--|     PM--|
|----------|------------|----------------|---------|------|
|----------|------------|----------------|---------|------|
|-2--------|-(2)--------|-7----(7)-------|---------|-4----|
|-2--------|-(2)--------|-7----(7)-------|-5-------|-4----|
|-0--------|-(0)--------|-5----(5)-------|-3-------|-2----|
|----------|------------|----------3-3-3-|---3-3-3-|------|


  E5               D5 N.C.  C5                  E5
                  2/4      4/4        2/4      4/4
           PM--|      PM|
|----------------|--------|----------|--------|-----------|
|----------------|--------|----------|--------|-----------|
|-9----(9)-------|-7------|-5--------|-(5)----|-----------|
|-9----(9)-------|-7------|-5--------|-(5)----|-2--2------|
|-7----(7)-------|-5------|-3--------|-(3)----|-2--2------|
|-0----(0)-0-0-0-|----0-0-|----------|--------|-0--0------|


  F5          E5                         C5
                              2/4       4/4
                       PM--|       PM|
|-----------|----------------|---------|----------|--------|
|-----------|----------------|---------|----------|--------|
|-----------|----------------|---------|-5--------|-(5)----|
|-3--3------|-2----(2)-------|---------|-5--------|-(5)----|
|-3--3------|-2----(2)-------|---------|-3--------|-(3)----|
|-1--1------|-0----(0)-0-0-0-|-2p0-0-0-|----------|--------|


     To CTo Dbl. Coda
  E5          F5            N.C.
                            PM------------------------------|
|-----------|-----------||------------------|-----------------|
|-----------|-----------||o-----------------|-----------------|
|-----------|-----------||------------------|-----------------|
|-2--2------|-3--3------||------------------|-----------------|
|-2--2------|-3--3------||o-----2-----3-----|-4-----3-----2-2-|
|-0--0------|-1--1------||--0-1---0-1---0-1-|---0-1---0-1-----|


                   1.                  2.
                                                           D.S. al Coda
                                       G5F#5 G5F#5 G5F#5 G5F#5 G5F#5 G5F#5
  PM--------------------------|            PM    PM          PM    PM
|-----------------|-----------------||-----------------|-----------------|
|-----------------|----------------o||-----------------|-----------------|
|-----------------|-------------4---||-----------------|-----------------|
|-----------------|-------------4---||-----------------|-----------------|
|-----2-----3-----|-4-----3-----2--o||-5s4---5s4---5s4-|-5s4---5s4---5s4-|
|-0-1---0-1---0-1-|---0-1---1-0-----||-3s2-0-3s2-0-3s2-|-3s2-0-3s2-0-3s2-|


  &
  F5
 4/4
|-----------|---------|-----|
|-----------|---------|-----|
|-----------|---------|-----|
|-3--3------|---------|-----|
|-3--3------|---------|-----|
|-1--1------|---------|-----|


 Interlude
  Slower Q=110
  Em        Dsus2                 Cadd9
 2/4       4/4
  Gtr I
|---------|---------0h2p0-----3-|-------------------|
|---------|-----3---------3-----|-------3---3-----0-|
|-------0-|---2---2---------2p0-|-(0)-0---0---0-----|
|-----2---|-0-------------------|---------------2---|
|---2-----|---------------------|--3----------------|
|-0-------|---------------------|-------------------|


  Asus2     B           B7
                       2/4
|---------------------|-------------|
|-(0)---0---(0)---0---|-(0)---0-----|
|-----2---------2-----|-----2-------|
|---------------------|--1----------|
|--0------0--2------2-|-------------|
|---------------------|---------3---|


  Em        Dsus2                 Cadd9
 2/4       4/4
  Gtr I
|---------|---------0h2p0-----3-|-------------------|
|---------|-----3---------3-----|-------3---3-----0-|
|-------0-|---2---2---------2p0-|-(0)-0---0---0-----|
|-----2---|-0-------------------|---------------2---|
|---2-----|---------------------|--3----------------|
|-0-------|---------------------|-------------------|
|
| Gtr III
| <         <                      <
|---------|---------------------|-------------------|
|---------|---------------------|-------------------|
|---------|---------------------|-------------------|
|-2-------|-4-------------------|--5----------------|
|---------|---------------------|-------------------|
|---------|---------------------|-------------------|


  Asus2     B           B7
                       2/4
|---------------------|-------------|
|-(0)---0---(0)---0---|-(0)---0-----|
|-----2---------2-----|-----2-------|
|---------------------|--1----------|
|--0------0--2------2-|-------------|
|---------------------|---------3---|
|
|  <         <           <
|---------------------|-------------|
|---------------------|-------------|
|--2---------4--------|--8----------|
|---------------------|-------------|
|---------------------|-------------|
|---------------------|-------------|


   2/4           4/4
||--------------|------------------0h2p0--------3-|-----------------------------|
||o-------------|---------3---------------3-------|---------3--------3--------0-|
||------------0-|------2-----2---------------2p=0-|-(0)--0-----0--------0-------|
||---------2----|--0------------------------------|------------------------2----|
||o-----2-------|---------------------------------|--3--------------------------|
||---0----------|---------------------------------|-----------------------------|
|
|   Gtr II
||-----19-19----|-20--17-----------------20-17----|-19--15-------------19-15----|
||o-20-24-20-20-|-22--19-19-19-19-19-----22-19-19-|-20--17-17-17-17-17-20-17-17-|
||--21-------21-|--------19-19-19-19-----------19-|--------17-17-17-17-------17-|
||--------------|---------------------------------|-----------------------------|
||o-------------|---------------------------------|-----------------------------|
||--------------|---------------------------------|-----------------------------|
|
|   Gtr III
|    <
||--------------|---------------------------------|-----------------------------|
||o-------------|---------------------------------|-----------------------------|
||---9----------|-(9)-----------------------------|-----------------------------|
||--------------|---------------------------------|-----------------------------|
||o-------------|---------------------------------|-----------------------------|
||--------------|---------------------------------|-----------------------------|


                                   2/4
|---------------------------------|------------------||
|-(0)-----------0----(0)-----0----|-(0)-----0-------o||
|------2------------------2-------|------2-----------||
|---------------------------------|--1---------------||
|--0---------------0--2---------2-|-----------------o||
|---------------------------------|------------3-----||
|
|-17--15h17p15-14-----------14----|-14--15-17-19-----||
|-19--17h19p17-16-17-16--17----17-|-16--17-19-20----o||
|-----------------17-16--17-19-17-|------------------||
|---------------------------------|------------------||
|---------------------------------|-----------------o||
|---------------------------------|------------------||
|
|---------------------------------|------------------||
|---------------------------------|-----------------o||
|---------------------------------|------------------||
|---------------------------------|------------------||
|---------------------------------|-----------------o||
|---------------------------------|------------------||


  Em
 2/4            4/4
  Gtr II
   |              |
   /              /

  Gtr I
|--------------|---------------0h2p=0-------------3-------|
|--------------|------3---------------3-------------------|
|---------0----|----2----2------------------2p====0-------|
|------2-------|--0---------------------------------------|
|----2---------|------------------------------------------|
|--0-----------|------------------------------------------|
|
| Gtr III
|                 ~~
|-----------14-|-15-----14-15-17---15---14-19-15-12h15p12-|
|-17-----17----|------------------------------------------|
|--------------|------------------------------------------|
|--------------|------------------------------------------|
|--------------|------------------------------------------|
|--------------|------------------------------------------|


|----------------------------------------|---------------------------------------|
|-------3---------3-------------------0--|--0--------0----------(0)-----0--------|
|-(0)-0---0--------------0---------------|--------2-----------------2------------|
|-----------------------------2----------|---------------------------------------|
|--3-------------------------------------|--0--------------0-----2-------------2-|
|----------------------------------------|---------------------------------------|
|
|  ~~~~~~~~~~~~~~                                                ~~~~~~~~~~
|----------------------------------------|-15-14----15-14------------------------|
|-13--------(13)-15b17r(15)-(15)b17r(15)-|-------12-------12h15p12----(12)-------|
|----------------------------------------|---------------------------------12-14-|
|----------------------------------------|---------------------------------------|
|----------------------------------------|---------------------------------------|
|----------------------------------------|---------------------------------------|


 2/4
|-----------------------------------------------|-----------|
|-(0)-----------------------0-------------------|-----------|
|--------------2--------------------------------|---------0-|
|--1--------------------------------------------|------2----|
|-----------------------------------------------|----2------|
|------------------------------------------3----|--0--------|
|
|                                                  ~~
|-----------------------------------------------|-----------|
|-15--------------------------------------------|-----------|
|-14b16r(14)-(14)b16r(14)-(14)b16r(14)-12----12-|-----------|
|-----------------------------------------14----|-14-----12-|
|-----------------------------------------------|-----------|
|-----------------------------------------------|-----------|


 4/4
|-----------------0h2p0--------3-------|--------------------------|
|----------3-------------3-------------|------3-------3-----0-----|
|----2---------2------------2p=0-------|--0-0----0------0---------|
|--0-----------------------------------|------------------2-------|
|--------------------------------------|--3-----------------------|
|--------------------------------------|--------------------------|
|
|                 ~~~                     ~~
|--------------------------------------|--------------------------|
|--------------------------------------|--------------------------|
|-12---14-12--11--------14-12-11h12p11-|--------------------------|
|----------------12--------------------|-10--------9-10-----9-10--|
|--------------------------------------|--------12----------------|
|--------------------------------------|--------------------------|


                                      2/4
|------------------------------------|--------------------|
|--0----------0---------(0)-----0----|-(0)----------0-----|
|-------2--------------------2-------|-----------2--------|
|------------------------------------|--1-----------------|
|--0---------------0-----2---------2-|--------------------|
|------------------------------------|------------------3-|
|
|------------------------------15-14-|-11h12p11-------/19-|
|-----------------------12-----------|----------12-10-----|
|---------------11---12-----12-------|--------------------|
|-12-10---12-14----------------------|--------------------|
|------------------------------------|--------------------|
|------------------------------------|--------------------|


    E
   2/4           4/4
    Gtr III
     |             |
     /             /

||--------------|-----------------0h2p0--------3-|-----------------------------|
||o-------------|--------3---------------3-------|---------3--------3--------0-|
||------------0-|-----2-----2---------------2p=0-|-(0)--0-----0--------0-------|
||---------2----|--0-----------------------------|------------------------2----|
||o-----2-------|--------------------------------|--3--------------------------|
||---0----------|--------------------------------|-----------------------------|
|
|   Gtr II
||-----19-19----|-20-17-----------------20-17----|-19--15-------------19-15----|
||o-20-24-20-20-|-22-19-19-19-19-19-----22-19-19-|-20--17-17-17-17-17-20-17-17-|
||--21-------21-|-------19-19-19-19-----------19-|--------17-17-17-17-------17-|
||--------------|--------------------------------|-----------------------------|
||o-------------|--------------------------------|-----------------------------|
||--------------|--------------------------------|-----------------------------|


                                   2/4
|---------------------------------|------------------||
|-(0)-----------0----(0)-----0----|-(0)-----0-------o||
|------2------------------2-------|------2-----------||
|---------------------------------|--1---------------||
|--0---------------0--2---------2-|-----------------o||
|---------------------------------|------------3-----||
|
|-17--15h17p15-14-----------14----|-14--15-17-19-----||
|-19--17h19p17-16-17-16--17----17-|-16--17-19-20----o||
|-----------------17-16--17-19-17-|------------------||
|---------------------------------|------------------||
|---------------------------------|-----------------o||
|---------------------------------|------------------||


    Emopen    D5
   2/4       4/4
    Gtr III
    |         |
    /         /

    Gtr II
      PM------------|
||----------|---------0h2p0-----3-|
||o---------|-----3---------3-----|
||--------0-|---2---2---------2p0-|
||------2---|-0-------------------|
||o---2-----|---------------------|
||--0-------|---------------------|


  C5                A5      B5        Eb5
                                     2/4
  |                 |       |         |
  /                 /       /         /

  PM----------------------------------------|
|-----------------|-----------------|-----------||
|-----3---3-----0-|-----0-------0---|-----0----o||
|---0---0---0-----|---2-------2-----|---2-------||
|-------------2---|-----------------|-1---------||
|-3---------------|-0-----0-2-----2-|----------o||
|-----------------|-----------------|-------3---||


  E5                                    F#5 G5F#5   G5C#    F#5 G5F#5   G5C#5
 4/4
  PM------------------------|           PM--------------------------------|
                                                                              6x
|-----------------|-----------------||--------------------|-------------------||
|-----------------|-----------------||o-------------------|------------------o||
|-----------------|-----------------||--------------------|-------------------||
|-2-2-2-2-2-2-2-2-|-2-2-2-2-2-2-2-2-||--------------------|---------------6---||
|-2-2-2-2-2-2-2-2-|-2-2-2-2-2-2-2-2-||o-4-4-5-4-4-4-5-4-4-|-4-4-5-4-4-4-5-4--o||
|-0-0-0-0-0-0-0-0-|-0-0-0-0-0-0-0-0-||--2-2-3-2-2-2-3-----|-2-2-3-2-2-2-3-----||


  Double Time Q=220
  G5                      F#5
                                     Pick Slide
|----------|------------|----------|----------------------------------||
|----------|------------|----------|----------------------------------||
|----------|------------|----------|----------------------------------||
|-5--------|-(5)--------|-4--------|-xsxsxsxsxsxsxsxsxsxsxsxsxsxsxsx--||
|-5--------|-(5)--------|-4--------|-xsxsxsxsxsxsxsxsxsxsxsxsxsxsxsx--||
|-3--------|-(3)--------|-2--------|-xsxsxsxsxsxsxsxsxsxsxsxsxsxsxsx--||


 Guitar Solo
  N.C.
  Gtr III
|-17p12--------------12-17p12--------------12-|
|---------13-12-13--------------13-12-13------|
|---------------------------------------------|
|---------------------------------------------|
|---------------------------------------------|
|---------------------------------------------|
|
| Gtr II
|  PM------------------------------------------
|---------------------------------------------|
|---------------------------------------------|
|---------------------------------------------|
|---------------------------------------------|
|---------------------------------------------|
|--0----0-----0----0-----0----0-----0----0----|


        G5   A5         Bb5   A5   G5    A5     N.C.
|-17p12--------------12-15p12--------------12-|-17p12--------------12-17p12--------------12-|
|---------13-12-13--------------13-12-13------|---------13-12-13--------------13-12-13------|
|---------------------------------------------|---------------------------------------------|
|---------------------------------------------|---------------------------------------------|
|---------------------------------------------|---------------------------------------------|
|---------------------------------------------|---------------------------------------------|
|
|-|                                              PM------------------------------------|
|---------------------------------------------|---------------------------------------------|
|---------------------------------------------|---------------------------------------------|
|---------------------------------------------|---------------------------------------------|
|---------------------------------------------|---------------------------------------------|
|-------5s====7----------8s===7-----5s===7----|---------------------------------------------|
|--0----3s====5----0-----6s===5-----3s===5----|--0----0-----0----0-----0----0-----0----0----|


        G5   A5    G5    A5      N.C.
 5/8                            4/4
|-17p12---------12-12-15p12----|-----19---19-17-17-17-17-15-15---15-14-14-14-14-|
|---------13-12-------------13-|-/17--------------------------------------------|
|------------------------------|------------------------------------------------|
|------------------------------|------------------------------------------------|
|------------------------------|------------------------------------------------|
|------------------------------|------------------------------------------------|
|
|  PM                              PM--------------------------------------------
|------------------------------|------------------------------------------------|
|------------------------------|------------------------------------------------|
|------------------------------|------------------------------------------------|
|------------------------------|------------------------------------------------|
|-------5s====7-----5s====7----|------------------------------------------------|
|--0----3s====5-----3s====5----|---0----0-----0-----0-----0----0-----0-----0----|


        G5   A5          Bb5   A5    G5 A5
|-17-17---17-15-15-15-14-14-14-14-14-----------|
|------------------------------------15-15-17--|
|----------------------------------------------|
|----------------------------------------------|
|----------------------------------------------|
|----------------------------------------------|
|
|-|
|----------------------------------------------|
|----------------------------------------------|
|----------------------------------------------|
|----------------------------------------------|
|-------5s====7-----------8s====7-----5s=7-----|
|--0----3s====5-----0-----6s====5-----3s=5-----|


  N.C.                                                          G5   A5  G5A5
                                                         5/8
|-------------------------------------------17h19\------|--------------------|
|-17b19r==(17)b19r(17)b19==(17)r-17p15p==14----------17-|-15-14--------------|
|-------------------------------------------------------|---------16-14\-----|
|-------------------------------------------------------|--------------------|
|-------------------------------------------------------|--------------------|
|-------------------------------------------------------|--------------------|
|
|  PM-----------------------------------------------------|
|-------------------------------------------------------|--------------------|
|-------------------------------------------------------|--------------------|
|-------------------------------------------------------|--------------------|
|-------------------------------------------------------|--------------------|
|-------------------------------------------------------|-------5s====7--5s7-|
|--0----0-----------0--------0----0----0-----0-----0----|--0----3s====5--3s5-|


  N.C.                                       G5A5    Bb5    A5  G5   A5
 4/4
         \3_____/   \1.5  /   /2_________/7_______|   /  \1  \2
         ~~~~~~~~~~                                          ~~~
|-------------------------------------|-----------------------------------|
|-------------------------------------|-----------------------------------|
|-[2]---(2)----(2)-(2)---(2)-(2)--(2)-|-(2)------(2)-(2)(2)-(2)-(2)2---4--|
|-------------------------------------|-----------------------------------|
|-------------------------------------|-----------------------------------|
|-------------------------------------|-----------------------------------|
|
|  PM-----------------------------------|
|-------------------------------------|-----------------------------------|
|-------------------------------------|-----------------------------------|
|-------------------------------------|-----------------------------------|
|-------------------------------------|-----------------------------------|
|-------------------------------------|------5s7------8s=====7---5s==7----|
|--0--0--0---0--0---0---------0----0--|--0---3s5--0---6s=====5---3s==5----|


  N.C.                          G5A5  G5A5
                             5/8
|---------------------------|-------------|
|---------------------------|-------------|
|-2b4==(2)r-4-3-2-0s2-------|-------------|
|---------------------4-2---|-2h4-(4)-----|
|-------------------------2-|-------------|
|---------------------------|-------------|
|
| PM--------------------------|
|---------------------------|-------------|
|---------------------------|-------------|
|---------------------------|-------------|
|---------------------------|-------------|
|---------------------------|---5s=7--5s7-|
|-0---------0-0-0---0-0-0-0-|-0-3s=5--3s5-|


  N.C.                   G5A5   Bb5A5  G5  A5
 4/4
|-10-8-7----8-7------|--------7-(7)7-7-7-7-7-7--|
|--------10-----10-8-|-7-8-10-------------------|
|--------------------|--------------------------|
|--------------------|--------------------------|
|--------------------|--------------------------|
|--------------------|--------------------------|
|
|  PM------------------|
|--------------------|--------------------------|
|--------------------|--------------------------|
|--------------------|--------------------------|
|--------------------|--------------------------|
|--------------------|---5s=7----8s7---5s==7----|
|--0-0-0--0-0-0--0-0-|-0-3s=5-0--6s5---3s==5----|


  N.C.                                               G5    A5    G5    A5
                                              5/8
|-7-10-8-7-10-8-7-8-12-10-10-8-12-10-8h10-10-|-14-12-10-14-10-12-15-15-12s14-|
|--------------------------------------------|-------------------------------|
|--------------------------------------------|-------------------------------|
|--------------------------------------------|-------------------------------|
|--------------------------------------------|-------------------------------|
|--------------------------------------------|-------------------------------|
|
| PM-------------------------------------------|
|--------------------------------------------|-------------------------------|
|--------------------------------------------|-------------------------------|
|--------------------------------------------|-------------------------------|
|--------------------------------------------|-------------------------------|
|--------------------------------------------|--------5s====7-----5s====7----|
|-0----0----0---0----0-----0----0-------0----|--0-----3s====5-----3s====5----|


  N.C.
 4/4
|-17-15-14-19-17-14---14-17-16-14-14-19-17-14-14---|
|--------------------------------------------------|
|--------------------------------------------------|
|--------------------------------------------------|
|--------------------------------------------------|
|--------------------------------------------------|
|
|  PM--------------------------------------|
|--------------------------------------------------|
|--------------------------------------------------|
|--------------------------------------------------|
|--------------------------------------------------|
|--------------------------------------------------|
|--2-----2-----2----2-----2-----2-----2-----2------|


          F#m/A   B5              C5      B5      F#m/A   B5     N.C.
  Gtr III
|17--16--14--14--19--17--14--14--17--16--14--14--19--17--14--14|14------(14)---14-----------------14-------------------------------------14|
|--------------------------------------------------------------|17b19===(17)r------17b19===(17)r------17b19===(17)r--17\--17b20===(17)r----|
|--------------------------------------------------------------|---------------------------------------------------------------------------|
|--------------------------------------------------------------|---------------------------------------------------------------------------|
|--------------------------------------------------------------|---------------------------------------------------------------------------|
|--------------------------------------------------------------|---------------------------------------------------------------------------|
|
| Gtr II
| PM                                                             PM------------------------------------------------------------------------
|--------------------------------------------------------------|---------------------------------------------------------------------------|
|--------------------------------------------------------------|---------------------------------------------------------------------------|
|--------------------------------------------------------------|---------------------------------------------------------------------------|
|---------4-------4---------------5s======4-------4-------4----|---------------------------------------------------------------------------|
|---------0-------2---------------3s======2-------0-------2----|---------------------------------------------------------------------------|
|-2------------------------------------------------------------|-2--------------2---2--------------2---2--------------2----2--------------2|


          F#m/A                                       N.C.
 5/8                                                 4/4
|--19p=14-------------------19p=14----14------(14)--|----------------14-----------------14------------------14----------------------
|------------17b18===(17)r------------17b19===(17)r-|-17b19===(17)r------17b19===(17)r------17b19===(17)r---------------------------
|---------------------------------------------------|-------------------------------------------------------------------------------
|---------------------------------------------------|-------------------------------------------------------------------------------
|---------------------------------------------------|-------------------------------------------------------------------------------
|---------------------------------------------------|-------------------------------------------------------------------------------
|
|--|                                                   PM-------------------------------------------------------
|---------------------------------------------------|-------------------------------------------------------------------------------
|---------------------------------------------------|-------------------------------------------------------------------------------
|---------------------------------------------------|-------------------------------------------------------------------------------
|---------4-------------------------4---------------|-------------------------------------------------------------------------------
|---------0h=================2------0h==========2---|-------------------------------------------------------------------------------
|---2-----------------------------------------------|--2--------------2---2--------------2---2---------------2----------------------


               F#mB5              C5           B5 F#m/A        B5   N.C.
|--------------15--------------15--------------15--------------15-|--------------17--------------17--------------18--------------18-|
|-18b20==(18)r----18b20==(18)r----18b20==(18)r----18b20==(18)r----|-20b22==(20)r----20b22==(20)r----21b23==(21)r----21b23==(21)r----|
|-----------------------------------------------------------------|-----------------------------------------------------------------|
|-----------------------------------------------------------------|-----------------------------------------------------------------|
|-----------------------------------------------------------------|-----------------------------------------------------------------|
|-----------------------------------------------------------------|-----------------------------------------------------------------|
|
|  PM                                                                PM--------------------------------------------------------------
|-----------------------------------------------------------------|-----------------------------------------------------------------|
|-----------------------------------------------------------------|-----------------------------------------------------------------|
|-----------------------------------------------------------------|-----------------------------------------------------------------|
|---------------4--4---------------5s===========4--4------------4-|-----------------------------------------------------------------|
|---------------0--2---------------3s===========2--0------------2-|-----------------------------------------------------------------|
|--2--------------------------------------------------------------|--2------------2--2------------2--2------------2--2------------2-|


               F#m/A                       B5
 5/8                                      4/4
                                   ~~~~~~~~~~~~~~~~~~~~~~~~~
|--------------19--------------19-22b24==|=(22)-------(22)r---------||
|-22b24==(22)r----22b24==(22)r-----------|--------------------------||
|----------------------------------------|--------------------------||
|----------------------------------------|--------------------------||
|----------------------------------------|--------------------------||
|----------------------------------------|--------------------------||
|
|-|                                          PM-----------------|
|----------------------------------------|--------------------------||
|----------------------------------------|--------------------------||
|----------------------------------------|---4--4-4-4---4---4-4-4---||
|---------------4---------------4--------|---4--4-4-4---4---4-4-4---||
|---------------0h=2------------0h=2-----|---2--2-2-2---2---2-2-2---||
|--2-------------------------------------|--------------------------||


    N.C.F5N.C.F5N.C.  F5N.C.F5N.C.B     N.C.F5N.C.F5N.C.  F5N.C.F5N.C.B5
    Gtrs II, III
    PM--------------------------------------------------------------|
||------------------|-----------------|-----------------|------------------||
||o-----------------|-----------------|-----------------|-----------------o||
||------------------|-----------------|-----------------|------------------||
||------3-----3-----|-3-----3---------|-----3-----3-----|-3-----3-----4----||
||o-----3-----3-----|-3-----3-----2-2-|-----3-----3-----|-3-----3-----2---o||
||--0-0-1-0-0-1-0-0-|-1-0-0-1-0-0-----|-0-0-1-0-0-1-0-0-|-1-0-0-1-0-0------||


  E5                  N.C.
  PM--------------------------------------|          PM---
|-----------------||------------------|------------------|
|-----------------||o-----------------|------------------|
|-----------------||------------------|------------------|
|-----------------||----------------2-|-4-5--------------|
|-2-2-2-2-2-2-2-2-||o---------2-3-5---|-----3--(3)---3-3-|
|-0-0-0-0-0-0-0-0-||--0-2-3-5---------|------------------|


 ---------------------------------|
|-----------------|--------------------||
|-----------------|-------------------o||
|-----------------|--------------------||
|-----------------|--------------------||
|-3-2-3-5-3-2-----|-------------------o||
|-------------3-2-|-0-0-0-0-0-0-0-0----||


                                 PM------------------------------------|
|-----------------|------------------|-----------------|-----------------|
|-----------------|------------------|-----------------|-----------------|
|---------------0-|-2-4--------------|-----------------|-----------------|
|-------------4-2-|-4-5-2--(2)---2-2-|-2-0-2-4-2-0-----|-----------------|
|---------2-3-5---|-----3--(3)---3-3-|-3-2-3-5-3-2-3-2-|-----------------|
|-0-2-3-5---------|------------------|-------------3-2-|-0-0-0-0-0-0-0-0-|


                                 PM------------------|          PM|
|-----------------|------------------|-----------------|------------|
|-----------------|------------------|-----------------|------------|
|---------------0-|-2-4-5--(5)-------|-----------------|------------|
|-------------4-2-|-4-5-5--(5)-------|-----------------|-2------5-5-|
|---------2-3-5---|-----3--(3)---3-3-|-3-2-3-5-3-2-----|-2------3-3-|
|-0-2-3-5---------|------------------|-------------3-2-|-0----------|


  PM-----------------------------------
|-----------------||------------------|
|-----------------||o-----------------|
|-------2---------||------------------|
|-5-4-5---5-4-2-4-||------------------|
|-3-2-3-5-3-2-----||o-----2-----3-----|
|-------------3-2-||--0-1---0-1---0-1-|


                                     1.
                                      G5F#5 G5F#5 G5F#5
 ---------------------------------|
|-----------------|-----------------|------------------||
|-----------------|-----------------|-----------------o||
|-----------------|-----------------|------------------||
|-----------------|-----------------|------------------||
|-4-----3-----2-2-|-----2-----3-----|-5s4---5s4---5s4-o||
|---0-1---0-1-----|-0-1---0-1---1-0-|-3s2-0-3s2-0-3s2--||


  2.
  G5F#5 G5F#5 G5F#5 G5F#5 G5F#5 G5F#5
|-----------------|-----------------|
|-----------------|-----------------|
|-----------------|-----------------|
|-----------------|-----------------|
|-5s4---5s4---5s4-|-5s4---5s4---5s4-|
|-3s2-0-3s2-0-3s2-|-3s2-0-3s2-0-3s2-|


                                                 D.S.S. al Dbl. Coda
    N.C.                G5A5  BbA5G5A5  N.C.                G5A5G5A5
                                                         5/8
    Gtrs II, III
    PM----------------|                 PM----------------|
                                                                      4x
||------------------|-----------------|-----------------|-------------||
||o-----------------|-----------------|-----------------|------------o||
||------------------|-----------------|-----------------|-------------||
||------------------|-----------------|-----------------|-------------||
||o-----------------|---5s7---8s7-5s7-|-----------------|---5s7-5s7--o||
||--0-0-0-0-0-0-0-0-|-0-3s5-0-6s5-3s5-|-0-0-0-0-0-0-0-0-|-0-3s5-3s5---||


    &&
    N.C.                G5A5  BbA5G5A5  N.C.                G5A5G5A5
   4/4                                                   5/8
    PM----------------|                 PM----------------|
                                                                     4x
||------------------|-----------------|-----------------|------------||
||o-----------------|-----------------|-----------------|-----------o||
||------------------|-----------------|-----------------|------------||
||------------------|-----------------|-----------------|------------||
||o-----------------|---5s7---8s7-5s7-|-----------------|---5s7-5s7-o||
||--0-0-0-0-0-0-0-0-|-0-3s5-0-6s5-3s5-|-0-0-0-0-0-0-0-0-|-0-3s5-3s5--||


                        G5F#5 G5F#5 G5F#5 E5
 4/4
                       Gtrs II, III
|---------------------|-----------------|----------|--------|
|---------------------|-----------------|----------|--------|
|---------------------|-----------------|----------|--------|
|---------------------|-----------------|-2--------|-(2)----|
|---------------------|-5s4---5s4---5s4-|-2--------|-(2)----|
|---------------------|-3s2-0-3s2-0-3s2-|-0--------|-(0)----|


|------------|------------|--------*|
|------------|------------|--------*|
|------------|------------|--------*|
|-(2)--------|-(2)--------|-(2)----*|
|-(2)--------|-(2)--------|-(2)----*|
|-(0)--------|-(0)--------|-(0)----*|


Tablature Legend
----------------
 h   - hammer-on
 p   - pull-off
 b   - bend
 pb  - pre-bend
 r   - bend release (if no number after the r, then release immediately)
 /\  - slide into or out of (from/to "nowhere")
 s   - legato slide
 S   - shift slide
  - natural harmonic
[n]  - artificial harmonic
n(n) - tapped harmonic
 ~   - vibrato
 tr  - trill
 T   - tap
 TP  - trem. picking
 PM  - palm muting
\n/  - tremolo bar dip; n = amount to dip
 \n  - tremolo bar down
 n/  - tremolo bar up
/n\  - tremolo bar inverted dip
 =   - hold bend; also acts as connecting device for hammers/pulls
 <>  - volume swell (louder/softer)
 x   - on rhythm slash represents muted slash
 o   - on rhythm slash represents single note slash

Misc Legend
-----------
 |  - bar
||  - double bar
||o - repeat start
o|| - repeat end
*|  - double bar (ending)
 :  - bar (freetime)
 $  - Segno
 &  - Coda
Tempo markers -  = BPM(8/16=s8/s16), where s8 = swing 8ths, s16 = swing 16ths
comments
print report bad tab
I want to post or [tab]
guest
You may want to rate the tab now too:
select rating
Please do not post tabs as comments. Select "correction" instead!