Oops, an error
Loading. Please wait.

Master Of Puppets Bass Tab

ver5
ver5
More versions @911Tabs.com
21,154 views 15 this week
17 commentsread comments
1 2 3 4 5
excellent!
x 12
Autoscroll
+/-
esc
set tempo
stop
Contributor
Hey! There's an official Ultimate Guitar app which is ideal
for learning songs when you're away from computer. Get the app
WARNING: You are trying to view
                                    content from Ultimate-Guitar.com
                                    in an unauthorized application,
                                    which is prohibited.

                                    Please use an official Ultimate
                                    Guitar Tabs application for iPhone,
                                    iPad or Android to access legitimate
                                    chords, guitar, bass, and drum tabs
                                    from Ultimate-Guitar.com database.

                                    Type "ultimate guitar tabs" in Apple
                                    App Store's or Android Market's
                                    search to find the application.
                          MASTER OF PUPPETS (Bassline)
                            As recorded by Metallica
                     (From the 1986 Album MASTER OF PUPPETS)

Words and Music by Metallica
Arranged by Metallica
Transcribed by Zac (& Drum Score) for www.mikesguitarsite.co.uk

  Fast Rock Q=220
 4/4
  Gtr I
|----------|------------|------------|----------|-----|
|----------|------------|------------|----------|-----|
|----------|-5--4--3----|-(3)--------|----------|-----|
|-0--------|------------|------------|-0--------|-----|
|
| Gtr II
|-x--------|-x--x--x----|------------|-x--------|-----|
|-x--------|-x--x--x----|------------|-x--------|-----|
|----------|------------|------------|----------|-----|
|----------|------------|------------|----------|-----|


|---------|----------||-----------|------------|-----|
|---------|----------||o----------|------------|-----|
|---------|----------||o----------|-5--4--3----|-----|
|---------|-------1--||--0--------|------------|-----|
|
|---------|-------x--||--x--------|-x--x--x----|-----|
|---------|-------x--||o-x--------|-x--x--x----|-----|
|---------|----------||o----------|------------|-----|
|---------|----------||-----------|------------|-----|


|-----------||----------|------------|-----------------|
|----------o||----------|------------|-----------------|
|----------o||----------|-5--4--3----|-----2-2-2-2-2-2-|
|-------1---||-0--------|------------|-----------------|
|
|-------x---||-x--------|-x--x--x----|-----------------|
|-------x--o||-x--------|-x--x--x----|-x-x-x-x-x-x-x-x-|
|----------o||----------|------------|-----------------|
|-----------||----------|------------|-----------------|


|---------------------||-----------|---------|---------|-------------------||
|---------------------||o----------|---------|---------|------------------o||
|-2---2---2-2-2-2-2-2-||o----------|---------|---------|------------------o||
|---------------------||--0--------|---------|---------|-3s2-0-3s2-0-3s2---||
|
|---------------------||--x--------|---------|---------|-x-----x-----x-----||
|-x-x---x-x-x-x-x-x-x-||o-x--------|---------|---------|-x-----x-----x----o||
|---------------------||o----------|---------|---------|------------------o||
|---------------------||-----------|---------|---------|-------------------||


|-----------------|-------------------|-----------------|-------------------|
|-----------------|-------------------|-----------------|-------------------|
|-----2-----3-----|--4------3-----2-2-|-----2-----3-----|--4------3-----2---|
|-0-1---0-1---0-1-|-----0-1---0-1-----|-0-1---0-1---0-1-|-----0-1---1-0-----|
|
|-----------------|-------------------|-----------------|-------------------|
|-x-x-x-x---x-x-x-|-(x)-x-x-x---x-x-x-|-x---x-x---x-x-x-|-(x)-x-x-x---x-x-x-|
|-----------------|-------------------|-----------------|-------------------|
|-----------------|-------------------|-----------------|-------------------|


|-----------------|-------------------|-----------------|-----------------|
|-----------------|-------------------|-----------------|-----------------|
|-----2-----3-----|--4------3-----2-2-|-----2-----3-----|-----------------|
|-0-1---0-1---0-1-|-----0-1---0-1-----|-0-1---0-1---1-0-|-3s2-0-3s2-0-3s2-|
|
|-----------------|-------------------|-----------------|-x-----x-----x---|
|-x-x-x-x---x-x-x-|-(x)-x-x-x-x-x-x-x-|-x---x-x---x-x-x-|-x-----x-----x---|
|-----------------|-------------------|-----------------|-----------------|
|-----------------|-------------------|-----------------|-----------------|


|-----------------|-------------------|-----------------|------------------|
|-----------------|-------------------|-----------------|------------------|
|-----2-----3-----|--4------3-----2-2-|-----2-----3-----|--4------3-----2--|
|-0-1---0-1---0-1-|-----0-1---0-1-----|-0-1---0-1---0-1-|-----0-1---1-0----|
|
|-----------------|-------------------|-----------------|------------------|
|-x-x-x-x---x-x-x-|-(x)-x-x-x---x-x-x-|-x---x-x---x-x-x-|-(x)-x-x-x---x-x--|
|-----------------|-------------------|-----------------|------------------|
|-----------------|-------------------|-----------------|------------------|


|-----------------|-------------------|-----------------|-----------------|
|-----------------|-------------------|-----------------|-----------------|
|-----2-----3-----|--4------3-----2-2-|-----2-----3-----|-----------------|
|-0-1---0-1---0-1-|-----0-1---0-1-----|-0-1---0-1---1-0-|-3s2-0-3s2-0-3s2-|
|
|-----------------|-------------------|-----------------|-x-----x-----x---|
|-x-x-x-x---x-x-x-|-(x)-x-x-x-x-x-x-x-|-x-x-x-x---x-x-x-|-x-----x-----x---|
|-----------------|-------------------|-----------------|-----------------|
|-----------------|-------------------|-----------------|-----------------|


|-----------------|----------|-----------||
|-----------------|----------|-----------||
|-----------------|----------|-------4\--||
|-3s2-0-3s2-0-3s2-|-0--------|-----------||
|
|-x-----x-----x---|-x--------|-----------||
|-x-----x-----x---|-x--------|-----------||
|-----------------|-x--------|-----------||
|-----------------|----------|-----------||


                                                       5/8
|-----------------|-----------------|-----------------|-----------|
|-----------------|-----------------|-----------------|-----------|
|-----------------|-----------------|-----------------|-----------|
|-0-0-0-0-0-0-0-0-|-0-3h5-0-6s5-3h5-|-0-0-0-0-0-0-0-0-|-0-3s5-3s5-|
|
|-----------------|-----------------|-----------------|-----------|
|-x---x---x-x-x---|-x---x---x-x-x---|-x---x---x-x-x---|-x-x---x---|
|-----------------|-----------------|-----------------|-----------|
|-----------------|-----------------|-----------------|-----------|


 4/4                                                   5/8
|-----------------|-----------------|-----------------|-----------|
|-----------------|-----------------|-----------------|-----------|
|-----------------|-----------------|-----------------|-----------|
|-0-0-0-0-0-0-0-0-|-0-3h5-0-6s5-3h5-|-0-0-0-0-0-0-0-0-|-0-3s5-3s5-|
|
|-----------------|-----------------|-----------------|-----------|
|-x---x---x-x-x---|-x-x-x-x-x-x-x-x-|-x---x---x-x-x---|-x-x---x---|
|-----------------|-----------------|-----------------|-----------|
|-----------------|-----------------|-----------------|-----------|


 1st Verse
  $
 4/4                                                   5/8
|-----------------|-----------------|-----------------|-----------|
|-----------------|-----------------|-----------------|-----------|
|-----------------|-----------------|-----------------|-----------|
|-0-0-0-0-0-0-0-0-|-0-3h5-0-6s5-3h5-|-0-0-0-0-0-0-0-0-|-0-3s5-3s5-|
|
|-----------------|-----------------|-----------------|-----------|
|-x---x---x-x-x---|-x---x---x-x-x---|-x---x---x-x-x---|-x-x---x---|
|-----------------|-----------------|-----------------|-----------|
|-----------------|-----------------|-----------------|-----------|


 4/4                                                   5/8
|-----------------|-----------------|-----------------|-----------|
|-----------------|-----------------|-----------------|-----------|
|-----------------|-----------------|-----------------|-----------|
|-0-0-0-0-0-0-0-0-|-0-3h5-0-6s5-3h5-|-0-0-0-0-0-0-0-0-|-0-3s5-3s5-|
|
|-----------------|-----------------|-----------------|-----------|
|-x---x---x-x-x---|-x---x---x-x-x---|-x---x---x-x-x---|-x-x---x---|
|-----------------|-----------------|-----------------|-----------|
|-----------------|-----------------|-----------------|-----------|


 4/4                                                   5/8
|-----------------|-----------------|-----------------|-----------|
|-----------------|-----------------|-----------------|-----------|
|-----------------|-----------------|-----------------|-----------|
|-0-0-0-0-0-0-0-0-|-0-3h5-0-6s5-3h5-|-0-0-0-0-0-0-0-0-|-0-3s5-3s5-|
|
|-----------------|-----------------|-----------------|-----------|
|-x---x---x-x-x---|-x---x---x-x-x---|-x---x---x-x-x---|-x-x---x---|
|-----------------|-----------------|-----------------|-----------|
|-----------------|-----------------|-----------------|-----------|


 4/4                                                   5/8
|-----------------|-----------------|-----------------|-----------|
|-----------------|-----------------|-----------------|-----------|
|-----------------|-----------------|-----------------|-----------|
|-0-0-0-0-0-0-0-0-|-0-3h5-0-6s5-3h5-|-0-0-0-0-0-0-0-0-|-0-3s5-3s5-|
|
|-----------------|-----------------|-----------------|-----------|
|-x---x---x-x-x---|-x---x---x-x-x---|-x---x---x-x-x---|-x-x---x---|
|-----------------|-----------------|-----------------|-----------|
|-----------------|-----------------|-----------------|-----------|


  $$
 4/4                                                  5/8
|-----------------|----------------|-----------------|-----------|
|-----------------|----------------|-----------------|-----------|
|-----------------|----------------|-----------------|-----------|
|-2-2-2-2-2-2-2-2-|-2-5s7--8s7-5s7-|-2-2-2-2-2-2-2-2-|-2-5s7-5s7-|
|
|-----------------|----------------|-----------------|-----------|
|-x---x---x-x-x---|-x-x-x--x-x-x-x-|-x---x---x-x-x---|-x-x---x---|
|-----------------|----------------|-----------------|-----------|
|-----------------|----------------|-----------------|-----------|


 4/4                                                  5/8
|-----------------|----------------|-----------------|-----------|
|-----------------|----------------|-----------------|-----------|
|-----------------|----------------|-----------------|-----------|
|-2-2-2-2-2-2-2-2-|-2-5s7--8s7-5s7-|-2-2-2-2-2-2-2-2-|-2-5s7-5s7-|
|
|-----------------|----------------|-----------------|-----------|
|-x---x---x-x-x---|-x---x--x-x-x---|-x---x---x-x-x---|-x-x---x---|
|-----------------|----------------|-----------------|-----------|
|-----------------|----------------|-----------------|-----------|


                    Pre-Chorus
 4/4
|-----------------||---------------|
|-----------------||---------------|
|-----------------||-7-------5--7--|
|-7-7-7-7-7-7-7-7-||---0-0-0-------|
|
|-----------------||---------------|
|-x-x-x-x-x-x-x-x-||-x-----x-x--x--|
|-----------------||---------------|
|-----------------||---------------|


|-------------|---------------|------------------|
|-------------|---------------|---------1--------|
|-------------|-3-3-3-3-3--2--|-3-3-3-3-----2----|
|-0---2-3-----|---------------|------------------|
|
|-------------|---------------|-x-x-x-x-x-x-x-x--|
|-x---x-x--x--|-x-----x-x--x--|-x-x-x-x-x-x-x-x--|
|-------------|---------------|------------------|
|-------------|---------------|------------------|


                                                 1.,2.
||----------------|-------------|---------------|-------------------||
||o---------------|-------------|---------------|---------1--------o||
||o-7-------5--7--|-------------|-3-3-3-3-3--2--|-3-3-3-3-----2----o||
||----0-0-0-------|-0---2-3-----|---------------|-------------------||
|
||----------------|-------------|---------------|-x-x-x-x-x-x-x-x---||
||o-x-----x-x--x--|-x---x-x--x--|-x-----x-x--x--|-x-x-x-x-x-x-x-x--o||
||o---------------|-------------|---------------|------------------o||
||----------------|-------------|---------------|-------------------||


                                                  Chorus
  3.
|-----------------------|-----------|-----------||------------------|
|-4---2---1--1----------|-----------|-----------||------------------|
|----------------3---2--|-----------|-----------||------------------|
|-----------------------|-0--0------|-1--1------||-0------(0)-0-0-0-|
|
|-----------------------|-x--x------|-x--x------||------------------|
|-x-x---x-x--x-x---x-x--|-x--x------|-x--x------||-x--x-x-----x-x---|
|-----------------------|-x--x------|-x--x------||------------------|
|-----------------------|-----------|-----------||------------------|


 2/4       4/4
|---------|-----------------|------------------|----------------|
|---------|-----------------|------------------|----------------|
|---------|-----------------|------------------|-3--2-3-3-0-0-0-|
|-2p0-0-0-|-3--3-3-(3)-3-3--|-3-3-3-3-3-3-3-3--|----------------|
|
|---------|-----------------|------------------|----------------|
|-x---x---|-x--x-x-----x-x--|-x-x-x-x---x---x--|-x--x-x---x-x---|
|---------|-----------------|------------------|----------------|
|---------|-----------------|------------------|----------------|


 2/4       4/4                                                      2/4
|---------|-----------------|-------------------|------------------|----------|
|---------|-----------------|-------------------|------------------|----------|
|-2-0-0-0-|-0--0-0-(0)-0-0--|-(0)---------------|-5------(5)-------|-3--------|
|---------|-----------------|-------------------|------------3-3-3-|---3-3-3--|
|
|---------|-----------------|-------------------|------------------|----------|
|-x---x---|-x--x-x-----x-x--|--x--x-x-x-x-x-x-x-|-x--x-x-----x-x---|-x---x----|
|---------|-----------------|-------------------|------------------|----------|
|---------|-----------------|-------------------|------------------|----------|


 4/4                                   2/4      4/4
|-----------------|-------------------|--------|-----------------|
|-----------------|-------------------|--------|-----------------|
|--------------6--|-7-------(7)-7-7-7-|-5------|-3--3-3-(3)-3-3--|
|-7--7-7-(7)-7----|-------------------|----0-0-|-----------------|
|
|-----------------|-------------------|--------|-----------------|
|-x--x-x-----x-x--|-x-x-x-x-----x-x---|-x--x---|-x--x-x-----x-x--|
|-----------------|-------------------|--------|-----------------|
|-----------------|-------------------|--------|-----------------|


 2/4      4/4
|--------|-----------|-----------|------------------|
|--------|-----------|-----------|------------------|
|-3-3-3--|-----------|-----------|------------------|
|--------|-0--0------|-1--1------|-0------(0)-0-0-0-|
|
|--------|-x--x------|-x--x------|------------------|
|-x-x-x--|-x--x------|-x--x------|-x--x-x-----x-x---|
|--------|-x--x------|-x--x------|------------------|
|--------|-----------|-----------|------------------|


                                                         To DblTo Coda
 2/4       4/4
|---------|-----------------|-------------------|-----------|-----------||
|---------|-----------------|-------------------|-----------|-----------||
|---------|-3--3-3-(3)-3-3--|-3-3-2-2-0-0-------|-----------|-----------||
|-2p0-0-0-|-----------------|---------------3-3-|-0--0------|-1--1------||
|
|---------|-----------------|-------------------|-x--x------|-x--x------||
|-x-x-x---|-x--x-x-----x-x--|-x---x---x-x-x-x-x-|-x--x------|-x--x------||
|---------|-----------------|-------------------|-x--x------|-x--x------||
|---------|-----------------|-------------------|-----------|-----------||


|-----------------|-------------------|-----------------|------------------|
|-----------------|-------------------|-----------------|------------------|
|-----2-----3-----|--4------3-----2-2-|-----2-----3-----|--4------3-----2--|
|-0-1---0-1---0-1-|-----0-1---0-1-----|-0-1---0-1---0-1-|-----0-1---1-0----|
|
|-----------------|-------------------|-----------------|------------------|
|-x-x-x-x---x-x-x-|-(x)-x-x-x---x-x-x-|-x---x-x---x-x-x-|-(x)-x-x-x---x-x--|
|-----------------|-------------------|-----------------|------------------|
|-----------------|-------------------|-----------------|------------------|


|-----------------|-------------------|-----------------|-----------------|
|-----------------|-------------------|-----------------|-----------------|
|-----2-----3-----|--4------3-----2-2-|-----2-----3-----|-----------------|
|-0-1---0-1---0-1-|-----0-1---0-1-----|-0-1---0-1---1-0-|-3s2-0-3s2-0-3s2-|
|
|-----------------|-------------------|-----------------|-x-----x-----x---|
|-x-x-x-x---x-x-x-|-(x)-x-x-x-x-x-x-x-|-x---x-x---x-x-x-|-x-----x-----x---|
|-----------------|-------------------|-----------------|-----------------|
|-----------------|-------------------|-----------------|-----------------|


      D.S. al Coda   &
|-----------------||---------|-----||
|-----------------||---------|-----||
|-----------------||---------|-----||
|-3s2-0-3s2-0-3s2-||---------|-----||
|
|-x-----x-----x---||---------|-----||
|-x-----x-----x---||---------|-----||
|-----------------||---------|-----||
|-----------------||---------|-----||


 Interlude
  Slower Q=110
 2/4   4/4       2/4           4/4                               2/4
|-----|---------|-----||------|----------|----------|-----------|------||
|-----|---------|-----||------|----------|----------|-----------|------||
|-----|---------|-----||-7----|-5--------|-3--------|-0----2----|-6----||
|-----|---------|-----||------|----------|----------|-----------|------||
|
|-----|---------|-----||------|----------|----------|-----------|------||
|-----|---------|-----||-x----|-x--------|-x--------|-x----x----|-x----||
|-----|---------|-----||------|----------|----------|-----------|------||
|-----|---------|-----||------|----------|----------|-----------|------||


           4/4                                                  2/4
|---------|---------------|------------------|-----------------|--------------|
|---9-9---|---------------|------------------|-----------------|--------------|
|-7-----7-|-5---5-5-5---5-|-3-3--3-3-3-3-0-3-|-0---0-2-2-2-0-2-|-6-6-6-6-0-6--|
|---------|-----------5---|------------------|-----------------|--------------|
|
|---------|---------------|------------------|-----------------|--------------|
|-x-----x-|-x---x-x-----x-|-x-x--x---x-----x-|-x---x-x-------x-|-x---x---x-x--|
|---------|---------------|------------------|-----------------|--------------|
|---------|---------------|------------------|-----------------|--------------|


           4/4
|---------|---------------|------------------|
|---9-9---|---------------|------------------|
|-7-----7-|-5---5-5-5---5-|-3-3--3-3-3-3-0-3-|
|---------|-----------5---|------------------|
|
|---------|---------------|------------------|
|-x-----x-|-x---x-x-x---x-|-x----x---x-----x-|
|---------|---------------|------------------|
|---------|---------------|------------------|


                   2/4
|-----------------|-------------------|
|-----------------|-------------------|
|-0---0-2-2-2-0-2-|-6-6-6-6-0-----6---|
|-----------------|-------------------|
|
|-----------------|-------------------|
|-x---x-x-x---x-x-|-x---x---x-x-x-x---|
|-----------------|-------------------|
|-----------------|-------------------|


 Solo 1
           4/4
|---------|--------------------|-------------------|
|---9-----|--------------------|-------------------|
|-7---7-7-|-5----5-5-5-5-5s7-5-|-3-3-------3-3-0-3-|
|---------|--------------------|-------3-3---------|
|
|---------|--------------------|-------------------|
|-x---x---|-x--x-----x-----x-x-|-x---x-----x---x-x-|
|---------|--------------------|-------------------|
|---------|--------------------|-------------------|


                      2/4
|--------------------|---------------|
|--------------------|---------------|
|-0----0-2-2-2-0---2-|-6-6-6-6-0---6-|
|--------------------|---------------|
|
|--------------------|---------------|
|-x--x---x-x---x-x-x-|-x-x-x---x-x-x-|
|--------------------|---------------|
|--------------------|---------------|


           4/4
|---------|--------------------|-------------------|
|---9-----|--------------------|-------------------|
|-7---7-7-|-5----5-5-5-5-5s7-5-|-3-3-------3-3-0-3-|
|---------|--------------------|-------3-3---------|
|
|---------|--------------------|-------------------|
|-x---x-x-|-x--x-----x-----x-x-|-x---x-----x---x-x-|
|---------|--------------------|-------------------|
|---------|--------------------|-------------------|


                        2/4
|----------------------|------------------|
|----------------------|------------------|
|-0----0-2---2-2-0---2-|-6-6-6-6-0---6----|
|----------------------|------------------|
|
|----------------------|------------------|
|-x--x-x-x-x-x---x-x-x-|-x-x-x-x-x-x-x-x--|
|----------------------|------------------|
|----------------------|------------------|


           4/4                                                  2/4
|---------|---------------|------------------|-----------------|--------------|
|---9-9---|---------------|------------------|-----------------|--------------|
|-7-----7-|-5---5-5-5---5-|-3-3--3-3-3-3-0-3-|-0---0-2-2-2-0-2-|-6-6-6-6-0-6--|
|---------|-----------5---|------------------|-----------------|--------------|
|
|---------|---------------|------------------|-----------------|--------------|
|-x-----x-|-x---x-x-----x-|-x-x--x---x-----x-|-x---x-x-----x---|-x---x---x----|
|---------|---------------|------------------|-----------------|--------------|
|---------|---------------|------------------|-----------------|--------------|


           4/4                                                  2/4
|---------|---------------|------------------|-----------------|--------------|
|---9-9---|---------------|------------------|-----------------|--------------|
|-7-----7-|-5---5-5-5---5-|-3-3--3-3-3-3-0-3-|-0---0-2-2-2-0-2-|-6-6-6-6-0-6--|
|---------|-----------5---|------------------|-----------------|--------------|
|
|---------|---------------|------------------|-------x-x---x-x-|-x---x---x-x--|
|-x-----x-|-x---x-x-----x-|-x-x--x---x-----x-|-x---x-x-x---x-x-|-x---x---x-x--|
|---------|---------------|------------------|-----------------|--------------|
|---------|---------------|------------------|-----------------|--------------|


             4/4
||----------|-----------------|-----------------|
||o---------|-----------------|-----------------|
||o---------|-----------------|-----------------|
||--0-0-0-0-|-2-2-2-2-2-2-2-2-|-3-3-3-3-3-3-3-3-|
|
||--x-x-x-x-|-x-x-x-x-x-x-x-x-|-x-x-x-x-x-x-x-x-|
||o-x-x-x-x-|-x-x-x-x-x-x-x-x-|-x-x-x-x-x-x-x-x-|
||o-x-x-x-x-|---x-x-x-x-x-x-x-|---x-x-x-x-x-x-x-|
||----------|-----------------|-----------------|


                   2/4
|-----------------|------------||
|-----------------|-----------o||
|-----------------|-6-6-6-6---o||
|-5-5-5-5-7-7-7-7-|------------||
|
|-x-x-x-x-x-x-x-x-|-x-x-x-x----||
|-x-x-x-x-x-x-x-x-|-x-x-x-x---o||
|---x-x-x---x-x-x-|---x-x-x---o||
|-----------------|------------||


 4/4
|-----------------|-----------------||--------------------|-------------------||
|-----------------|-----------------||o-------------------|------------------o||
|-----------------|-----------------||o---------------4-4-|---------------4--o||
|-0-0-0-0-0-0-0-0-|-0-0-0-0-0-0-0-0-||--2-2-3-2-2-2-3-----|-2-2-3-2-2-2-3-----||
|
|-x-x-x-x-x-x-x-x-|-x-x-x-x-x-x-x-x-||------x-------x-----|-----x-------x-----||
|-x-x-x-x-x-x-x-x-|-x-x-x-x-x-x-x-x-||o-x-x-x-x-x-x-x-x-x-|-x-x-x-x-x-x-x-x--o||
|-x-x-x-x-x-x-x-x-|-x-x-x-x-x-x-x-x-||o-----x-------x-----|-----x-------x----o||
|-----------------|-----------------||--------------------|-------------------||


|-------------------|-----------------|-------------------|-------------------|
|-------------------|-----------------|-------------------|-------------------|
|---------------4-4-|---------------4-|---------------4-4-|---------------4---|
|-2-2-3-2-2-2-3-----|-2-2-3-2-2-2-3---|-2-2-3-2-2-2-3-----|-2-2-3-2-2-2-3-----|
|
|-----x-------x-----|-----x-------x---|-----x-------x-----|-----x-------x-----|
|-x-x-x-x-x-x-x-x---|-x-x-x-x-x-x-x-x-|-x-x-x-x-x-x-x-x---|-x-x-x-x-x-x-x-x---|
|-----x-------x-----|-----x-------x---|-----x-------x-----|-----x-------x-----|
|-------------------|-----------------|-------------------|-------------------|


|-------------------|-----------------|
|-------------------|-----------------|
|---------------4-4-|---------------4-|
|-2-2-3-2-2-2-3-----|-2-2-3-2-2-2-3---|
|
|-----x-------x-----|-----x-------x---|
|-x-x-x-x-x-x-x-x-x-|-x-x-x-x-x-x-x-x-|
|-----x-------x-----|-----x-------x---|
|-------------------|-----------------|


|-------------------|-----------------------------------|
|-------------------|-----------------------------------|
|---------------4-4-|-----------------------------4-----|
|-2-2-3-2-2-2-3-----|-2---2---3---2---2---2---3---------|
|
|-----x-------x-----|-----------------------------------|
|-x-x-x-x-x-x-x-x-x-|-x-x-x-x-x-x-x-x-x-x-x-x-x-x-x-x---|
|-----x-------x-----|-----------------------------------|
|-------------------|-----------------------------------|


  Faster Q=220
|---------------|-----------------|--------------|-----------------------||
|---------------|-----------------|--------------|-5-4---2-2-0-----------||
|---------------|-----------------|--------------|-------------4---2-0---||
|-3--3--3-3-3-3-|-(3)-3-3--3-3-3--|-2--2--2-2-2--|-----------------------||
|
|---------------|-----------------|--------------|-----------------------||
|-x--x--x-x-x-x-|-(x)-x-x--x-x-x--|-x--x--x-x-x--|-x-x-x-x-x-x-x-x-x-x---||
|---------------|-----------------|--------------|-----------------------||
|---------------|-----------------|--------------|-----------------------||


   Solo 2
   4/4                                                   5/8
                                                                     4x
||------------------|-----------------|-----------------|------------||
||o-----------------|-----------------|-----------------|-----------o||
||o-----------------|-----------------|-----------------|-----------o||
||--0-0-0-0-0-0-0-0-|-0-3h5-0-6s5-3h5-|-0-0-0-0-0-0-0-0-|-0-3s5-3s5--||
|
|                                                                    4x
||------------------|-----------------|-----------------|------------||
||o-x---x---x-x-x---|-x---x---x-x-x---|-x---x---x-x-x---|-x-x---x---o||
||o-----------------|-----------------|-----------------|-----------o||
||------------------|-----------------|-----------------|------------||


 4/4                                                       5/8
|-----------------|---------------------|-----------------|-----------|
|-----------------|---------------------|-----------------|-----------|
|-----------------|---------------------|-----------------|-----------|
|-2-2-2-2-2-2-2-2-|-2-5s==7---0-8s7-5s7-|-2-2-2-2-2-2-2-2-|-2-5s7-5s7-|
|
|-----------------|---------------------|-----------------|-----------|
|-x---x---x-x-x---|-x-x-x---x-x-x-x-x-x-|-x---x---x-x-x---|-x-x---x---|
|-----------------|---------------------|-----------------|-----------|
|-----------------|---------------------|-----------------|-----------|


 4/4                                                   5/8
|-----------------|-----------------|-----------------|-----------|
|-----------------|-----------------|-----------------|-----------|
|-----------------|-----------------|-----------------|-----------|
|-2-2-2-2-2-2-2-2-|-2-5s7-0-8s7-5s7-|-2-2-2-2-2-2-2-2-|-2-5s7-5s7-|
|
|-----------------|-----------------|-----------------|-----------|
|-x---x---x-x-x---|-x---x---x-x-x---|-x---x---x-x-x---|-x-x---x---|
|-----------------|-----------------|-----------------|-----------|
|-----------------|-----------------|-----------------|-----------|


 4/4
|-----------------||------------------|
|-----------------||o-----------------|
|-----------------||o-----------------|
|-7-7-7-7-7-7-7-7-||--0-0-1-0-0-1-0-0-|
|
|-----------------||------------------|
|-x-x-x-x-x-x-x-x-||o-x-----x-x-x-----|
|-----------------||o-----------------|
|-----------------||------------------|


|-----------------|-----------------|------------------||
|-----------------|-----------------|-----------------o||
|-------------2-2-|-----------------|-------------2---o||
|-1-0-0-1-0-0-----|-0-0-1-0-0-1-0-0-|-1-0-0-1-0-0------||
|
|-----------------|-----------------|------------------||
|-x-----x-x---x-x-|-x-----x-x-x-----|-x-----x-x---x---o||
|-----------------|-----------------|-----------------o||
|-----------------|-----------------|------------------||


|-----------------|-----------------|--------------------|-----------------|
|-----------------|-------------0-2-|-4-5----------------|-------0---------|
|-----------------|-------0-2-3-----|-----3--(3)-----3-3-|-3-2-3---3-2-----|
|-0-0-0-0-0-0-0-0-|-0-2-3-----------|--------------------|-------------3-2-|
|
|-----------------|-----------------|--------------------|-----------------|
|-x-x-x-x-x-x-x-x-|-x---x---x-x-x---|-x---x---x--x-x-----|-x---x---x-x-x---|
|-----------------|-----------------|--------------------|-----------------|
|-----------------|-----------------|--------------------|-----------------|


|-----------------|-----------------|--------------------|-----------------|
|-----------------|-------------0-2-|-4-5----------------|-------0---------|
|-----------------|-------0-2-3-----|-----3--(3)-----3-3-|-3-2-3---3-2-----|
|-0-0-0-0-0-0-0-0-|-0-2-3-----------|--------------------|-------------3-2-|
|
|-----------------|-----------------|--------------------|-----------------|
|-x-x-x---x-x-x---|-x---x---x-x-x---|-x---x---x--x-x-----|-x---x---x-x-x---|
|-----------------|-----------------|--------------------|-----------------|
|-----------------|-----------------|--------------------|-----------------|


|-----------------|-----------------|--------------------|-----------------|
|-----------------|-------------0-2-|-4-5----------------|-------0---------|
|-----------------|-------0-2-3-----|-----3--(3)-----3-3-|-3-2-3---3-2-----|
|-0-0-0-0-0-0-0-0-|-0-2-3-----------|--------------------|-------------3-2-|
|
|-----------------|-----------------|--------------------|-----------------|
|-x-x-x---x-x-x---|-x---x---x-x-x---|-x---x---x--x-x-----|-x---x---x-x-x---|
|-----------------|-----------------|--------------------|-----------------|
|-----------------|-----------------|--------------------|-----------------|


|-----------------|-------------------|------------------|-------------------|
|-----------------|---------------0-2-|-4-5--------------|-------0-----------|
|-----------------|---------0-2-3-----|-----3--(3)---3-3-|-3-2-3---3-2-------|
|-0-0-0-0-0-0-0-0-|-0-2---3-----------|------------------|-------------3-2---|
|
|-----------------|-------------------|------------------|-------------------|
|-x-x-x---x-x-x---|-x-x-x-x-x-x-x-x-x-|-x-x-x--(x)---x-x-|-x-x-x-x-x-x-x-x---|
|-----------------|-------------------|------------------|-------------------|
|-----------------|-------------------|------------------|-------------------|


|-------------|-----------------||-----------|---------|-----|
|-------------|-------0---------||o----------|---------|-----|
|---------3-3-|-3-2-3---3-2-----||o----------|---------|-----|
|-0-----------|-------------3-2-||--0--------|---------|-----|
|
|-x-----------|-----------------||-----------|---------|-----|
|-x-------x-x-|-x-x-x-x-x-x-x-x-||o-x--------|---------|-----|
|-x-----------|-----------------||o-x--------|---------|-----|
|-------------|-----------------||-----------|---------|-----|


                                         3rd Verse
|------------------||-----------------||------------------|-----------------|
|-----------------o||-----------------||o-----------------|-----------------|
|-----------------o||-----------------||o-----------------|-----------------|
|-3s2-0-3s2-0-3s2--||-3s2-0-3s2-0-3s2-||--0-0-0-0-0-0-0-0-|-0-3h5-0-6s5-3h5-|
|
|-x-----x-----x----||-x-----x-----x---||------------------|-----------------|
|-x-----x-----x---o||-x-----x-----x---||o-x---x---x-x-x---|-x---x---x-x-x---|
|-----------------o||-----------------||o-----------------|-----------------|
|------------------||-----------------||------------------|-----------------|


         D.S.S. al Dbl. Coda      &&
                   5/8               4/4
                               4x
|-----------------|------------||-||------------------|------------------|
|-----------------|-----------o||-||o-----------------|------------------|
|-----------------|-----------o||-||o-----------------|------------------|
|-0-0-0-0-0-0-0-0-|-0-3s5-3s5--||-||--0-0-0-0-0-0-0-0-|-0-3h5-0-6s5-3h5--|
|
|                              4x
|-----------------|------------||-||------------------|------------------|
|-x---x---x-x-x---|-x-x---x---o||-||o-x-----x-x-x-----|-x-----x-x---x----|
|-----------------|-----------o||-||o-----------------|------------------|
|-----------------|------------||-||------------------|------------------|


                   5/8           4/4
                               4x
|-----------------|------------||---------|
|-----------------|-----------o||---------|
|-----------------|-----------o||---------|
|-0-0-0-0-0-0-0-0-|-0-3s5-3s5--||---------|
|
|                              4x
|-----------------|------------||---------|
|-x-----x-x-x-----|-x-x---x---o||---------|
|-----------------|-----------o||---------|
|-----------------|------------||---------|


|-----------------|----------|--------|
|-----------------|----------|--------|
|-----------------|----------|--------|
|-3s2-0-3s2-0-3s2-|-0--------|-(0)----|
|
|                   TP          TP
|-----------------|----------|--------|
|-x-----x-----x---|-x--------|-(x)----|
|-----------------|----------|--------|
|-----------------|----------|--------|


|-------------|-------------|---------*|
|-------------|-------------|---------*|
|-------------|-------------|---------*|
|--(0)--------|--(0)--------|--(0)----*|
|
|   TP            TP            TP
|-------------|-------------|---------*|
|-(10)--------|-(10)--------|-(10)----*|
|-------------|-------------|---------*|
|-------------|-------------|---------*|
comments
print report bad tab
17 comments total. Showing first comments. show 1 bad comment
0 reply
Adawwg wrote on September 23 2005, 09:31 pm

yeah this kinda looks like version 4

0 reply
bass_fredrik wrote on January 19 2006, 02:51 pm

the intro bit is wrong.it shouldn't be 2222222 but 33333333.
I know this because I bought metallica legendary licks 83-88 and that intro was on it.

I want to post or [tab]
guest
You may want to rate the tab now too:
select rating
Please do not post tabs as comments. Select "correction" instead!