Oops, an error
Loading. Please wait.

Master Of Puppets Bass Tab

ver6
ver6

Album

Solo

More versions @911Tabs.com
9,975 views 36 this week
1 commentread comment
1 2 3 4 5
excellent!
x 8
Autoscroll
+/-
esc
set tempo
stop
Contributor
WARNING: You are trying to view
                                    content from Ultimate-Guitar.com
                                    in an unauthorized application,
                                    which is prohibited.

                                    Please use an official Ultimate
                                    Guitar Tabs application for iPhone,
                                    iPad or Android to access legitimate
                                    chords, guitar, bass, and drum tabs
                                    from Ultimate-Guitar.com database.

                                    Type "ultimate guitar tabs" in Apple
                                    App Store's or Android Market's
                                    search to find the application.
                         Master of Puppets Bass


                                 Metallica
the reason i didnt chop this up and add repeats is there are a lot of little changes
cliff does.
there are a lot of tabs for this but they arent correct to the actual bass track, which
be heard here: http://www.youtube.com/watch?v=SLOZ4SbLwHs&feature=related.

Also, any big mistakes, hit me up an ill fix them if i can

Intro
     Q    H.              Q    Q    H           W
G||--------------------|---------------------|-------------------|
D||--------------------|---------------------|-------------------|
A||--------------------|--5----4----3--------|--L----------------|
E||--0-----------------|---------------------|-------------------|


  Q    H.              W                   W
--------------------|-------------------|-------------------|
--------------------|-------------------|-------------------|
--------------------|-------------------|-------------------|
--0-----------------|-------------------|-------------------|


  H.           Q       Q    H.              Q    Q    H
--------------------|--------------------|---------------------|
--------------------|--------------------|---------------------|
--------------------|--------------------|--5----4----3--------|
---------------0----|--0-----------------|---------------------|


  W                   H.           Q       Q    H.
-------------------|--------------------|--------------------|
-------------------|--------------------|--------------------|
--L----------------|--------------------|--------------------|
-------------------|---------------0----|--0-----------------|


  Q    Q    H           W                   H.           Q
---------------------|-------------------|--------------------|
---------------------|-------------------|--------------------|
--5----4----3--------|--L----------------|--------------------|
---------------------|-------------------|---------------0----|


  Q    H.              Q    Q    Q    E  E     E  E  E  E  E  E  E  E
--------------------|-----------------------|--------------------------|
--------------------|-----------------------|--------------------------|
--------------------|--5----4----3----3--3--|--3--3--3--3--3--3--3--3--|
--0-----------------|-----------------------|--------------------------|


  E  E  E  E  E  E  E  E     Q    H.              W
--------------------------|--------------------|-------------------|
--------------------------|--------------------|-------------------|
--3--3--3--3--3--3--3--3--|--------------------|-------------------|
--------------------------|--0-----------------|-------------------|


  W                   E   E  E  E   E  E  E   E     Q    H.
-------------------|-----------------------------|--------------------|
-------------------|-----------------------------|--------------------|
-------------------|-----------------------------|--------------------|
-------------------|--3s--2--0--3s--2--0--3s--2--|--0-----------------|


  W                   W                   E   E  E  E   E  E  E   E
-------------------|-------------------|-----------------------------|
-------------------|-------------------|-----------------------------|
-------------------|-------------------|-----------------------------|
-------------------|-------------------|--3s--2--0--3s--2--0--3s--2--|

Bridge       It seems here that cliff is
only playing 1st fret on the E string from
the third eighth note(2nd fret on A string)
until the last two eight notes of the riff. I have left
this here as it sounds better (in my opinion) i have added the
actual riff at then end.
  E  E  E  E  E  E  E  E     E  E  E  E  E  E  E  E
--------------------------|--------------------------|
--------------------------|--------------------------|
--------2--------3--------|--4--------3--------2--2--|
--0--1-----0--1-----0--1--|-----0--1-----0--1--------|


  E  E  E  E  E  E  E  E     E  E  E  E  E  E  Q       E  E  E  E  E  E  E  E
--------------------------|-------------------------|--------------------------|
--------------------------|-------------------------|--------------------------|
--------2--------3--------|--4--------3--------2----|--------2--------3--------|
--0--1-----0--1-----0--1--|-----0--1-----0--1-------|--0--1-----0--1-----0--1--|


  E  E  E  E  E  E  E  E     E  E  E  E  E  E  E  E
--------------------------|--------------------------|
--------------------------|--------------------------|
--4--------3--------2--2--|--------2--------3--------|
-----0--1-----0--1--------|--0--1-----0--1-----0--1--|


  E   E  E  E   E  E  E   E     E  E  E  E  E  E  E  E
-----------------------------|--------------------------|
-----------------------------|--------------------------|
-----------------------------|--------2--------3--------|
--3s--2--0--3s--2--0--3s--2--|--0--1-----0--1-----0--1--|


  E  E  E  E  E  E  E  E     E  E  E  E  E  E  E  E     E  E  E  E  E  E  Q
--------------------------|--------------------------|-------------------------|
--------------------------|--------------------------|-------------------------|
--4--------3--------2--2--|--------2--------3--------|--4--------3--------2----|
-----0--1-----0--1--------|--0--1-----0--1-----0--1--|-----0--1-----0--1-------|


  E  E  E  E  E  E  E  E     E  E  E  E  E  E  E  E
--------------------------|--------------------------|
--------------------------|--------------------------|
--------2--------3--------|--4--------3--------2--2--|
--0--1-----0--1-----0--1--|-----0--1-----0--1--------|


  E  E  E  E  E  E  E  E     E   E  E  E   E  E  E   E
--------------------------|-----------------------------|
--------------------------|-----------------------------|
--------2--------3--------|-----------------------------|
--0--1-----0--1-----0--1--|--3s--2--0--3s--2--0--3s--2--|


  E   E  E  E   E  E  E   E     Q    H.              H.           Q
-----------------------------|--------------------|---------------------|
-----------------------------|--------------------|---------------------|
-----------------------------|--------------------|---------------------|
--3s--2--0--3s--2--0--3s--2--|--0-----------------|---------------7\----|

Verse
  E  E  E  E  E  E  E  E     E  E   E  E  E   E  E  E
--------------------------|----------------------------|
--------------------------|----------------------------|
--------------------------|----------------------------|
--0--0--0--0--0--0--0--0--|--0--3h--5--0--6p--5--3--5--|


  E  E  E  E  E  E  E  E     E  E   E  S E   E     E  E  E  E  E  E  E  E
--------------------------|---------------------|--------------------------|
--------------------------|---------------------|--------------------------|
--------------------------|---------------------|--------------------------|
--0--0--0--0--0--0--0--0--|--0--3h--5----3h--5--|--0--0--0--0--0--0--0--0--|


  E  E   E  E  E   E  E  E     E  E  E  E  E  E  E  E     E  E   E  S E   E
----------------------------|--------------------------|---------------------|
----------------------------|--------------------------|---------------------|
----------------------------|--------------------------|---------------------|
--0--3h--5--0--6p--5--3--5--|--0--0--0--0--0--0--0--0--|--0--3h--5----3h--5--|


  E  E  E  E  E  E  E  E     E  E   E  E  E   E  E  E
--------------------------|----------------------------|
--------------------------|----------------------------|
--------------------------|----------------------------|
--0--0--0--0--0--0--0--0--|--0--3h--5--0--6p--5--3--5--|


  E  E  E  E  E  E  E  E     E  E   E  S E   E     E  E  E  E  E  E  E  E
--------------------------|---------------------|--------------------------|
--------------------------|---------------------|--------------------------|
--------------------------|---------------------|--------------------------|
--0--0--0--0--0--0--0--0--|--0--3h--5----3h--5--|--0--0--0--0--0--0--0--0--|


  E  E   E  E  E   E  E  E     E  E  E  E  E  E  E  E     E  E   E  S E   E
----------------------------|--------------------------|---------------------|
----------------------------|--------------------------|---------------------|
----------------------------|--------------------------|---------------------|
--0--3h--5--0--6p--5--3--5--|--0--0--0--0--0--0--0--0--|--0--3h--5----3h--5--|


  E  E  E  E  E  E  E  E     E  E   E  E  E   E  E  E
--------------------------|----------------------------|
--------------------------|----------------------------|
--------------------------|----------------------------|
--0--0--0--0--0--0--0--0--|--0--3h--5--0--6p--5--3--5--|


  E  E  E  E  E  E  E  E     E  E   E  S E   E     E  E  E  E  E  E  E  E
--------------------------|---------------------|--------------------------|
--------------------------|---------------------|--------------------------|
--------------------------|---------------------|--------------------------|
--0--0--0--0--0--0--0--0--|--0--3h--5----3h--5--|--0--0--0--0--0--0--0--0--|


  E  E   E  E  E   E  E  E     E  E  E  E  E  E  E  E     E  E   E  S E   E
----------------------------|--------------------------|---------------------|
----------------------------|--------------------------|---------------------|
----------------------------|--------------------------|---------------------|
--0--3h--5--0--6p--5--3--5--|--0--0--0--0--0--0--0--0--|--0--3h--5----3h--5--|


  E  E  E  E  E  E  E  E     E  E   E  E  E   E  E  E
--------------------------|----------------------------|
--------------------------|----------------------------|
--------------------------|----------------------------|
--2--2--2--2--2--2--2--2--|--2--5h--7-----8p--7--5--7--|


  E  E  E  E  E  E  E  E     E  E   E  S E   E     E  E  E  E  E  E  E  E
--------------------------|---------------------|--------------------------|
--------------------------|---------------------|--------------------------|
--------------------------|---------------------|--------------------------|
--2--2--2--2--2--2--2--2--|--2--5h--7----5h--7--|--2--2--2--2--2--2--2--2--|


  E  E   E  E  E   E  E  E     E  E  E  E  E  E  E  E     E  E   E  S E   E
----------------------------|--------------------------|---------------------|
----------------------------|--------------------------|---------------------|
----------------------------|--------------------------|---------------------|
--2--5h--7-----8p--7--5--7--|--2--2--2--2--2--2--2--2--|--2--5h--7----5h--7--|

Pre Chorus
  E  E  E  E  E  E  E  E     Q    E  E  Q    Q       E  E  E  E  H
--------------------------|-----------------------|-----------------------|
--------------------------|-----------------------|-----------------------|
--------------------------|-------------5----7----|-----------------------|
--7--7--7--7--7--7--7--7--|--0----0--0------------|--0--0--2--0--3--------|


  E  E  E  E  Q    Q       E  E  E  E  Q    Q       E  E  E  E  Q    Q
------------------------|------------------------|------------------------|
------------------------|--------------1---------|------------------------|
--3--3--3--3--3----2----|--3--3--3--3-------2----|--------------5----7----|
------------------------|------------------------|--0--0--0--0------------|


  E  E  E  E  H           E  E  E  E  Q    Q       E  E  E  E  Q    Q
-----------------------|------------------------|------------------------|
-----------------------|------------------------|--------------1---------|
-----------------------|--3--3--3--3--3----2----|--3--3--3--3-------2----|
--0--0--2--0--3--------|------------------------|------------------------|


  Q    E  E  Q    Q       E  E  E  E  H           E  E  E  E  Q    Q
-----------------------|-----------------------|------------------------|
-----------------------|-----------------------|------------------------|
-------------5----7----|-----------------------|--3--3--3--3--3----2----|
--0----0--0------------|--0--0--2--0--3--------|------------------------|


  E  E  E  E  Q    Q       Q    E  E  Q    Q       E  E  E  E  H
------------------------|-----------------------|-----------------------|
--------------1---------|-----------------------|-----------------------|
--3--3--3--3-------2----|-------------5----7----|-----------------------|
------------------------|--0----0--0------------|--0--0--2--0--3--------|


  E  E  E  E  Q    Q       E  E  Q    E  E  Q       Q    Q    Q    Q
------------------------|------------------------|----------------------|
------------------------|--4--2--1----1----------|----------------------|
--3--3--3--3--3----2----|----------------3--2----|----------------------|
------------------------|------------------------|--0----0--------------|

                       Chorus
  Q    Q    Q    Q       Q    E  Q    E  E  E     E  E  E  E
----------------------|------------------------|--------------|
----------------------|------------------------|--------------|
----------------------|------------------------|--------------|
--1----1--------------|--0----0--0----0--0--0--|--2--0--0--0--|


  Q    E  E  E  E  E  E     E  E  Q    E  E  Q       Q    Q    E  E  E  E
-------------------------|------------------------|------------------------|
-------------------------|------------------------|------------------------|
-------------------------|------------------------|--3----3----L--0--0--0--|
--3----3--3--L--3--3--3--|--3--3--3----3--3--3----|------------------------|


  E  E  E  E     Q    Q    E  E  Q       E  E  Q    E  E  E  E
--------------|-------2----2-----2----|--2-----2----2-----2-----|
--------------|-----------------------|-------------------------|
--2--0--0--0--|--0------------0-------|-----0----------0-----0--|
--------------|-----------------------|-------------------------|


  Q    Q.     E  E  E     E  E  E  E     Q    Q    E  E  E  E
-----------------------|--------------|------------------------|
-----------------------|--------------|------------------------|
--5----5------0--0--0--|--3--0--0--0--|--2----2----2--2--5--7--|
-----------------------|--------------|------------------------|


  Q    Q.     E  E  E     E  E  E  E     Q    E  E  E  E  Q       E  E  Q
-----------------------|--------------|------------------------|-------------|
-----------------------|--------------|------------------------|-------------|
-----------------------|--5-----------|--3----3--3--L--3--3----|--3--3--3----|
--0----0------0--0--0--|-----0--0--0--|------------------------|-------------|


  Q    Q    H           Q    Q    H           Q    E  Q    E  E  E
---------------------|---------------------|------------------------|
---------------------|---------------------|------------------------|
---------------------|---------------------|------------------------|
--0----0-------------|--1----1-------------|--0----0--0----0--0--0--|


  E  E  E  E     Q    E  Q    E  E  E     E  E  E  E  E  E  E  E
--------------|------------------------|--------------------------|
--------------|------------------------|--------------------------|
--------------|--3----3--3----3--2--2--|--3--3--2--2--0--0--------|
--3--0--0--0--|------------------------|--------------------3--3--|


  Q    Q    H           Q    Q    H           E  E  E  E  E  E  E  E
---------------------|---------------------|--------------------------|
---------------------|---------------------|--------------------------|
---------------------|---------------------|--------2--------3--------|
--0----0-------------|--1----1-------------|--0--1-----0--1-----0--1--|

Bridge
  E  E  E  E  E  E  E  E     E  E  E  E  E  E  E  E     E  E  E  E  E  E  Q
--------------------------|--------------------------|-------------------------|
--------------------------|--------------------------|-------------------------|
--4--------3--------2--2--|--------2--------3--------|--4--------3--------2----|
-----0--1-----0--1--------|--0--1-----0--1-----0--1--|-----0--1-----0--1-------|


  E  E  E  E  E  E  E  E     E  E  E  E  E  E  E  E
--------------------------|--------------------------|
--------------------------|--------------------------|
--------2--------3--------|--4--------3--------2--2--|
--0--1-----0--1-----0--1--|-----0--1-----0--1--------|


  E  E  E  E  E  E  E  E     E   E  E  E   E  E  E   E
--------------------------|-----------------------------|
--------------------------|-----------------------------|
--------2--------3--------|-----------------------------|
--0--1-----0--1-----0--1--|--3s--2--0--3s--2--0--3s--2--|

                              Verse
  E   E  E  E   E  E  E   E     Q    E  E  E  E  E  E
-----------------------------|-------------------------|
-----------------------------|-------------------------|
-----------------------------|-------------------------|
--3s--2--0--3s--2--0--3s--2--|--0----0--0--0--0--0--0--|


  E  E   E  E  E   E  E  E     E  E  E  E  E  E  E  E     E  E   E  S E   E
----------------------------|--------------------------|---------------------|
----------------------------|--------------------------|---------------------|
----------------------------|--------------------------|---------------------|
--0--3h--5--0--6p--5--3--5--|--0--0--0--0--0--0--0--0--|--0--3h--5----3h--5--|


  E  E  E  E  E  E  E  E     E  E   E  E  E   E  E  E
--------------------------|----------------------------|
--------------------------|----------------------------|
--------------------------|----------------------------|
--0--0--0--0--0--0--0--0--|--0--3h--5--0--6p--5--3--5--|


  E  E  E  E  E  E  E  E     E  E   E  S E   E     E  E  E  E  E  E  E  E
--------------------------|---------------------|--------------------------|
--------------------------|---------------------|--------------------------|
--------------------------|-----5h--7----5h--7--|--------------------------|
--0--0--0--0--0--0--0--0--|--0------------------|--0--0--0--0--0--0--0--0--|


  E  E   E  E  E   E  E  E     E  E  E  E  E  E  E  E     E  E   E  S E   E
----------------------------|--------------------------|---------------------|
----------------------------|--------------------------|---------------------|
----------------------------|--------------------------|---------------------|
--0--3h--5--0--6p--5--3--5--|--0--0--0--0--0--0--0--0--|--0--3h--5----3h--5--|


  E  E  E  E  E  E  E  E     E  E   E  E  E   E  E  E
--------------------------|----------------------------|
--------------------------|----------------------------|
--------------------------|----------------------------|
--0--0--0--0--0--0--0--0--|--0--3h--5--0--6p--5--3--5--|


  E  E  E  E  E  E  E  E     E  E   E  S E   E     E  E  E  E  E  E  E  E
--------------------------|---------------------|--------------------------|
--------------------------|---------------------|--------------------------|
--------------------------|---------------------|--------------------------|
--0--0--0--0--0--0--0--0--|--0--3h--5----3h--5--|--2--2--2--2--2--2--2--2--|


  E  E   E  E  E   E  E  E     E  E  E  E  E  E  E  E     E  E   E  S E   E
----------------------------|--------------------------|---------------------|
----------------------------|--------------------------|---------------------|
----------------------------|--------------------------|---------------------|
--2--5h--7-----8p--7--5--7--|--2--2--2--2--2--2--2--2--|--2--5h--7----5h--7--|


  E  E  E  E  E  E  E  E     E  E   E  E  E   E  E  E
--------------------------|----------------------------|
--------------------------|----------------------------|
--------------------------|----------------------------|
--2--2--2--2--2--2--2--2--|--2--5h--7-----8p--7--5--7--|

                                                  Pre Chorus
  E  E  E  E  E  E  E  E     E  E   E  S E   E     E  E  E  E  E  E  E  E
--------------------------|---------------------|--------------------------|
--------------------------|---------------------|--------------------------|
--------------------------|---------------------|--------------------------|
--2--2--2--2--2--2--2--2--|--2--5h--7----5h--7--|--7--7--7--7--7--7--7--7--|


  Q    E  E  Q    Q       E  E  E  E  H           E  E  E  E  Q    Q
-----------------------|-----------------------|------------------------|
-----------------------|-----------------------|------------------------|
-------------5----7----|-----------------------|--3--3--3--3--3----2----|
--0----0--0------------|--0--0--2--0--3--------|------------------------|


  E  E  E  E  Q    Q       Q    E  E  Q    Q       E  E  E  E  H
------------------------|-----------------------|-----------------------|
--------------1---------|-----------------------|-----------------------|
--3--3--3--3-------2----|-------------5----7----|-----------------------|
------------------------|--0----0--0------------|--0--0--2--0--3--------|


  E  E  E  E  Q    Q       E  E  E  E  Q    Q       E  E  E  E  Q    Q
------------------------|------------------------|------------------------|
------------------------|--------------1---------|------------------------|
--3--3--3--3--3----2----|--3--3--3--3-------2----|--------------5----7----|
------------------------|------------------------|--0--0--0--0------------|


  E  E  E  E  H           E  E  E  E  Q    Q       E  E  E  E  Q    Q
-----------------------|------------------------|------------------------|
-----------------------|------------------------|--------------1---------|
-----------------------|--3--3--3--3--3----2----|--3--3--3--3-------2----|
--0--0--2--0--3--------|------------------------|------------------------|


  Q    E  E  Q    Q       E  E  E  E  H           E  E  E  E  Q    Q
-----------------------|-----------------------|------------------------|
-----------------------|-----------------------|------------------------|
-------------5----7----|-----------------------|--3--3--3--3--3----2----|
--0----0--0------------|--0--0--2--0--3--------|------------------------|


  E  E  Q    E  E  Q       Q    Q    Q    Q       Q    Q    Q    Q
------------------------|----------------------|----------------------|
--4--2--1----1----------|----------------------|----------------------|
----------------3--2----|----------------------|----------------------|
------------------------|--0----0--------------|--1----1--------------|

Chorus
  E  E  E  Q    E  E  E     E  E  E  E     Q    E  E  E  E  E  E
-------------------------|--------------|-------------------------|
-------------------------|--------------|-------------------------|
-------------------------|--------------|-------------------------|
--0--0--0--0----0--0--0--|--2--0--0--0--|--3----3--3--L--3--3--3--|


  E  E  Q    E  E  E  E     Q    Q    E  E  E  E     E  E  E  E
-------------------------|------------------------|--------------|
-------------------------|------------------------|--------------|
-------------------------|--3----3----L--0--0--0--|--2--0--0--0--|
--3--3--3----3--3--3--3--|------------------------|--------------|


  Q    Q    E  E  Q       E  E  Q    E  E  E  E     Q    Q.     E  E  E
-------2----2-----2----|--2-----2----2-----2-----|-----------------------|
-----------------------|-------------------------|-----------------------|
--0------------0-------|-----0----------0-----0--|--5----5------0--0--0--|
-----------------------|-------------------------|-----------------------|


  E  E  E  E     Q    Q    E  E  E  E     Q    Q.     E  E  E     E  E  E  E
--------------|------------------------|-----------------------|--------------|
--------------|------------------------|-----------------------|--------------|
--3--0--0--0--|--2----2----2--2--5--7--|-----------------------|--5-----------|
--------------|------------------------|--0----0------0--0--0--|-----0--0--0--|


  Q    E  E  E  E  Q       E  E  Q       Q    Q    H
------------------------|-------------|---------------------|
------------------------|-------------|---------------------|
--3----3--3--L--3--3----|--3--3--3----|---------------------|
------------------------|-------------|--0----0-------------|


  Q    Q    H           Q    E  Q    E  E  E     E  E  E  E
---------------------|------------------------|--------------|
---------------------|------------------------|--------------|
---------------------|------------------------|--------------|
--1----1-------------|--0----0--0----0--0--0--|--3--0--0--0--|


  Q    E  Q    E  E  E     E  E  E  E  E  E  E  E     Q    Q    H
------------------------|--------------------------|---------------------|
------------------------|--------------------------|---------------------|
--3----3--3----3--2--2--|--3--3--2--2--0--0--------|---------------------|
------------------------|--------------------3--3--|--0----0-------------|

                      Break Down/Pre interlude     Tempo Change, halve tempo
  Q    Q    H           W                   W                   H
---------------------|-------------------|-------------------|-----------|
---------------------|-------------------|-------------------|-----------|
---------------------|-------------------|-------------------|-----------|
--1----1-------------|-------------------|-------------------|-----------|


  W                   W                   W                  2/4 H
-------------------|-------------------|-------------------|-----------|
-------------------|-------------------|-------------------|-----------|
-------------------|-------------------|-------------------|-----------|
-------------------|-------------------|-------------------|-----------|


  H          4/4 W                   W                   H        H
-----------|-------------------|-------------------|--------------------|
-----------|-------------------|-------------------|--------------------|
--7--------|--5----------------|--3----------------|--0--------2--------|
-----------|-------------------|-------------------|--------------------|

              Interlude
  H           E  E  E  E     Q.     S S E  E  E  E     E  Q    S S E  E  E  E   2/4
                4/4
-----------|--------------|-------------------------|--------------------------|
-----------|--------------|-------------------------|--------------------------|
--6--------|--7--------7--|--5------5-5-5--5-----5--|--3--3----3-3-3--3--0--3--|
-----------|-----0--0-----|-------------------5-----|--------------------------|


  Q.     E  E  S S E  E  2/4S S S S E  E     E  E  E  E
-------------------------|----------------|--------------|
-------------------------|----------------|--------------|
--0------0--2--2-2-0--2--|--6-6-6-6-0--6--|--7--------7--|
-------------------------|----------------|-----0--0-----|


  Q.     S S E  E  E  E     E  Q    S S E  E  E  E     Q.     E  E  S S E  E   4/4
-------------------------|--------------------------|-------------------------|
-------------------------|--------------------------|-------------------------|
--5------5-5-5--5-----5--|--3--3----3-3-3--3--0--3--|--0------0--2--2-2-0--2--|
-------------------5-----|--------------------------|-------------------------|
                  First Solo

2/4S S S S E  E    E  E  E  E   4/4Q.    S S E  E   E  E
----------------|--------------|--------------------------|
----------------|--------------|--------------------------|
--6-6-6-6-0--6--|--7--------7--|--5------5-5-5--5s--7--5--|
----------------|-----0--0-----|--------------------------|

                                                       2/4
  Q.     S S E  E  E  E     Q.     E  E  S S E  E     S S S S S S S S
-------------------------|-------------------------|------------------|
-------------------------|-------------------------|------------------|
--3------3-3-3--3--0--3--|--0------0--2--2-2-0--2--|--6-6-6-6-0-0-6-6-|
-------------------------|-------------------------|------------------|

                    4/4
  E  E  E  E     Q.     S S E  E   E  E     Q.     S S E  E  E  E
--------------|--------------------------|-------------------------|
--------------|--------------------------|-------------------------|
--7--------7--|--5------5-5-5--5s--7--5--|--3------3-3-3--3--0--3--|
-----0--0-----|--------------------------|-------------------------|

                               2/4             End Of First Solo
  Q.     S S E  E  E  E     S S S S S S S S    E  E  E  E
-------------------------|------------------|--------------|
-------------------------|------------------|--------------|
--0------0-0-2--2--0--2--|--6-6-6-6-0-0-6-6-|--7--------7--|
-------------------------|------------------|-----0--0-----|

             4/4
  Q.     S S E  E  E  E     E  Q    S S E  E  E  E     Q.     E  E  S S E  E
-------------------------|--------------------------|-------------------------|
-------------------------|--------------------------|-------------------------|
--5------5-5-5--5-----5--|--3--3----3-3-3--3--0--3--|--0------0--2--2-2-0--2--|
-------------------5-----|--------------------------|-------------------------|

      2/4                       4/4
  S S E  E  E     E  E  E  E     Q.     S S E  E  E  E
---------------|--------------|-------------------------|
---------------|--------------|-------------------------|
--6-6-6--0--6--|--7--------7--|--5------5-5-5--5-----5--|
---------------|-----0--0-----|-------------------5-----|

                                                      2/4
  E  Q    S S E  E  E  E     Q.     E  E  S S E  E     S S S S E  E
--------------------------|-------------------------|----------------|
--------------------------|-------------------------|----------------|
--3--3----3-3-3--3--0--3--|--0------0--2--2-2-0--2--|--6-6-6-6-0--6--|
--------------------------|-------------------------|----------------|

                4/4
  E  E  E  E     E  E  E  E  E  E  E  E     E  E  E  E  E  E  E  E
--------------|--------------------------|--------------------------|
--------------|--------------------------|--------------------------|
--------------|--------------------------|--------------------------|
--0--0--0--0--|--2--2--2--2--2--2--2--2--|--3--3--3--3--3--3--3--3--|

                             2/4
  E  E  E  E  E  E  E  E     E  E  E  E     E  E  E  E
--------------------------|--------------|--------------|
--------------------------|--------------|--------------|
--------------------------|--6--6--6--6--|--------------|
--5--5--5--5--7--7--7--7--|--------------|--0--0--0--0--|

 4/4
  E  E  E  E  E  E  E  E     E  E  E  E  E  E  E  E
--------------------------|--------------------------|
--------------------------|--------------------------|
--------------------------|--------------------------|
--2--2--2--2--2--2--2--2--|--3--3--3--3--3--3--3--3--|

                            2/4           4/4
  E  E  E  E  E  E  E  E     E  E  E  E     E  E  E  E  E  E  E  E
--------------------------|--------------|--------------------------|
--------------------------|--------------|--------------------------|
--------------------------|--6--6--6--6--|--------------------------|
--5--5--5--5--7--7--7--7--|--------------|--0--0--0--0--0--0--0--0--|

                         Pre Solo Verse
                           It seems in this part cliff actually plays      2 2 3 2 2 2 3
the E string then 3 3 (or 3 depending on the part) on the A string . i chose to tab it
way as the guitars are playing it this way and it does not creat any dissonance. at the 
i have what cliff actually seems to be playing.

  E  E  E  E  E  E  E  E     E  E  E  E  E  E  E  S S
--------------------------|---------------------------|
--------------------------|---------------------------|
--------------------------|-----------------------4-4-|
--0--0--0--0--0--0--0--0--|--2--2--3--2--2--2--3------|


  E  E  E  E  E  E  E  E     E  E  E  E  E  E  E  S S
--------------------------|---------------------------|
--------------------------|---------------------------|
-----------------------4--|-----------------------4-4-|
--2--2--3--2--2--2--3-----|--2--2--3--2--2--2--3------|


  E  E  E  E  E  E  E  E     E  E  E  E  E  E  E  S S
--------------------------|---------------------------|
--------------------------|---------------------------|
-----------------------4--|-----------------------4-4-|
--2--2--3--2--2--2--3-----|--2--2--3--2--2--2--3------|


  E  E  E  E  E  E  E  E     E  E  E  E  E  E  E  S S
--------------------------|---------------------------|
--------------------------|---------------------------|
-----------------------4--|-----------------------4-4-|
--2--2--3--2--2--2--3-----|--2--2--3--2--2--2--3------|


  E  E  E  E  E  E  E  E     E  E  E  E  E  E  E  S S
--------------------------|---------------------------|
--------------------------|---------------------------|
-----------------------4--|-----------------------4-4-|
--2--2--3--2--2--2--3-----|--2--2--3--2--2--2--3------|


  E  E  E  E  E  E  E  E     E  E  E  E  E  E  E  S S
--------------------------|---------------------------|
--------------------------|---------------------------|
-----------------------4--|-----------------------4-4-|
--2--2--3--2--2--2--3-----|--2--2--3--2--2--2--3------|


  E  E  E  E  E  E  E  E     E  E  Q    E  Q    E     E  Q    E  E  E  Q
--------------------------|------------------------|------------------------|
--------------------------|------------------------|------------------------|
-----------------------4--|------------------------|------------------------|
--2--2--3--2--2--2--3-----|--3--3--3----3--3----3--|--L--3----3--3--3--3----|

                                                    Second Solo
  Q    Q    E  E  Q       E  E  Q    E  E  Q       Q    E  E  E  E  E  E
-----------------------|------------------------|-------------------------|
-----------------------|------------------------|-------------------------|
-----------------------|------------------------|-------------------------|
--2----2----2--2--2----|--3--2--0----3--2--0----|--0----0--0--0--0--0--0--|


  E  E   E  E  E   E  E  E     E  E  E  E  E  E  E  E     E  E   E  S E   E
----------------------------|--------------------------|---------------------|
----------------------------|--------------------------|---------------------|
----------------------------|--------------------------|---------------------|
--0--3h--5--0--6p--5--3--5--|--0--0--0--0--0--0--0--0--|--0--3h--5----3h--5--|


  E  E  E  E  E  E  E  E     E  E   E  E  E   E  E  E
--------------------------|----------------------------|
--------------------------|----------------------------|
--------------------------|----------------------------|
--0--0--0--0--0--0--0--0--|--0--3h--5--0--6p--5--3--5--|

                            11/16 again
  E  E  E  E  E  E  E  E     E  E   E  S E   E     E  E  E  E  E  E  E  E
--------------------------|---------------------|--------------------------|
--------------------------|---------------------|--------------------------|
--------------------------|-----5h--7----5h--7--|--------------------------|
--0--0--0--0--0--0--0--0--|--0------------------|--0--0--0--0--0--0--0--0--|


  E  E   E  E  E   E  E  E     E  E  E  E  E  E  E  E     E  E   E  S E   E
----------------------------|--------------------------|---------------------|
----------------------------|--------------------------|---------------------|
----------------------------|--------------------------|---------------------|
--0--3h--5--0--6p--5--3--5--|--0--0--0--0--0--0--0--0--|--0--3h--5----3h--5--|


  E  E  E  E  E  E  E  E     E  E   E  E  E   E  E  E
--------------------------|----------------------------|
--------------------------|----------------------------|
--------------------------|----------------------------|
--0--0--0--0--0--0--0--0--|--0--3h--5--0--6p--5--3--5--|


  E  E  E  E  E  E  E  E     E  E   E  S E   E     E  E  E  E  E  E  E  E
--------------------------|---------------------|--------------------------|
--------------------------|---------------------|--------------------------|
--------------------------|---------------------|--------------------------|
--0--0--0--0--0--0--0--0--|--0--3h--5----3h--5--|--2--2--2--2--2--2--2--2--|


  E  E   E  E  E   E  E  E     E  E  E  E  E  E  E  E     E  E   E  S E   E
----------------------------|--------------------------|---------------------|
----------------------------|--------------------------|---------------------|
----------------------------|--------------------------|---------------------|
--2--5h--7-----8p--7--5--7--|--2--2--2--2--2--2--2--2--|--2--5h--7----5h--7--|


  E  E  E  E  E  E  E  E     E  E   E  E  E   E  E  E
--------------------------|----------------------------|
--------------------------|----------------------------|
--------------------------|----------------------------|
--2--2--2--2--2--2--2--2--|--2--5h--7-----8p--7--5--7--|


  E  E  E  E  E  E  E  E     E  E   E  S E   E     E  E  E  E  E  E  E  E
--------------------------|---------------------|--------------------------|
--------------------------|---------------------|--------------------------|
--------------------------|---------------------|--------------------------|
--2--2--2--2--2--2--2--2--|--2--5h--7----5h--7--|--7--7--7--7--7--7--7--7--|

End Of Solo
  E  E  E  E  E  E  E  E     E  E  E  E  E  E  E  E
--------------------------|--------------------------|
--------------------------|--------------------------|
--------------------------|--------------------2--2--|
--0--0--1--0--0--1--0--0--|--1--0--0--1--0--0--------|


  E  E  E  E  E  E  E  E     E  E  E  E  E  E  Q       E  E  E  E  E  E  E  E
--------------------------|-------------------------|--------------------------|
--------------------------|-------------------------|--------------------------|
--------------------------|--------------------2----|--------------------------|
--0--0--1--0--0--1--0--0--|--1--0--0--1--0--0-------|--0--0--1--0--0--1--0--0--|


  E  E  E  E  E  E  E  E     E  E  E  E  E  E  E  E     E  E  E  E  E  E  Q
--------------------------|--------------------------|-------------------------|
--------------------------|--------------------------|-------------------------|
--------------------2--2--|--------------------------|--------------------2----|
--1--0--0--1--0--0--------|--0--0--1--0--0--1--0--0--|--1--0--0--1--0--0-------|


  E  E  E  Q    E  E  S S    E  E  E  E  E  E  E  E     E  E  H        E  S S
--------------------------|--------------------------|------------------------|
--------------------------|--------------------0--2--|--4--5------------------|
--------------------------|-----------0--2--3--------|--------3--------L--3-3-|
--0--0--0--0----0--0--0-0-|--0--2--3-----------------|------------------------|


  E  E  E  E  E  E  E  E     E  E  E  Q    E  E  S S
--------------------------|--------------------------|
--------------------------|--------------------------|
--3--2--3--5--3--2--0--2--|--------------------------|
--------------------------|--0--0--0--0----0--0--0-0-|


  E  E  E  E  E  E  E  E     E  E  H        E  S S    E  E  E  E  E  E  E  E
--------------------------|------------------------|--------------------------|
--------------------0--2--|--4--5------------------|--------------------------|
-----------0--2--3--------|--------3--------L--3-3-|--3--2--3--5--3--2--0--2--|
--0--2--3-----------------|------------------------|--------------------------|


  E  E  E  Q    E  E  S S    E  E  E  E  E  E  E  E     E  E  H        E  S S
--------------------------|--------------------------|------------------------|
--------------------------|--------------------0--2--|--4--5------------------|
--------------------------|-----------0--2--3--------|--------3--------L--3-3-|
--0--0--0--0----0--0--0-0-|--0--2--3-----------------|------------------------|


  E  E  E  E  E  E  E  E     E  E  E  Q    E  E  S S
--------------------------|--------------------------|
--------------------------|--------------------------|
--3--2--3--5--3--2--0--2--|--------------------------|
--------------------------|--0--0--0--0----0--0--0-0-|


  E  E  E  E  E  E  E  E     E  E  H        E  S S    E  E  E  E  E  E  E  E
--------------------------|------------------------|--------------------------|
--------------------0--2--|--4--5------------------|--------------------------|
-----------0--2--3--------|--------3--------L--3-3-|--3--2--3--5--3--2--0--2--|
--0--2--3-----------------|------------------------|--------------------------|

                                                    Bridge
  H.           E  S S    E  E  E  E  E  E  E  E     Q    H.
----------------------|--------------------------|--------------------|
----------------------|--------------------------|--------------------|
------------------3-3-|--3--2--3--5--3--2--0--2--|--------------------|
--0------------L------|--------------------------|--0-----------------|


  W                   W                   E   E  E  E   E  E  E   E
-------------------|-------------------|-----------------------------|
-------------------|-------------------|-----------------------------|
-------------------|-------------------|-----------------------------|
-------------------|-------------------|--3s--2--0--3s--2--0--3s--2--|


  Q    H.              W                   W
--------------------|-------------------|-------------------|
--------------------|-------------------|-------------------|
--------------------|-------------------|-------------------|
--0-----------------|-------------------|-------------------|


  E   E  E  E   E  E  E   E     E   E  E  E   E  E  E   E
-----------------------------|-----------------------------|
-----------------------------|-----------------------------|
-----------------------------|-----------------------------|
--3s--2--0--3s--2--0--3s--2--|--3s--2--0--3s--2--0--3s--2--|

Verse
  Q    E  E  E  E  E  E     E  E   E  E  E   E  E  E
-------------------------|----------------------------|
-------------------------|----------------------------|
-------------------------|----------------------------|
--0----0--0--0--0--0--0--|--0--3h--5--0--6p--5--3--5--|


  E  E  E  E  E  E  E  E     E  E   E  S E   E     E  E  E  E  E  E  E  E
--------------------------|---------------------|--------------------------|
--------------------------|---------------------|--------------------------|
--------------------------|---------------------|--------------------------|
--0--0--0--0--0--0--0--0--|--0--3h--5----3h--5--|--0--0--0--0--0--0--0--0--|


  E  E   E  E  E   E  E  E     E  E  E  E  E  E  E  E     E  E   E  S E   E
----------------------------|--------------------------|---------------------|
----------------------------|--------------------------|---------------------|
----------------------------|--------------------------|-----5h--7----5h--7--|
--0--3h--5--0--6p--5--3--5--|--0--0--0--0--0--0--0--0--|--0------------------|


  E  E  E  E  E  E  E  E     E  E   E  E  E   E  E  E
--------------------------|----------------------------|
--------------------------|----------------------------|
--------------------------|----------------------------|
--0--0--0--0--0--0--0--0--|--0--3h--5--0--6p--5--3--5--|


  E  E  E  E  E  E  E  E     E  E   E  S E   E     E  E  E  E  E  E  E  E
--------------------------|---------------------|--------------------------|
--------------------------|---------------------|--------------------------|
--------------------------|---------------------|--------------------------|
--0--0--0--0--0--0--0--0--|--0--3h--5----3h--5--|--0--0--0--0--0--0--0--0--|


  E  E   E  E  E   E  E  E     E  E  E  E  E  E  E  E     E  E   E  S E   E
----------------------------|--------------------------|---------------------|
----------------------------|--------------------------|---------------------|
----------------------------|--------------------------|---------------------|
--0--3h--5--0--6p--5--3--5--|--0--0--0--0--0--0--0--0--|--0--3h--5----3h--5--|


  E  E  E  E  E  E  E  E     E  E   E  E  E   E  E  E
--------------------------|----------------------------|
--------------------------|----------------------------|
--------------------------|----------------------------|
--2--2--2--2--2--2--2--2--|--2--5h--7-----8p--7--5--7--|


  E  E  E  E  E  E  E  E     E  E   E  S E   E     E  E  E  E  E  E  E  E
--------------------------|---------------------|--------------------------|
--------------------------|---------------------|--------------------------|
--------------------------|---------------------|--------------------------|
--2--2--2--2--2--2--2--2--|--2--5h--7----5h--7--|--2--2--2--2--2--2--2--2--|


  E  E   E  E  E   E  E  E     E  E  E  E  E  E  E  E     E  E   E  S E   E
----------------------------|--------------------------|---------------------|
----------------------------|--------------------------|---------------------|
----------------------------|--------------------------|---------------------|
--2--5h--7-----8p--7--5--7--|--2--2--2--2--2--2--2--2--|--2--5h--7----5h--7--|


  E  E  E  E  E  E  E  E     Q    E  E  Q    Q       E  E  E  E  H
--------------------------|-----------------------|-----------------------|
--------------------------|-----------------------|-----------------------|
--------------------------|-------------5----7----|-----------------------|
--7--7--7--7--7--7--7--7--|--0----0--0------------|--0--0--2--0--3--------|

Pre Chorus
  E  E  E  E  Q    Q       E  E  E  E  Q    Q       Q    E  E  Q    Q
------------------------|------------------------|-----------------------|
------------------------|--------------1---------|-----------------------|
--3--3--3--3--3----2----|--3--3--3--3-------2----|-------------5----7----|
------------------------|------------------------|--0----0--0------------|


  E  E  E  E  H           E  E  E  E  Q    Q       E  E  E  E  Q    Q
-----------------------|------------------------|------------------------|
-----------------------|------------------------|--------------1---------|
-----------------------|--3--3--3--3--3----2----|--3--3--3--3-------2----|
--0--0--2--0--3--------|------------------------|------------------------|


  Q    E  E  Q    Q       E  E  E  E  H           E  E  E  E  Q    Q
-----------------------|-----------------------|------------------------|
-----------------------|-----------------------|------------------------|
-------------5----7----|-----------------------|--3--3--3--3--3----2----|
--0----0--0------------|--0--0--2--0--3--------|------------------------|


  E  E  E  E  Q    Q       Q    E  E  Q    Q       E  E  E  E  H
------------------------|-----------------------|-----------------------|
--------------1---------|-----------------------|-----------------------|
--3--3--3--3-------2----|-------------5----7----|-----------------------|
------------------------|--0----0--0------------|--0--0--2--0--3--------|


  E  E  E  E  Q    Q       E  E  Q    E  E  Q       Q    Q    Q    Q
------------------------|------------------------|----------------------|
------------------------|--4--2--1----1----------|----------------------|
--3--3--3--3--3----2----|----------------3--2----|----------------------|
------------------------|------------------------|--0----0--------------|

                         Chorus
  Q    Q    Q    Q       Q    E  Q    E  E  E     E  E  E  E
----------------------|------------------------|--------------|
----------------------|------------------------|--------------|
----------------------|------------------------|--------------|
--1----1--------------|--0----0--0----0--0--0--|--2--0--0--0--|


  Q    E  E  E  E  E  E     E  E  Q    E  E  Q       Q    Q    E  E  E  E
-------------------------|------------------------|------------------------|
-------------------------|------------------------|------------------------|
-------------------------|------------------------|--3----3----L--0--0--0--|
--3----3--3--L--3--3--3--|--3--3--3----3--3--3----|------------------------|


  E  E  E  E     Q    E  Q    E  E  E     Q    Q    E  E  E  E
--------------|------------------------|------------------------|
--------------|------------------------|------------------------|
--2--0--0--0--|--0----0--0----0--0--0--|--0----0----0--0--0--0--|
--------------|------------------------|------------------------|


  Q    Q.     E  E  E     E  E  E  E     Q    Q.     E  E  E
-----------------------|--------------|-----------------------|
-----------------------|--------------|-----------------------|
--5----5------0--0--0--|--3--0--0--0--|--2----2------2--5--7--|
-----------------------|--------------|-----------------------|


  Q    Q.     E  E  E     E  E  E  E     Q    E  E  E  E  Q       E  E  Q
-----------------------|--------------|------------------------|-------------|
-----------------------|--------------|------------------------|-------------|
-----------------------|--5-----------|--3----3--3--L--3--3----|--3--3--3----|
--0----0------0--0--0--|-----0--0--0--|------------------------|-------------|


  Q    Q    H           Q    Q    H           Q    E  Q    E  E  E
---------------------|---------------------|------------------------|
---------------------|---------------------|------------------------|
---------------------|---------------------|------------------------|
--0----0-------------|--1----1-------------|--0----0--0----0--0--0--|


  E  E  E  E     Q    E  Q    E  E  E     E  E  E  E  Q    E  E
--------------|------------------------|-------------------------|
--------------|------------------------|-------------------------|
--------------|--3----3--3----3--3--3--|--3--3--2--2--0----------|
--3--0--0--0--|------------------------|-------------------3--3--|

                                                Outro
  Q    Q    H           Q    Q    H           E  E  E  E  E  E  E  E
---------------------|---------------------|--------------------------|
---------------------|---------------------|--------------------------|
---------------------|---------------------|--------------------------|
--0----0-------------|--1----1-------------|--0--0--0--0--0--0--0--0--|


  E  E   E  E  E   E  E  E     E  E  E  E  E  E  E  E     E  E   E  S E   E
----------------------------|--------------------------|---------------------|
----------------------------|--------------------------|---------------------|
----------------------------|--------------------------|---------------------|
--0--3h--5--0--6p--5--3--5--|--0--0--0--0--0--0--0--0--|--0--3h--5----3h--5--|


  E  E  E  E  E  E  E  E     E  E   E  E  E   E  E  E
--------------------------|----------------------------|
--------------------------|----------------------------|
--------------------------|----------------------------|
--0--0--0--0--0--0--0--0--|--0--3h--5--0--6p--5--3--5--|


  E  E  E  E  E  E  E  E     E  E   E  S E   E     E  E  E  E  E  E  E  E
--------------------------|---------------------|--------------------------|
--------------------------|---------------------|--------------------------|
--------------------------|-----5h--7----5h--7--|--------------------------|
--0--0--0--0--0--0--0--0--|--0------------------|--0--0--0--0--0--0--0--0--|


  E  E   E  E  E   E  E  E     E  E  E  E  E  E  E  E     E  E   E  S E   E
----------------------------|--------------------------|---------------------|
----------------------------|--------------------------|---------------------|
----------------------------|--------------------------|---------------------|
--0--3h--5--0--6p--5--3--5--|--0--0--0--0--0--0--0--0--|--0--3h--5----3h--5--|


  E  E  E  E  E  E  E  E     E  E   E  E  E   E  E  E
--------------------------|----------------------------|
--------------------------|----------------------------|
--------------------------|----------------------------|
--0--0--0--0--0--0--0--0--|--0--3h--5--0--6p--5--3--5--|


  E  E  E  E  E  E  E  E     E  E   E  S E   E     W
--------------------------|---------------------|-------------------|
--------------------------|---------------------|-------------------|
--------------------------|---------------------|-------------------|
--0--0--0--0--0--0--0--0--|--0--3h--5----3h--5--|-------------------|


                                ^
  E   E  E  E   E  E  E   E     W
-----------------------------|-------------------||
-----------------------------|-------------------||
-----------------------------|-------------------||
--3s--2--0--3s--2--0--3s--2--|--0----------------||

while this is not 100% i believe it to be closer than the other tabs i have seen.
liquidbassial,
R.I.P. Cliff Burton

What Cliff seems to be playing in the pre solo verse part:
 E  E  E  E  E  E  E  E     E  E  E  E  E  E  E  S S
--------------------------|---------------------------|
--------------------------|---------------------------|
--------------------------|-----------------------3-3-|
--0--0--0--0--0--0--0--0--|--2--2--3--2--2--2--3------|


  E  E  E  E  E  E  E  E     E  E  E  E  E  E  E  S S
--------------------------|---------------------------|
--------------------------|---------------------------|
-----------------------3--|-----------------------3-3-|
--2--2--3--2--2--2--3-----|--2--2--3--2--2--2--3------|

Bridge Part

E  E  E  E  E  E  E  E     E  E  E  E  E  E  E  E
--------------------------|--------------------------|
--------------------------|--------------------------|
--------2-----------------|--------------------2--2--|
--0--1-----1--1--1--1--1--|--1--1--1--1--1--1--------|

E  E  E  E  E  E  E  E     E  E  E  E  E  E  E  Q
--------------------------|--------------------------|
--------------------------|--------------------------|
--------2-----------------|--------------------2-----|
--0--1-----1--1--1--1--1--|--1--1--1--1--1--1--------|

Thanks to the guy who told me to put that bridge bit in =)

Duration Legend
---------------
W - whole
H - half
Q - quarter
E - 8th
S - 16th
T - 32nd
X - 64th
. - note dotted
|-n-|  - n-tuplets


Tablature Legend
----------------
L - tied note
x - dead note
g - grace note
(n) - ghost note
> - accentuded note
NH - natural harmonic
AH - artificial harmonic
TH - tapped harmonic
SH - semi harmonic
PH - pitch harmonic
h - hammer on
p - pull off
b - bend
br - bendRelease
pb - preBend
pbr - preBendRelease
brb - bendReleaseBend
\n/ - tremolo bar dip
\n - tremolo bar dive
-/n - tremolo bar Release up
/n\ - tremolo bar inverted dip
/n - tremolo bar return
-\n - tremolo bar Release down
S - shift slide
s - legato slide
/ -  slide into from below or out of upwards
\ -  slide into from above or out of downwards
~ - vibrato
W - wide vibrato
tr - trill
TP - tremolo picking
T - tapping
S - slap
P - pop
< - fade in
^ - brush up
v - brush down
1 comment total.
0 reply
NecroComet wrote on November 8 2012, 06:42 pm

Finally someone notices the bridge at the start of the song

A-----1- 3times ----2-2
E-0-0--- 0-0

I want to post or [tab]
guest
You may want to rate the tab now too:
select rating
Please do not post tabs as comments. Select "correction" instead!