Oops, an error
Loading. Please wait.

Mercyful Fate Tab

68,090 views 163 this week
5 commentsread comments
1 2 3 4 5
excellent!
x 24
Autoscroll
+/-
esc
set tempo
stop
WARNING: You are trying to view
                                    content from Ultimate-Guitar.com
                                    in an unauthorized application,
                                    which is prohibited.

                                    Please use an official Ultimate
                                    Guitar Tabs application for iPhone,
                                    iPad or Android to access legitimate
                                    chords, guitar, bass, and drum tabs
                                    from Ultimate-Guitar.com database.

                                    Type "ultimate guitar tabs" in Apple
                                    App Store's or Android Market's
                                    search to find the application.
#----------------------------------PLEASE NOTE---------------------------------#
#This file is the author's own work and represents their interpretation of the-#
#song. You may only use this file for private study, scholarship, or research.-#
#------------------------------------------------------------------------------#

MERCYFUL FATE
As recorded by Metallica
(From the 1998 Double Album GARAGE INC.)
Transcribed by www.mikesguitarsite.co.uk 
Words by King Diamond Music by Hank Shermann
Arranged by Metallica 

Gtr I (Eb Ab Db Gb Bb Eb) - 'James Hetfield - Rhythm w/dist'
Gtr II (Eb Ab Db Gb Bb Eb) - 'Kirk Hammett - Rhyth w/dist'
Gtr III (Eb Ab Db Gb Bb Eb) - 'Kirk Hammett - Lead w/dist'

Satan's Fall - Intro
  Q=148
 4/4
  Gtr I
         PM|   PM----|   PM------|   PM  ~
   Q     E E S E S E E S E S   E E S E S Q   E E
|------|---------------------|-------------------|
|------|---------------------|-------------------|
|------|---------------------|-------------------|
|------|-----4---------4-----|-----4-----------5-|
|------|---------------------|--------------/4---|
|-14\--|-0-2---2-2-0-2---2-2-|-0-2---2-2-3-------|
       |-Rhy Fig 1

  Gtr III
                                    ~~~~~
   E     E      +S    E     S      +Q      S  S  S  S
|-14----14-----(14)--14----14-----(14)----14--------------|
|-17b19-17b19==(17)r-17b19-17b19==(17)r------17p14-17b19==|
|---------------------------------------------------------|
|---------------------------------------------------------|
|---------------------------------------------------------|
|---------------------------------------------------------|
|
| Gtrs I, II
|  PM---|             PM----------------|     PM-----------
|  E     E       S    E     S       E   E  S  E     S
|---------------------------------------------------------|
|---------------------------------------------------------|
|---------------------------------------------------------|
|----------------4-------------------------4--------------|
|---------------------------------------------------------|
|--0-----2------------2-----2-------0---2-----2-----2-----|


   +S    S  S  S  S     S  S  S  S  S  S  S  E      +E
|-------14-----------------------------------------------|
|-(17)r----17p14-------14-16p14--------------------------|
|----------------16b18----------16p14----14-16b19==(16)r-|
|-------------------------------------16-----------------|
|--------------------------------------------------------|
|--------------------------------------------------------|
|
|----------|            PM---|
|   E       E     S     E     S  Q           Q
|--------------------------------------------------------|
|--------------------------------------------------------|
|--------------------------------4-----------2-----------|
|-----------------4--------------4-----------2-----------|
|--------------------------------2-----------0-----------|
|---0-------2-----------2-----0--------------------------|
                                           end Rhy Fig 1-|

w/Rhy Fig 1
   S  S  E  E    E    a      +E   +E   a      +E     +E
|----------------------------------------------------------|
|----------14---16---16b17==(16)r(16)-16b17==(16)r==(16)---|
|-16p14----14---16---16b18==(16)r(16)-16b18==(16)r==(16)---|
|-------16-------------------------------------------------|
|----------------------------------------------------------|
|----------------------------------------------------------|


                         ~~~~~~~~~
   a      +E   +E   E    E    +E   E  E  E
|------------------------------------------|
|-16b17==(16)r(16)-------------------------|
|-16b18==(16)r(16)-14----------------14-16-|
|-----------------------16---(16)-16-------|
|------------------------------------------|
|------------------------------------------|


   Q        S  S S  S  S S  S  S S  S  E
|------------------------------------------|
|------------------------------------------|
|-16b18====16-16---16-16---16-16---16-16---|
|------------------------------------------|
|------------------------------------------|
|------------------------------------------|


                                   Verse
                                  |-w/Rhy Fig 1 x2
                              ~~
   e  e  e    e    E  +S   S  Q      +Q     Q     H
|--------------------------------||--------------------------|
|--------------------------------||--------------------------|
|-16-16-16---16---16r(16)p14-----||--------------------------|
|----------------------------16--||-(16)\--------------------|
|--------------------------------||--------------------------|
|--------------------------------||--------------------------|


continue Rhy Fig 1


  Gtrs I, II
  B5    C5  G5
  E E E E E E E E   E E E E E E E E
  | |   |   |   |     |   |   |   |
  / /   /   /   /     /   /   /   /
|-----------------|-----------------|
|-Rhy Fig 2           end Rhy Fig 2-|


Rhy Fig 1 (last 2 bars)


                                    F#5
 w/Rhy Fig 2                        Gtr II
                                      W          +W
                                      |           |
                                      /           /

                                    Gtr I
  W                 W                 W          +H.       Q
|-----------------|-----------------|----------|----------------||
|-----------------|-----------------|----------|----------------||
|-----------------|-----------------|----------|----------------||
|-----------------|-----------------|-4--------|-(4)------------||
|-----------------|-----------------|-4--------|-(4)------------||
|-----------------|-----------------|-2--------|-(2)------/x\---||


 Curse Of The Pharoahs
  A Tempo Q=148
  +W                   W                W
   |
   /

         PM|   PM|       PM  PM  ~~           PM|   PM--|
   E  E  E E E E E E   E E E E E Q.     E  E  E E E E E E
|--------------------|----------------|-------------------|
|--------------------|----------------|-------------------|
|------------5-------|-----5---7-7----|-----------5-------|
|--5h=7--7-7-5-7-7-7-|-7-7-5---7-7----|-5h=7--7-7-5-7-7-7-|
|--0-(0)-0-0---0-0-0-|-0-0---0--------|-0-(0)-0-0---0-0-0-|
|--------------------|----------------|-------------------|


    PM|   PM         PM  PM    PM|     PM|   PM
  E E E E E E Q    E E E E E E E E   E E E E E E   +E  E
|----------------|-----------------|---------------------|
|----------------|-----------------|---------------------|
|-------5---5-4--|---------5-------|-------5---7b8r(7)-5-|
|-7-7-7-5---5-4--|-7-7-7-7-5-7-7-7-|-7-7-7-5---7b8r(7)-5-|
|-0-0-0---0------|-0-0-0-0-----0-0-|-0-0-0---0-----------|
|----------------|-----------------|---------------------|


                                     Gtrs I, II
        PM|   PM--|               ~      PM|   PM    PM
  S S E E E E E E E   E E E E E E Q      E E E E E E E E
|-------------------|----------------||-------------------|
|-------------------|----------------||o------------------|
|-7p5-------5-------|-----0-----0----||------7---5--------|
|-7p5-7-7-7-5-7-7-7-|---2-----0------||------7---5-7---7--|
|-----0-0-0---0-0-0-|-3-----2--------||o-0-0---0---0-0-0--|
|-------------------|-------------3--||-------------------|


  PM|   PM               PM--------------------------------------|
  E E E E E Q.      4x E S S E S S E S S E S S   E S S E S S E E E E
|-------------------||-------------------------|---------------------|
|---------6-5tr6---o||-------------------------|---------------------|
|-----4---7-5tr7----||-------------------------|---------------------|
|-----4-------------||-------------------------|-------------------2-|
|-0-0---0----------o||---4-4-4-4-4-4-4-4-4-4-4-|-4-4-4-4-4-4-4---4-0-|
|-------------------||-0-2-2-2-2-2-2-2-2-2-2-2-|-2-2-2-2-2-2-2-0-2---|
                     |-Rhy Fig 3

  Gtr III
                PM----|                              ~
   Q    Q     E E   E E     E E   E E      +E  +S  S Q
|-------------------------|------------------------------|
|-------------------------|------------------------------|
|-------------------------|-------2-4b6====(4)r(4)p2-----|
|-------------------------|-2-4----------------------4---|
|-------------------2-4---|------------------------------|
|-------3-----2-5---------|------------------------------|
|
| Gtrs I, II
|       PM---------------------------------|
| +E  E E S S E S S E S S   E S S E S    S  E   E    E E
|-------------------------|------------------------------|
|-------------------------|------------------------------|
|-------------------------|------------------------------|
|-(2)---------------------|------------------------------|
|-(0)-4-4-4-4-4-4-4-4-4-4-|-4-4-4-4-4----4--4---2------2-|
|-----2-2-2-2-2-2-2-2-2-2-|-2-2-2-2-2----2--2---0------0-|
                                           end Rhy Fig 3-|

w/Rhy Fig 3
   ~~~
  +Q      +Q       H             W
|------------------------------|---------------------|
|------------------------------|---------------------|
|------------------------------|---------------------|
|-(4)-----(4)\-----------------|---------------------|
|------------------------------|---------------------|
|------------------------------|---------------------|


   Q     S     +S   E    S     +S   E    S     +S   E
|-------19b21r(19)p17---19b21r(19)p17---19b21r(19)p17---|
|-------------------------------------------------------|
|-------------------------------------------------------|
|-------------------------------------------------------|
|-------------------------------------------------------|
|-------------------------------------------------------|


                                  ~~~~~~
   E      E    E  E    E  +S   S  Q
|-19b21==19---19-19---19r(19)p17------||
|--------------------------------19---||
|-------------------------------------||
|-------------------------------------||
|-------------------------------------||
|-------------------------------------||


 Verse 1
w/Rhy Fig 3
 ~~~~~~
   +Q       +Q       H             W
|--------------------------------|----------------------|
|-(19)-----(19)\-----------------|----------------------|
|--------------------------------|----------------------|
|--------------------------------|----------------------|
|--------------------------------|----------------------|
|--------------------------------|----------------------|


   E   E     +S  +S  E   E  S     +S  +S  S E      E  E   S S E   E  Q.
|-----------------------------------------------|---------------------------|
|-----------------------------------------------|---------------------------|
|-----[4]b6==(4)r(4)p2---4-[4]b6==(4)r(4)p2-----|-[2]-2---------------------|
|-------------------------------------------4---|---------4p2-----2-[4]-----|
|-----------------------------------------------|-------------4-------------|
|-----------------------------------------------|---------------------------|


Rhy Fig 3 (1st 3 bars only)


  Gtr II
  PM--------------|         PM--------------|           PM--------|
  E S S E S S E E E E   +E  E   E S S E S S E E   +E  E E S S E E  E E
|---------------------|-------------------------|----------------------|
|---------------------|-------------------------|----------------------|
|---------------------|-------------------------|----------------------|
|---------------------|-------------------------|----------------------|
|-4-4-4-4-4-4-4---4-6-|-(6)-------------6-6-6-7-|-(7)-7--------------9-|
|-2-2-2-2-2-2-2-0-2-4-|-(4)-4---4-4-4-4-4-4-4-5-|-(5)-5-5-5-5-5-7--9-7-|
|-Rhy Fill 1A       --|-Rhy Fig 4A
|
| Gtr I
| PM----------|             PM------|   PM            PM  PM|
| E S S E S S E E E E   +E  S S E S S E S S E E   +E  E E S S E E  E E
|---------------------|-------------------------|----------------------|
|---------------------|-------------------------|----------------------|
|---------------------|-------------------------|----------------------|
|---------------------|-------------------------|----------------------|
|-4-4-4-4-4-4-4---4-6-|-(6)-----------6-------7-|-(7)---7-----7-9-11-9-|
|-2-2-2-2-2-2-2-0-2-4-|-(4)-4-4-4-4-4-4-4-4-4-5-|-(5)-5-5-5-5-5-7--9-7-|
|-Rhy Fill 1        --|-Rhy Fig 4

  +E  E   Q     Q     Q     S  S  S  S  E  S  S  E  E Q
|------------------------|---------------------------------||
|------------------------|---------------------------------||
|------------------------|---------------------------------||
|-----9---9-----9-----9--|-11-11-11-11-11-11-11-11---------||
|-(9)--------------------|---------------------------------||
|-(7)-7---7-----7-----7--|--9--9--9--9--9--9--9--9-/x-x\---||
|                                           end Rhy Fig 4A-|
|
|     PM|   PM|   PM|                               PM---|
| +E  S S E S S E S S Q     E     S  S  E  S  S  E  E E  E
|------------------------|---------------------------------||
|------------------------|---------------------------------||
|------------------------|---------------------------------||
|------------------------|---------------------------------||
|-(9)-----9-----9-----9--|-11----11-11-11-11-11-11----4----||
|-(7)-7-7-7-7-7-7-7-7-7--|--9-----9--9--9--9--9--9--0-2--0-||
                                             end Rhy Fig 4-|

 Chorus
  Gtrs I, II
  PM--|       PM              PM        PM--|       PM
  E E E E +E  E E E   +E  E E E Q  Q    E E E E +E  E E E
|-------------------|-----------------|-------------------|
|-------------------|-----------------|-------------------|
|-------------------|-----------------|-------------------|
|-------2-(2)---5-4-|-(4)-5-4---2-----|-------2-(2)---7-6-|
|-4---4-0-(0)---3-2-|-(2)-3-2---0--2--|-4---4-0-(0)---5-4-|
|-2-0-2-------0-----|---------0----0--|-2-0-2-------0-----|
|-Rhy Fig 5

                    PM--|       PM              PM
  +E  E E E Q  Q    E E E E +E  E E E   +E  E E E Q  Q
|-----------------|-------------------|-----------------|
|-----------------|-------------------|-----------------|
|-----------------|-------------------|-----------------|
|-(6)-7-6------2--|-------2-(2)---5-4-|-(4)-5-4---2-----|
|-(4)-5-4-0-2--0--|-4---4-0-(0)---3-2-|-(2)-3-2---0--2--|
|-----------0-----|-2-0-2-------0-----|---------0----0--|
    end Rhy Fig 5-|

  Gtr II
  PM          PM
  E E E E +E  E E E   +Q   Q   E E Q    W          +H.      E. S
|-------------------|-----------------|----------|----------------||
|-------------------|-----------------|----------|----------------||
|-------------------|------6--/9-9-9--|-8--------|-(8)------------||
|-------2-(2)---7-6-|-(6)-------------|----------|----------------||
|-4---4-0-(0)---5-4-|-(4)--4--/7-7-7--|-6--------|-(6)---------2--||
|-2-0-2-------0-----|-----------------|----------|----------x\-0--||
|
| Gtr I
| PM          PM
| E E E E +E  E E E   +Q   Q   Q   Q    W          +H.      E. S
|-------------------|-----------------|----------|----------------||
|-------------------|-----------------|----------|----------------||
|-------------------|-----------------|----------|----------------||
|-------2-(2)---7-6-|-(6)--6S==9---9--|-8--------|-(8)------------||
|-4---4-0-(0)---5-4-|-(4)--4S==7---7--|-6--------|-(6)---------2--||
|-2-0-2-------0-----|-----------------|----------|----------x\-0--||


    +E  E E   S S +E  E E   S S   +E  E E   S S +E  E E   S S
||------------------------------|-----------------------------|
||o-----------------------------|-----------------------------|
||------------------------------|-----------------------------|
||----------------------------2-|-(2)---------4-(4)-2-----x---|
||o-(2)-4-----x-4-(4)-5-----x-0-|-(0)-4-----x-2-(2)-0-----x-2-|
||--(0)-2-----x-2-(2)-3-----x---|-----2-----x---------------0-|
||-Rhy Fig 6A
|
|         PM--|         PM--|           PM--|         PM--|
|   +E  E S S S S +E  E S S S S   +E  E S S S S +E  E S S S S
||------------------------------|-----------------------------|
||o-----------------------------|-----------------------------|
||------------------------------|-----------------------------|
||----------------------------2-|-(2)---------4-(4)-2---------|
||o-(2)-4-------4-(4)-5-------0-|-(0)-4-------2-(2)-0-0-0-0-2-|
||--(0)-2-2-2-2-2-(2)-3-3-3-3---|-----2-2-2-2---------------0-|
||-Rhy Fig 6

  +E  E E   S S +E  E E   S S
|-----------------------------|
|-----------------------------|
|-----------------------------|
|---------------------------2-|
|-(2)-4-----x-4-(4)-5-----x-0-|
|-(0)-2-----x-2-(2)-3-----x---|
|
|       PM--|         PM--|
| +E  E S S S S +E  E S S S S
|-----------------------------|
|-----------------------------|
|-----------------------------|
|---------------------------2-|
|-(2)-4-------4-(4)-5-------0-|
|-(0)-2-2-2-2-2-(2)-3-3-3-3---|


 1.                         2.
                                               Gtr III
  +E  E E   S S Q  E. S      H            Q  E E
|------------------------||-----------------------||
|-----------------------o||-----------------------||
|------------------------||-----------------------||
|-(2)-----------4--2-----||-(2)-----------4--2-4/-||
|-(0)-4-----x-x-2--0--2-o||-(0)-4-----x-x-2--0----||
|-----2-----x-x-------0--||-----2-----x-x---------||
|         end Rhy Fig 6A-|   E  E E   S S Q  Q
|
|       PM--|                     PM--|
| +E  E S S e   Q  E. S      E  E S S e   Q  Q
|------------------------||-----------------------||
|-----------------------o||-----------------------||
|------------------------||-----------------------||
|-(2)-----------4--2-----||-(2)-----------4--2----||
|-(0)-4---------2--0--2-o||-(0)-4---------2--0----||
|-----2-2-2-2---------0--||-----2-2-2-2-----------||
           end Rhy Fig 6-|

 Guitar Solo - Double Time
  Gtr III
                                   ~~~~~~~
    E.      S  +S   S  E   E.      S  +S  S  E
|------------------------------------------------|
|------------------------------------------------|
|--------------------------9---------------------|
|-/11------11-(11)-11-11---9------11-(11)-9h11---|
|------------------------------------------------|
|------------------------------------------------|
|
| Gtrs I, II
|   PM-----------------------------------------|
|   S  S S  S   S   S  S S S  S S  S   S  S  S S
|------------------------------------------------|
|------------------------------------------------|
|------------------------------------------------|
|------------------------------------------------|
|---4--4-4--4---4---4--4-4-4--4-4--4---4--4--4-4-|
|------------------------------------------------|
|-Rhy Fig 7

   S  S  S  S  +S   S  E  E. S +S  S  E
|---------------------------------------|
|------------------------11--9-(9)-x----|
|------------------------11--9-(9)-x----|
|-11-11-11-11-(11)-11-11--------------9-|
|---------------------------------------|
|---------------------------------------|
|
|  S  S  S  S   S   S  E  E. S +S  E.
|---------------------------------------|
|---------------------------------------|
|-------------------------4--4-(4)-4----|
|--6--6--6--6---6---6-----4--4-(4)-4----|
|--4--4--4--4---4---4--0--2--2-(2)-2----|
|---------------------------------------|
                          end Rhy Fig 7-|

w/Rhy Fig 7 x2.5
                                                                                       ~~~
   E   S  S  +S   S  S  S E    S  S  +S   S  E     E    E        +E     E  S S  S  S   Q
|------------------------------------------------|----------------------9--------------------|
|------------------------------------------------|-9----------------------12p9----[9]--------|
|-------------------------9h==10-----------------|-9---11b13====(11)r----------11------9-----|
|-11p==9-11-(11)-11-11-11--------11-(11)-11-11---|-------------------------------------------|
|------------------------------------------------|-------------------------------------------|
|------------------------------------------------|-------------------------------------------|


    E.      S  +S   S  E   E       +S    S  +S   S  S  S
|----------------------------------------------------------|
|--------------------------9-------(9)---------------------|
|--------------------------9b11====(9)r--------------------|
|-/11------11-(11)-11-11----------------11-(11)-11-11-11---|
|----------------------------------------------------------|
|----------------------------------------------------------|


                               ~~~~~~    PM|
   E.      S  +S  S  E  S S  S S +S  S   S  S
|---------------------------------------------|
|---------11-(11)------11p9-------------------|
|-11------11-(11)-9-11-11p9----9-(9)-9--10-10-|
|---------------------------11----------------|
|---------------------------------------------|
|---------------------------------------------|


   S S  S S +S  S E    S S  S S +S  S E
|-----------------------------------------|
|-----------------9-----------------9-----|
|-11p9----9-(9)-9-----11p9----9-(9)---9---|
|------11------------------11-------------|
|-----------------------------------------|
|-----------------------------------------|


   S S  S S  S    S S  S S  S S  S E      S  S
|-------------------9------------------------------||
|-----------------9---12p9------------------14tr17-||
|-11p9----9-11b13----------11p9----9b9.5-----------||
|------11-----------------------11-------11--------||
|--------------------------------------------------||
|--------------------------------------------------||
|
|  S S  S S  S    S E    Q         E      S  S
|--------------------------------------------------||
|--------------------------------------------------||
|------------------------4---------4------x--------||
|--6-6--6-6--6----6------4---------4------x--------||
|--4-4--4-4--4----4-0----2---------2------x--2-----||
|--------------------------------------------0-----||

w/Rhy Fig 6 + 6 A x1.75 (both)
               \3.5___________________________________/   \3.5___
   +E.        +S       +Q             +Q.            +S   S
|---------------------------------------------------------------|
|-(14tr17)---(14tr17)-(14tr17)-------(14tr17)-------(14)h17-----|
|---------------------------------------------------------------|
|---------------------------------------------------------------|
|---------------------------------------------------------------|
|---------------------------------------------------------------|


          /    \1.5___________/                   \2
   +E    +S   +S      +E     +S       +S   +E    +E    +E.      S
|-----------------------------------------------------------------|
|-(17)--(17)-(17)----(17)---(17)b19==(17)-(17)r=(17)--(17)-----16-|
|--------------------------------------------------------------16-|
|--------------------------------------------------------------16-|
|-----------------------------------------------------------------|
|-----------------------------------------------------------------|


              \1/     \1/       \1/    \1/     \1/     \1/
   +Q        +E      +E        +E      S    S  S    E  S
|----------------------------------------------------------|
|-(16)------(16)----(16)------(16)-------------------------|
|-(16)------(16)----(16)------(16)----16p==14h16p==14h16p==|
|-(16)------(16)----(16)------(16)-------------------------|
|----------------------------------------------------------|
|----------------------------------------------------------|


       \1/             \0.25/     \0.25/
                                               ~~
                |--------3--------|
   E   S    S  +E     +E         +E         E  Q     S  S
|---------------------------------------------------------|
|---------------------------------------------------15-15-|
|-14h=16p==14-(14)---(14)-------(14)-------14-14----------|
|---------------------------------------------------------|
|---------------------------------------------------------|
|---------------------------------------------------------|


                                                          TP                  TP
                                      |------3-------|
   S   S  S  S  Q        +S   E    S  E    E    S    S    H.                  Q
|-17--17-17-17-17-------(17)-17------------------------|-17S=================14---------|
|-15--15-15-15-15-------(15)-17---17-17---17---17---17-|-17S=================14---------|
|------------------------------------------------------|--------------------------------|
|------------------------------------------------------|--------------------------------|
|------------------------------------------------------|--------------------------------|
|------------------------------------------------------|--------------------------------|


             \3.5________________/      \7
   Q        +H                   E    S S
|------------------------------------------|
|-14tr17---(14tr17)------------------------|
|-------------------------------14---14p0--|
|------------------------------------------|
|------------------------------------------|
|------------------------------------------|


                          \1/   \1/   \1/
                     |----3-----|
  +Q.       +S   S  +E   +E    +E    +E.     S    +Q     Q      H
|----------------------------------------------|---------------------------|
|----------------------------------------------|---------------------------|
|-(0)-------(0)-11-(11)-(11)--(11)--(11)----11-|-(11)\---------------------|
|----------------------------------------------|---------------------------|
|----------------------------------------------|---------------------------|
|----------------------------------------------|---------------------------|
|
|                                                        PM|         PM|
| +E  E E    S   S   Q                E   S  S    +E   E E S S +E  E E S S
|----------------------------------------------|---------------------------|
|----------------------------------------------|---------------------------|
|--------------------------------------------2-|--(2)--------4-(4)-------5-|
|-(2)----------------4----------------2---x--0-|--(0)--4-----2-(2)-4-----3-|
|-(0)-4------x---x---2----------------0---x----|-------2-2-2-------2-2-2---|
|-----2------x---x-----------------------------|---------------------------|
|
|       PM--|                                            PM|         PM|
| +E  E S S  e       Q                E   S  S    +E   E E S S +E  E E S S
|----------------------------------------------|---------------------------|
|----------------------------------------------|---------------------------|
|--------------------------------------------2-|--(2)--------4-(4)-------5-|
|-(2)----------------4----------------2---x--0-|--(0)--4-----2-(2)-4-----3-|
|-(0)-4--------------2----------------0---x----|-------2-2-2-------2-2-2---|
|-----2-2-2--2---------------------------------|---------------------------|


  Gtrs I, II
        PM|         PM|           PM|         PM|           PM|         PM
  +E  E E S S +E  E E S S   +E  E E S S +E  E E S S   +E  E E S S +E  E E S S
|-------------------------|-------------------------|-------------------------|
|-------------------------|-------------------------|-------------------------|
|-(5)-------4-(4)-------2-|-(2)-------4-(4)-------5-|-(5)-------4-(4)---------|
|-(3)-4-----2-(2)-4-----0-|-(0)-4-----2-(2)-4-----3-|-(3)-4-----2-(2)-4---x-2-|
|-----2-2-2-------2-2-2---|-----2-2-2-------2-2-2---|-----2-2-2-------2-0-x-0-|
|-------------------------|-------------------------|-------------------------|


        PM|         PM|           PM|         PM|
  +E  E E S S +E  E E S S   +E  E E S S +E  E E S S
|-------------------------|-------------------------|
|-------------------------|-------------------------|
|-------------------------|-------------------------|
|-(2)-------4-(4)-------5-|-(5)-------4-(4)-------2-|
|-(0)-4-----2-(2)-4-----3-|-(3)-4-----2-(2)-4-----0-|
|-----2-2-2-------2-2-2---|-----2-2-2-------2-2-2---|


        PM|         PM|           PM|
  +E  E E S S +E  E E S S   +E  E E S S +E  E E E
|-------------------------|-----------------------|
|-------------------------|-----------------------|
|-------------------------|-----------------------|
|-(2)-------4-(4)-------5-|-(5)-------4-(4)-------|
|-(0)-4-----2-(2)-4-----3-|-(3)-4-----2-(2)-4-4---|
|-----2-2-2-------2-2-2---|-----2-2-2-------2-2-0-|


  Gtr III
                               |--------------3--------------|
   W               +H          Q      a       +Q    a       +Q
|---------------|-----------------------------------------------|
|-12tr15--------|-(12tr15)----15b17r(15)b17==(15)r(15)b17==(15)r|
|---------------|-----------------------------------------------|
|---------------|-----------------------------------------------|
|---------------|-----------------------------------------------|
|---------------|-----------------------------------------------|
|
| Gtrs I, II
|                              |--------------3--------------|
|  W                H          Q               Q             Q
|---------------|-----------------------------------------------|
|---------------|-----------------------------------------------|
|--9------------|---7-------------------------------------------|
|--9------------|---7----------7---------------6-------------5--|
|--7------------|---5----------5---------------4-------------3--|
|---------------|-----------------------------------------------|


                              ~~~~~~~~~~
    a       +S   +S   Q      +E     +H
|--------------------------------------------------|
|-(15)b17==(15)r(15)p12-----(12)---(12)------------|
|--------------------------------------------------|
|--------------------------------------------------|
|--------------------------------------------------|
|--------------------------------------------------|
|
|                     PM------------------------|
|            E        S S E   S  S   E  S S E S S
|--------------------------------------------------|
|--------------------------------------------------|
|--------------------------------------------------|
|------------4--------4-4-4---4--4---4--4-4-4-4-4--|
|------------0--------2-2-2---2--2---2--2-2-2-2-2--|
|--------------------------------------------------|


    ~~~~
   +Q       +Q       Q   E E       +E   E   Q        S S E    E   E
|--------------------------------|-------------------------------------|
|-(12)-----(12)\-----------------|------7------------------------------|
|--------------------------9b11==|=(9)r-----9b11-----9p7-----[7]-[9]---|
|--------------------------------|-----------------------9-------------|
|--------------------------------|-------------------------------------|
|--------------------------------|-------------------------------------|
|
|   PM-------------------|              PM------------------------------
|   E  S S   E   S S E E E E       +E   S S E    S S E   S S  E   S  S
|--------------------------------|-------------------------------------|
|--------------------------------|-------------------------------------|
|--------------------------2-----|-(2)---------------------------------|
|---4--4-4---4---4-4-4---4-0-----|-(0)--4-4-4----4-4-4---4-4--4---4--4-|
|---2--2-2---2---2-2-2-0-2-------|------2-2-2----2-2-2---2-2--2---2--2-|
|--------------------------------|-------------------------------------|


                                         ~~
   |-----3-----|
   E     +E    E   S    +S  E   S    +S  Q.
|------------------------------------------------||
|------------------------------------------------||
|-[9]b11r(9)p==7---9b11r(9)p7---9b11r(9)p7-------||
|------------------------------------------------||
|------------------------------------------------||
|------------------------------------------------||
|
|-------------------------------|
|  E         S   S E        S S E        E  E E
|------------------------------------------------||
|------------------------------------------------||
|------------------------------------------------||
|--4---------4---4-4--------4-4-4----------------||
|--2---------2---2-2--------2-2-2--------2----2--||
|----------------------------------------0----0--||


 Verse 2
w/Rhy Fig 3 x1.75
  +Q       Q     H             H           Q   E  E
|----------------------------|----------------------|
|----------------------------|-------------------17-|
|-(7)\-----------------------|----------------------|
|----------------------------|----------------------|
|----------------------------|----------------------|
|----------------------------|----------------------|


                           ~~~~~~~
   E     +E   E     +E     Q.            +E
|-19b21r(19)-19b21r(19)---19pb21========(19)r\----|
|-------------------------------------------------|
|-------------------------------------------------|
|-------------------------------------------------|
|-------------------------------------------------|
|-------------------------------------------------|


                        ~~~~
    E  E    E  E       +Q.      +E
|-----------------------------------|
|----------14-17b19r==(17)-----(17)s|
|-----14----------------------------|
|-/16-------------------------------|
|-----------------------------------|
|-----------------------------------|


  Q      Q     H             H           Q   E   E
|--------------------------|-----------------------|
|-x\-----------------------|-----------------------|
|--------------------------|-----------------------|
|--------------------------|-------------------/16-|
|--------------------------|-----------------------|
|--------------------------|-----------------------|


   E   S  S  +S   S  E    E  S  S  +S   S  E
|-17--17-17-(17)---------17-17-17-(17)---------|
|----------------------------------------------|
|-14--14-14-(14)-14------14-14-14-(14)-14------|
|-------------------16--------------------16---|
|----------------------------------------------|
|----------------------------------------------|

w/Rhy Fill 1 + 1A                    |-w/Rhy Fig 4 + 4A
                         ~~         ~~~~~~~~~~~~~~~~~~~~      ~
   E.    S  +S   S  E    Q    +E    E   +Q      Q     Q     E E
|-17----------------------------------|-------------------------|
|-------------------------------------|-------------------------|
|-14----14-(14)-14-14-----------------|-------------------------|
|-------14-(14)-14-14---16---(16)\-/6-|-(6)-----6-----6-----6-7-|
|-------------------------------------|-------------------------|
|-------------------------------------|-------------------------|


   ~~~
  +Q    E E   Q.        E    +Q       Q      Q      Q
|-------------------------|----------------------------|
|-------------------------|----------------------------|
|---------------------/11-|-(11)-----11-----11-----11--|
|-(7)------------------/9-|--(9)------9------9------9--|
|-------7-9---9-----------|----------------------------|
|-------------------------|----------------------------|


   E     E     E  E     Q    Q
|----------------------------------||
|----------------------------------||
|-13----13----13-13----13----------||
|-11----11----11-11----11----------||
|----------------------------------||
|----------------------------x\----||


   Chorus
 Rhy Fig 5 x2

 3/4
  E E E E +Q     E E E E +Q     E E E E +Q     E E E E +Q
|--------------|--------------|--------------|--------------||
|--------------|--------------|--------------|--------------||
|-5-----4-(4)--|-5-----7-(7)--|-4-----5-(5)--|-3-----4-(4)--||
|-5-----4-(4)--|-5-----7-(7)--|-4-----5-(5)--|-3-----4-(4)--||
|-3-----2-(2)--|-3-----5-(5)--|-2-----3-(3)--|-1-----2-(2)--||
|--------------|--------------|--------------|--------------||


 A Corpse Without A Soul
  Faster Q=196(8=s8)
  A5(type 2)
 4/4
  Gtr II
  E E Q     H          W               W
  |
  /

  Gtr I
  PM|                                  PM|
      |-3-|    |-3-|                       |-3-|    |-3-|
  E E E E E Q  E E E   Q  E E E Q  E   E E E E E Q  E E E
|--------------------|---------------|--------------------|
|--------------------|---------------|--------------------|
|-----------5--------|-7--7-5-7-5----|-----------5--------|
|-----7p5---5--7p5---|-7--7-5-7-5--6-|-7---7p5---5--7p5---|
|-0-0-----7--------0-|---------------|-0-0-----7--------7-|
|--------------------|---------------|--------------------|
|-Rhy Fig 8

                  PM|
                      |-3-|    |-3-|
  Q  E E E Q.     E E E E E Q  E E E   Q  E E E Q.
|---------------|--------------------|---------------|
|---------------|--------------------|---------------|
|--------5-0----|-----------5--------|-7--7-5-7-5----|
|-5------5-0----|-----7p5---5--7p5---|-7--7-5-7-5----|
|----7-5--------|-0-0-----7--------0-|---------------|
|---------------|--------------------|---------------|
  end Rhy Fig 8-|

                                        D5V
  Gtr II
            W               H           E  Q.
                                        |  |
                                        /  /

  |-3-| |-3-| |-3-| |-3-|   |-3-| |-3-|
  E E E E E E E E E E E E   E E E E E E E  Q.
|-------------------------|-------------2--2----||
|-------------------------|-------------3--3----||
|-7p5---5-----------------|-------------2--2----||
|-----7---7p5-7p5---5-----|-------------0--0----||
|-----------------7---7-5-|-7p5s3-5p3p0-0--0----||
|-------------------------|---------------------||


    Gtr II
w/Rhy Fig 8
    PM|
        |-3-|    |-3-|
    E E E E E Q  E E E   Q  E E E Q   E
||---------------------|----------------|
||o--------------------|----------------|
||------------5--------|-7--7-5-7-5-----|
||------7p5---5--7p5---|-7--7-5-7-5---6-|
||o-0-0-----7--------0-|----------------|
||---------------------|----------------|
 |-Rhy Fig 8A


  PM|
      |-3-|    |-3-|
  E E E E E Q  E E E   Q  E   E   E Q.
|--------------------|---------------------||
|--------------------|--------------------o||
|-----------5--------|------------5-0------||
|-7---7p5---5--7p5---|-5----------5-0------||
|-0-0-----7--------7-|----7---5-----------o||
|--------------------|---------------------||
                            end Rhy Fig 8A-|


   Verse 1
    PM|                  PM|
        |-3-|    |-3-|       |-3-|    |-3-|
    E E E E E Q  E E E   E E E E E Q  E E E
||---------------------|--------------------|
||o-----------5--------|--------------------|
||------------5--------|--------------------|
||------7p5------7p5---|-----7p5---5--7p5---|
||o-0-0-----7--------7-|-0-0-----7--------7-|
||---------------------|--------------------|
||-Rhy Fig 9A
|
|   PM|                  PM|
|       |-3-|    |-3-|       |-3-|    |-3-|
|   E E E E E Q  E E E   E E E E E Q  E E E
||---------------------|--------------------|
||o--------------------|--------------------|
||------------5--------|--------------------|
||------7p5---5--7p5---|-----7p5---5--7p5---|
||o-0-0-----7--------7-|-0-0-----7--------7-|
||---------------------|--------------------|
 |-Rhy Fig 9

  PM|
      |-3-|    |-3-|      |--3--|
  E E E E E Q  E E E   Q  E E   E E Q.    4x
|--------------------|--------------------||
|-----------5--------|-------------------o||
|-----------5--------|--------------------||
|-----7p5------7p5---|-5--7p5-----5-------||
|-0-0-----7--------7-|----------7-3-5----o||
|--------------------|--------------3-----||
|                          end Rhy Fig 9A-|
|
| PM|
|     |-3-|    |-3-|
| E E E E E Q  E E E   Q  E   E   E Q.    4x
|--------------------|--------------------||
|--------------------|-------------------o||
|-----------5--------|------------5-0-----||
|-----7p5---5--7p5---|-5----------5-0-----||
|-0-0-----7--------7-|----7---5----------o||
|--------------------|--------------------||
                            end Rhy Fig 9-|

  D5V                 B5(type C5
  Gtr II
                      |-3-|
  W          +H       Q Q Q   W
  |           |       | | |   |
  /           /       / / /   /

  Gtr I
                      PM--|
                      |-3-|
  W          +Q   Q   Q Q Q   W
|----------|----------------|------|
|----------|----------------|------|
|-7--------|-(7)------------|-5----|
|-7--------|-(7)------4-4-4-|-5----|
|-5--------|-(5)------2-2-2-|-3----|
|----------|------x\--------|------|


           D5V     A
  +H     E Q.      Q   Q     H         W
   |     | |       |
   /     x /       o

                   PM|          PM|      PM|       ~~~
                       |-3-|
  +H     E Q.      E E E E E Q  E E    E E E  E E  Q.
|---------------||------------------|--------------------|
|---------------||------------------|--------------------|
|-(5)----x-7\---||-----------5------|-10-----12---12-----|
|-(5)----x-7\---||-----7p5---5------|-10-----12---12-----|
|-(3)----x-5\---||-0-0-----7----0-0-|----0-0----0--------|
|---------------||------------------|--------------------|


                                   C5G5
  W                      Q     Q   E Q.      W
                         |     |   | |
                         x     x   / /     |-w/Rhy Fig 8A
  Gtr I
  PM|                                        PM|
      |-3-|    |-3-|                             |-3-|    |-3-|
  E E E E E Q  E E E     H         E Q.      E E E E E Q  E E E
|--------------------|---------------------|----------------------|
|--------------------|---------------------|----------------------|
|-----------5--------|-------------5-0-----|-----------5----------|
|-----7p5---5--7p5---|-------------5-0-----|-----7p5---5--7p5-----|
|-0-0-----7--------0-|-(10)\---------------|-0-0-----7--------0---|
|--------------------|-(10)\---------------|----------------------|


                   PM|
                       |-3-|    |-3-|
  Q  E E E Q   E   E E E E E Q  E E E   Q  E   E   E Q.
|----------------|--------------------|-------------------||
|----------------|--------------------|-------------------||
|-7--7-5-7-5-----|-----------5--------|-5----------5------||
|-7--7-5-7-5---6-|-7---7p5---5--7p5---|-5----------5-5----||
|----------------|-0-0-----7--------7-|----7---5-----5----||
|----------------|--------------------|--------------3----||


   Verse 2
   Rhy Fig 9 + 9A x4(both)



  D5V                 B5(type C5
  Gtr II
                      |-3-|
  W          +H       Q Q Q   W          W               W
  |           |       | | |   |
  /           /       / / /   /

  Gtr I                                Gtrs I, II
                      PM--|              PM------------------------|
                      |-3-|              |-3-| |-3-|     |-3-| |-3-|
  W          +Q   Q   Q Q Q   W          Q Q Q Q Q Q     Q Q Q Q Q Q
|----------|----------------|----------|---------------|----------------|
|----------|----------------|----------|---------------|----------------|
|-7--------|-(7)------------|-5--------|---------------|----------------|
|-7--------|-(7)------4-4-4-|-5--------|-7-5-4-5-4-----|-4--------------|
|-5--------|-(5)------2-2-2-|-3--------|-5-3-2-3-2-0---|-2-0---0-5-4----|
|----------|------x\--------|----------|---------------|-----3---3-2----|


            2/4      4/4
  Gtr III
  W           W        W                   W              H       H
|----------|--------|-------------------|--------------|---------------||
|----------|--------|-------------------|--------------|---------------||
|----------|--------|-------------------|--------------|--------/14----||
|----------|--------|-------------------|--------------|---------------||
|----------|--------|-------------------|--------------|---------------||
|----------|--------|-------------------|--------------|---------------||
|
| Gtr II
| TP          TP       TP                  TP
| W          +H       +W                  +Q   H.        +W
|----------|--------|-------------------|--------------|---------------||
|-2--------|-(2)----|-------------------|--------------|---------------||
|-2--------|-(2)----|-(2)---------------|-(2)--2-------|-(2)-----------||
|-2--------|-(2)----|-(2)---------------|-(2)--2-------|-(2)-----------||
|-0--------|-(0)----|-(0)---------------|-(0)--0-------|-(0)-----------||
|----------|--------|-------------------|--------------|---------------||
|
| Gtr I
| TP          TP
| W          +H        E  E E E E E E E    W             +W
|----------|--------|-------------------|--------------|---------------||
|-2--------|-(2)----|--2--2---2-2---2---|--------------|---------------||
|-2--------|-(2)----|--2--2---2-2---2---|--2-----------|-(2)-----------||
|-2--------|-(2)----|--2--2---2-2---2---|--2-----------|-(2)-----------||
|-0--------|-(0)----|--0--0---0-0---0---|--0-----------|-(0)-----------||
|----------|--------|-------------------|--------------|---------------||


 Into The Coven
  Straight Eigths feel Q=114
  Gtr III
    ~~~~                         ~~~~~~~~~~~~
   +H.            E  E    E      Q.      +Q.      E
|----------------------|----------------------------|
|----------------------|-13----------------------13-|
|-(14)-----------12h14-|--------14------(14)--------|
|----------------------|----------------------------|
|----------------------|----------------------------|
|----------------------|----------------------------|
|
| Gtr I
|      PM|   PM|                    PM    PM-| ~
|   E  E E E E E  E  E    E      E  E E   E  E Q
|----------------------|----------------------------|
|----------------------|----------------------------|
|----------------------|--5b5.5----------------5----|
|---7------7------5--7-|---------7----7--------5----|
|---0--0-0-0-0-0--0--0-|---------0--0-0---0--0------|
|----------------------|----------------------------|


             ~~~~~~~~~~~~~~~~
   H        +H           +W
|---------------------|--------------------|
|-12-------(12)-------|-(12)---------------|
|---------------------|--------------------|
|---------------------|--------------------|
|---------------------|--------------------|
|---------------------|--------------------|
|
|    PM|     PM-|   PM       PM|
|  E E E E   E  E E E     E  E E E +Q   Q
|---------------------|--------------------|
|---------------------|--------------------|
|--4-----4--------4---|---5------5-(5)--7--|
|--5-----5--------5---|---3------5-(5)--7--|
|----0-0-----0--0---0-|------0-0-3-(3)--5--|
|---------------------|--------------------|


                  ~~~~~~~~~~~~~~~
   H.            +Q       +H             H
|----------------------|------------------------|
|-13------------(13)---|-(13)----------/17------|
|----------------------|------------------------|
|----------------------|------------------------|
|----------------------|------------------------|
|----------------------|------------------------|
|
| Gtrs I, II
|     PM|   PM|                    PM    PM| ~
|  E  E E E E E   E  E     E     E E E   E E Q
|----------------------|------------------------|
|----------------------|------------------------|
|----------------------|---5b5.5-------------5--|
|--7------7-------5--7-|---------7---7-------5--|
|--0--0-0-0-0-0---0--0-|---------0-0-0---0-0----|
|----------------------|------------------------|


                                     ~~~
   W                      +H         Q.     +E
|----------------------|-------------------------|
|-15tr17---------------|-(15)-------15-----(15)\-|
|----------------------|-------------------------|
|----------------------|-------------------------|
|----------------------|-------------------------|
|----------------------|-------------------------|
|
|        PM|   PM|            PM|
|  E     E E E E E E E     E  E E E +Q   Q
|----------------------|-------------------------|
|----------------------|-------------------------|
|--4---------4-----4s3-|---5------5-(5)--7-------|
|--5---------5-----5s4-|---3------5-(5)--7-------|
|--------0-0---0-0---0-|------0-0-3-(3)--5-------|
|----------------------|-------------------------|


 Half Time Feel
  Gtrs I, II
    PM|   PM|               PM  PM| ~      PM|   PM|   PM    PM|
  E E E E E E E E   E     E E E E E Q    E E E E E E E E   E E E E +Q   Q
|-----------------|--------------------|-----------------|-----------------|
|-----------------|--------------------|-----------------|-----------------|
|-----------------|-5b5.5-----------5--|-4-----4-----4---|-5-----5-(5)--7--|
|-7-----7-----5-7-|-------7---7-----5--|-5-----5-----5---|-3-----5-(5)--7--|
|-0-0-0-0-0-0-0-0-|-------0-0-0-0-0----|---0-0---0-0---0-|---0-0-3-(3)--5--|
|-----------------|--------------------|-----------------|-----------------|
|-Rhy Fig 10

    PM|   PM|               PM  PM| ~      PM|   PM|         PM|
  E E E E E E E E   E     E E E E E Q    E E E E E E E E   E E E E +Q   Q
|-----------------|--------------------|-----------------|-----------------|
|-----------------|--------------------|-----------------|-----------------|
|-----------------|-5b5.5-----------5--|-4-----4-----4s3-|-5-----5-(5)--7--|
|-7-----7-----5-7-|-------7---7-----5--|-5-----5-----5s4-|-3-----5-(5)--7--|
|-0-0-0-0-0-0-0-0-|-------0-0-0-0-0----|---0-0---0-0---0-|---0-0-3-(3)--5--|
|-----------------|--------------------|-----------------|-----------------|
                                                             end Rhy Fig 10-|

   E E E E +E  E E E   Q.   E E Q.      E E E E +E  E E E   Q  Q  Q   Q
|--------------------|---------------|--------------------|---------------||
|--------------------|---------------|--------------------|---------------||
|-10-7---7-(7)-5-7-5-|-7----8---8----|-10-7---7-(7)-5-7-5-|-7--8--9--10\--||
|-10-7---7-(7)-5-7-5-|-7----8---8----|-10-7---7-(7)-5-7-5-|-7--8--9--10\--||
|--8-5---5-(5)-3-5-3-|-5----6---6----|--8-5---5-(5)-3-5-3-|-5--6--7---8\--||
|--------------------|---------------|--------------------|---------------||


 Verses 1 + 2
  $
w/Rhy Fig 10 (1st 4 bars)
  Gtr III
  PM--|
  S S E Q   H         W                    W                 W
|-------------------|--------------------|-----------------|------------------|
|-------------------|--------------------|-----------------|------------------|
|-------------------|--------------------|-----------------|------------------|
|-7p5---------------|--------------------|-----------------|------------------|
|-----7-------------|--------------------|-----------------|------------------|
|-------------------|--------------------|-----------------|------------------|


Rhy Fig 10 (last 4 bars)


 Chorus
      PM--------------------|            PM--------|
  E E E E E E E E   E E E E E Q.     E E E E E E E E
|-----------------|----------------|-----------------|
|-----------------|----------------|-----------------|
|-----------------|----------------|-----------------|
|-----------------|----------------|-----------------|
|-5-4-4-4-4-4-4-4-|-4-4-4-4-4-5----|-5s4-4-4-4-4-4-4-|
|-3-2-2-2-2-2-2-2-|-2-2-2-2-2-3----|-3s2-2-2-2-2-2-2-|


                       PM--------------------|
  E E E E E Q.     E E E E E E E E   E E E E E Q.
|----------------|-----------------|----------------|
|----------------|-----------------|----------------|
|----------------|-----------------|----------------|
|----------------|-----------------|----------------|
|-----0-2-3-2----|-5-4-4-4-4-4-4-4-|-4-4-4-4-4-5----|
|-2-3-------0----|-3-2-2-2-2-2-2-2-|-2-2-2-2-2-3----|


                                   Guitar Solo
           To Coda
                                 Gtr III
                                                 ~~~
  W                 W                Q.     +E  +Q    E E
|-----------------|--------------||-----------------------|
|-----------------|--------------||-----------------------|
|-----------------|--------------||-----------------------|
|-----------------|--------------||-/7------(7)-(7)---5h7-|
|-----------------|--------------||-----------------------|
|-----------------|--------------||-----------------------|
|
| Gtrs I, II
|     PM------------|    PM
| E E E E E E E E   E Q  E Q  Q
|-----------------|--------------||
|-----------------|--------------||
|-----------------|---2----2-----||-w/Rhy Fig 10
|-----------------|---2----2--2--||
|-5s4-4-4-4-4-4-4-|-4-0----0--2--||
|-3s2-2-2-2-2-2-2-|-2----0----0--||


        ~~~~~~~~~~~
                             |------3------| |----3----|
  E     Q.     +Q.     S S   E E   E E E   E Q    Q    Q
|--------------------------|-------------------------------|
|--------------------------|-------------------------------|
|-5b5.5----------------5-4-|-5-x---7-x-5---x-4-------------|
|-------7------(7)---------|---------------------[7]---5---|
|--------------------------|-------------------------------|
|--------------------------|-------------------------------|


  |---3---|    |--3---|
  Q   Q   Q    Q  Q   Q   E   +E  E E E E a E E
|-----------------------|-------------------------|
|-----------------------|-------------------------|
|-----------------------|---------------------5---|
|-3---2-----------------|-------------------------|
|---------5----3--5---5-|-5b6r(5)-3---3-5-5s7-----|
|-----------------------|-----------5-------------|


  ~~~~~
  Q       E E a    +E  +E  E E
|------------------------------|
|---------5-7-7b8==(7)r(7)-----|
|---------5-7-7b9==(7)r(7)-5---|
|-7--------------------------7-|
|------------------------------|
|------------------------------|


                                               D.S. al Coda
                                                   ~~~
                |--3--| |--3--|
  E Q      +E   E E   E E E   E   E  E  E   +S  S  Q   E E
|---------------5---------------|---------------------------||
|-----------------8---5---------|----------------------5-5--||
|-5-7b9====(7)r---------7-5-----|-5-[7]-7b9r(7)p5------5-5--||
|-----------------------------7-|------------------7--------||
|-------------------------------|---------------------------||
|-------------------------------|---------------------------||


  &
  Gtrs I, II
  PM   PM
  E Q  E Q  Q    S E S E E +E  E +S  E.   S E S E E Q  Q
|--------------|------------------------|-----------------||
|--------------|------------------------|-----------------||
|---2----2-----|-5---5---5-(5)-5-(5)-5--|-5---5---5-------||
|---2----2--2--|-5---5---5-(5)-5-(5)-5--|-5---5---5-5--4--||
|-4-0----0--2--|-3---3---3-(3)-3-(3)-3--|-3---3---3-5--4--||
|-2----0----0--|------------------------|-----------3--2--||


 Evil
  Gtr II
  E E   Q     H             H           E E E E   +Q      +Q       H
|-------------------------|---------------------|------------------------------|
|-------------------------|---------------------|------------------------------|
|-------------------------|---------------------|------------------------------|
|-2-----------------------|-------------4-5-4-5-|-(5)--------------------------|
|-2-----------------------|-------------5-7-5-7-|-(7)-----(7)\-----------------|
|-0-----------------------|---------------------|------------------------------|
|
| Gtr I
|                                       PM--|
| E S S S  E. E S S S  E.   E S S S  E. E E E E   +E  S S  S    E. E S S S  E.
|-------------------------|---------------------|------------------------------|
|-------------------------|---------------------|------------------------------|
|-------------------------|---------------------|------------------------------|
|-9-x-x-9s12--9-x-x-9s12--|-9-x-x-9s12--7-9-7-9-|-(9)-x-x--9s==12--9-x-x-9s12--|
|-7-x-x-7s10--7-x-x-7s10--|-7-x-x-7s10--5-7-5-7-|-(7)-x-x--7s==10--7-x-x-7s10--|
|-------------------------|---------------------|------------------------------|
                                                |-Rhy Fig 11

                                                                PM--| ~
  H           E E E E   +E  S S S  E. E S S S  E.   E S S S  E. E E E E
|---------------------|---------------------------|---------------------|
|---------------------|---------------------------|---------------------|
|---------------------|---------------------------|---------------------|
|-------------4-5-----|---------9s12--9-x-x-9s12--|-9-x-x-9s12--7-9-7-9-|
|-------------5-7-9-7-|-(7)-----7s10--7-x-x-7s10--|-7-x-x-7s10--5-7-5-7-|
|---------------------|-----0-0-------------------|---------------------|
|
|             PM--|                                             PM--|
| E S S S  E. E E E E   +E  S S S  E. E S S S  E.   E S S S  E. E E E E
|---------------------|---------------------------|---------------------|
|---------------------|---------------------------|---------------------|
|---------------------|---------------------------|---------------------|
|-9-x-x-9s12--7-9-7-9-|-(9)-x-x-9s12--9-x-x-9s12--|-9-x-x-9s12--7-9-7-9-|
|-7-x-x-7s10--5-7-5-7-|-(7)-x-x-7s10--7-x-x-7s10--|-7-x-x-7s10--5-7-5-7-|
|---------------------|---------------------------|---------------------|
       end Rhy Fig 11-|

  Gtrs I, II
   ~~~                                    PM--|
  +E  S S S  E. E S S S  E.   E S S S  E. E E E E
|---------------------------|---------------------||
|---------------------------|---------------------||
|---------------------------|---------------------||
|-(9)-x-x-9s12--9-x-x-9s12--|-9-x-x-9s12--7-9-7-4-||
|-(7)-x-x-7s10--7-x-x-7s10--|-7-x-x-7s10--5-7-5-2-||
|---------------------------|---------------------||


 Verse 1
      PM--------------------------|           PM--------|
  +E  E E E E E E E   E E E E E E E E   +E  E E E E E E E
|-------------------|-----------------|-------------------|
|-------------------|-----------------|-------------------|
|-------------------|-----------------|-------------------|
|-(4)---------------|---------------7-|-(7)-4-------------|
|-(2)-2-2-2-2-2-2-2-|-2-2-2-2-2-0-2-5-|-(5)-2-2-2-2-2-2-2-|
|-------------------|-----------------|-------------------|


  PM----------|           PM------------------------|
  E E E E E E E E   +E  E E E E E E E   E E E E E E E E
|-----------------|-------------------|-----------------|
|-----------------|-------------------|-----------------|
|-----------------|-------------------|-----------------|
|---------------7-|-(7)---------------|---------------7-|
|-2-2-2-2-2-0-2-5-|-(5)-5-------------|-----------0-2-5-|
|-----------------|-----3-3-3-3-3-3-3-|-3-3-3-3-3-------|


        PM------------------------|           PM--------|
  +E  E E E E E E E   E E E E E E E E   +E  E E E E E E E
|-------------------|-----------------|-------------------|
|-------------------|-----------------|-------------------|
|-------------------|-----------------|-------------------|
|-(7)-4-------------|---------------7-|-(7)-4-------------|
|-(5)-2-2-2-2-2-2-2-|-2-2-2-2-2-0-2-5-|-(5)-2-2-2-2-2-2-2-|
|-------------------|-----------------|-------------------|


  PM----------|           PM------------------------|
  E E E E E E E E   +E  E E E E E E E   E E E E E E E E
|-----------------|-------------------|-----------------|
|-----------------|-------------------|-----------------|
|-----------------|-------------------|-----------------|
|---------------7-|-(7)-4-------------|---------------7-|
|-2-2-2-2-2-0-2-5-|-(5)-2-2-2-2-2-2-2-|-2-2-2-2-2-0-2-5-|
|-----------------|-------------------|-----------------|


        PM------------------------|           PM|
  +E  E E E E E E E   E E E E E E E E   +E  E E E E E E E
|-------------------|-----------------|-------------------|
|-------------------|-----------------|-------------------|
|-------------------|-----------------|-------------------|
|-(7)---------------|---------------7-|-(7)-4-----4-2-----|
|-(5)-5-------------|-----------0-2-5-|-(5)-2-2-2-2-0---5-|
|-----3-3-3-3-3-3-3-|-3-3-3-3-3-------|-----------------3-|


  Gtr III
   H        Q   E  E
|------------------------||
|------------------------||
|-----------------14b16==||
|------------------------||
|------------------------||
|------------------------||
|
| Gtrs I, II
| +E  E E E E E E  E
|------------------------||
|------------------------||
|------------------------||
|------------------9-----||
|-(5)-------5-4----7-----||
|-(3)-3-3-3-3-2-0--------||


 Guitar Solo
w/Rhy Fig 11 x2
            |---3---|            |--3--|        |---3---|
   +S    S  S  S    S     E      S  S  S     E  S  S    S     S  S  S  S
|---------------------------------------------------------------------------|
|-------12-15p12---------12-----15p12-------12-15p12---------12-15p12-------|
|-(14)r------------14b16--------------14b16------------14b16----------14b16-|
|---------------------------------------------------------------------------|
|---------------------------------------------------------------------------|
|---------------------------------------------------------------------------|


   |--3--|
   S  S  S  S   S   S     +E   S  +S   S  S  S  S  S  S  S
|----------------------------------------------------------|
|-12h15p12--------------------12-(12)----12-15-15p12-15p12-|
|----------15-[13]-13b15r(13)---------13-------------------|
|----------------------------------------------------------|
|----------------------------------------------------------|
|----------------------------------------------------------|


   |--------3--------|        |--3--|
   S   S  S  S  S    S  S  S  S  S  S  S  S  E       S  S   E
|----------------------------------------------------------15b18==|
|-15p=12-12-15p12------12-15p12----12-15p12-15b17---15p12---------|
|-------------------15----------15--------------------------------|
|-----------------------------------------------------------------|
|-----------------------------------------------------------------|
|-----------------------------------------------------------------|


   +Q.            +E    Q       +E   E
|-(15)-----------(15)r-15b18r==(15)-12-|
|----------------------15b18r==(15)----|
|--------------------------------------|
|--------------------------------------|
|--------------------------------------|
|--------------------------------------|

w/Rhy Fig 11 x1.5
                |--------6---------|  |-------6--------|
   S   S  S  S  S  S      S  S  S  S  S  S  S  S  S    S  S  S  S  S
|-15p=12-------12h15p====12----------11h14p11------------------------|
|--------13-13--------------12-11h12----------12-11h==12--------9h12-|
|-----------------------------------------------------------10-------|
|--------------------------------------------------------12----------|
|--------------------------------------------------------------------|
|--------------------------------------------------------------------|
|
|
| +E      S  S  S     E.              E        S    S     S  E.
|--------------------------------------------------------------------|
|--------------------------------------------------------------------|
|--------------------------------------------------------------------|
|-(9)-----x--x--9s===12---------------9--------x----x-----9s12-------|
|-(7)-----x--x--7s===10---------------7--------x----x-----7s10-------|
|---------x--x--7s===10---------------7--------x----x-----7s10-------|
|-Rhy Fig 11A

  S  S S S +S  T T  S S  S S S S S S S S
|-9h12-0-0-(0)10p8h10---10p7-9---9p6-8---|
|---------------------8--------6-------5-|
|----------------------------------------|
|----------------------------------------|
|----------------------------------------|
|----------------------------------------|
|
|
|                        PM------|
| E    S S  S  E.        E   E   E   E
|----------------------------------------|
|----------------------------------------|
|----------------------------------------|
|-9----x-x--9s12---------7---9---7---9---|
|-7----x-x--7s10---------5---7---5---7---|
|-7----x-x--7s10---------5---7---5---7---|


   E.     S  +S  S   E  S S S S E     E
|--7-------------------------------------|
|-------/12-(12)12--------------------5s=|
|-------------------13\---6-6-6----------|
|-------------------------------7--------|
|----------------------------------------|
|----------------------------------------|
|
|
| +E  S   S   S  E.     E   S S S  E.
|----------------------------------------|
|----------------------------------------|
|----------------------------------------|
|-(9)-x---x---9s12------9---x-x-9s12-----|
|-(7)-x---x---7s10------7---x-x-7s10-----|
|-(7)-x---x---7s10------7---x-x-7s10-----|


   Q       Q         +E   E  S +S  S S
|------------------------------------
5 comments total. Showing first comments.
+2 reply
doive wrote on April 5 2006, 07:25 am

How long Did this take?

seriously it over 80 pages long

ur a brilliant genius clearly as the tab seems pretty good but ur also totally insane

0 reply
dustinriley13 wrote on June 18 2006, 08:51 pm

good tab. Some missing parts though.

+1 reply
bass-man9712 wrote on August 11 2009, 12:10 pm

lol finally got throught the whole thing and its amazing! 5/5 man!

I want to post or [tab]
guest
You may want to rate the tab now too:
select rating
Please do not post tabs as comments. Select "correction" instead!