Oops, an error
Loading. Please wait.

Metal Up Your Ass Tab

6,771 views 6 this week
no commentswrite comment
1 2 3 4 5
accurate
x 5
Autoscroll
+/-
esc
set tempo
stop
Contributor
Difficulty
advanced
Hey! There's an official Ultimate Guitar app which is ideal
for learning songs when you're away from computer. Get the app
WARNING: You are trying to view
                                    content from Ultimate-Guitar.com
                                    in an unauthorized application,
                                    which is prohibited.

                                    Please use an official Ultimate
                                    Guitar Tabs application for iPhone,
                                    iPad or Android to access legitimate
                                    chords, guitar, bass, and drum tabs
                                    from Ultimate-Guitar.com database.

                                    Type "ultimate guitar tabs" in Apple
                                    App Store's or Android Market's
                                    search to find the application.
ARTIST: Metallica
ALBUM: Metal Up Your Ass
YEAR: 1982
GENRE: Thrash Metal
COUNTRY: U.S.A.            
TRACKLIST: 
1.	Hit the Lights	04:15	
2.	The Mechanix	04:28	
3.	Phantom Lord	04:59	
4.	Jump in the Fire	04:40	
5.	Motorbreath	03:05	
6.	No Remorse	06:23	
7.	Seek and Destroy	06:51	
8.	Whiplash	04:08	
9.	Am I Evil? (Diamond Head Cover)	07:50	
10.	Metal Militia	05:11	
Total playing time	51:50	

ARTIST: Metallica
ALBUM: Metal Up Your Ass
YEAR: 1982
GENRE: Thrash Metal
C 


Legend
------
H = hammer-on
P = pull-off
B = bend
R = bend release
/ = Slide up/down
 = Natural harmonic
[5] = Artifical harmonic
~ = Vibrato
Tr = trill
1. Hit The Lights
Guitar 1
E||------------------|----------------------|------------|------------------|
B||------------------|----------------------|------------|------------------|
G||------------------|----------------------|------------|------------------|
D||--2---------------|--2----2----2----2----|--2----2----|--2---------------|
A||--2---------------|--2----2----2----2----|--2----2----|--2---------------|
E||--0---------------|--0----0----0----0----|--0----0----|--0---------------|
//
|------------------|-----------------|------------------|
|------------------|-----------------|------------------|
|------------------|-----------------|------------------|
|------------------|-----------------|------------------|
|--4---------------|-----------------|--x\--------------|
|--2---------------|-----------------|--x\--------------|
//
|-----------------------------|-------------------------------|
|-----------------------------|-------------------------------|
|-----------------5--7-7---0--|-------------------------------|
|--5--------------5--7-7---0--|--5--------------7p5---5-------|
|--0--0-0-0-0-0-0-------------|--0--0-0-0-0-0-0-----7----6-7--|
|-----------------------------|-------------------------------|

|------------------------------|----------------------------|
|------------------------------|----------------------------|
|-----------------5--7-7--0-0--|--5-------------------7b----|
|--5--------------5--7-7--0-0--|--5-------------------------|
|--0--0-0-0-0-0-0--------------|-----0-0-0-0-0-0-6h7--------|
|------------------------------|----------------------------|

|-----------------------------|-------------------------------|
|-----------------------------|-------------------------------|
|-----------------5--7-7---0--|--5----------------------------|
|--5--------------5--7-7---0--|--5--------------7p5---5-------|
|--0--0-0-0-0-0-0-------------|-----0-0-0-0-0-0-----7----6-7--|
|-----------------------------|-------------------------------|





|------------------------------|----------------------------------|
|------------------------------|----------------------------------|
|-----------------5--7-7--0-0--|----------------------------------|
|--5--------------5--7-7--0-0--|--5-------------------------------|
|--0--0-0-0-0-0-0--------------|--0--0-0-0-0-0--------------------|
|------------------------------|----------------------------------|


|------------------------------|-------------------------------|
|------------------------------|-------------------------------|
|-----------------5--7-7--0-0--|-------------------------------|
|--5--------------5--7-7--0-0--|--5--------------7p5---5-------|
|--0--0-0-0-0-0-0--------------|--0--0-0-0-0-0-0-----7----6-7--|
|------------------------------|-------------------------------|


|------------------------------|-------------------------------|
|------------------------------|-------------------------------|
|-----------------5--7-7--0-0--|--5----------------------------|
|--5--------------5--7-7--0-0--|--5--------------7p5---5-------|
|--0--0-0-0-0-0-0--------------|-----0-0-0-0-0-0-----7----6-7--|
|------------------------------|-------------------------------|


Verses
|----------------------|-----------------------|------------------------------|
|----------------------|-----------------------|------------------------------|
|--7--7----------------|--7--7-----------------|-----------------5--7-7--0-0--|
|--7--7------5--5------|--7--7-----------------|--5--------------5--7-7--0-0--|
|--5--5------5--5------|--5--5------3---2------|--0--0-0-0-0-0-0--------------|
|------------3--3------|--------------------3--|------------------------------|
No life till leather...


|-------------------------------|------------------------------|
|-------------------------------|------------------------------|
|-------------------------------|-----------------5--7-7--0-0--|
|--5--------------7p5---5-------|--5--------------5--7-7--0-0--|
|--0--0-0-0-0-0-0-----7----6-7--|--0--0-0-0-0-0-0--------------|
|-------------------------------|------------------------------|


|-------------------------------|----------------------|-----------------------|
|-------------------------------|----------------------|-----------------------|
|--5----------------------------|--7--7----------------|--7--7-----------------|
|--5--------------7p5---5-------|--7--7------5--5------|--7--7-----------------|
|-----0-0-0-0-0-0-----7----6-7--|--5--5------5--5------|--5--5------3---2------|
|-------------------------------|------------3--3------|--------------------3--|


------------------------------|-------------------------------|
------------------------------|-------------------------------|
-----------------5--7-7--0-0--|-------------------------------|
--5--------------5--7-7--0-0--|--5--------------7p5---5-------|
--0--0-0-0-0-0-0--------------|--0--0-0-0-0-0-0-----7----6-7--|
------------------------------|-------------------------------|


|--------------------|--------------------------------|-----------------------|
|--------------------|--------------------------------|-----------------------|
|--------------------|--------------------------------|-----------------------|
|-----9--------------|--------------------------------|--2----2------2---2----|
|-----7--------------|-----------------3----2---------|--0----0------0---0----|
|--0-----------------|--3----2----3--------------3----|------------3----------|


|---------------------|-----------------------|---------------------|
|---------------------|-----------------------|---------------------|
|---------------------|-----------------------|---------------------|
|----2---2----5-------|--2----2------2---2----|----2---2----5-------|
|----0---0----3---5---|--0----0------0---0----|----0---0----3---5---|
|--3--------------3---|------------3----------|--3--------------3---|


|-----------------------|---------------------|-----------------------|
|-----------------------|---------------------|-----------------------|
|-----------------------|---------------------|-----------------------|
|--2----2------2---2----|----2---2----5-------|--2----2------2---2----|
|--0----0------0---0----|----0---0----3---5---|--0----0------0---0----|
|------------3----------|--3--------------3---|------------3----------|


|-----------------|------------------------------|
|-----------------|------------------------------|
|-----------------|-----------------5--7-7--0-0--|
|-----------------|--5--------------5--7-7--0-0--|
|-----------------|--0--0-0-0-0-0-0--------------|
|-----------------|------------------------------|


|-------------------------------|------------------------------|
|-------------------------------|------------------------------|
|-------------------------------|-----------------5--7-7--0-0--|
|--5--------------7p5---5-------|--5--------------5--7-7--0-0--|
|--0--0-0-0-0-0-0-----7----6-7--|--0--0-0-0-0-0-0--------------|
|-------------------------------|------------------------------|


|-------------------------------|----------------------|-----------------------|
|-------------------------------|----------------------|-----------------------|
|--5----------------------------|--7--7----------------|--7--7-----------------|
|--5--------------7p5---5-------|--7--7------5--5------|--7--7-----------------|
|-----0-0-0-0-0-0-----7----6-7--|--5--5------5--5------|--5--5------3---2------|
|-------------------------------|------------3--3------|--------------------3--|


|------------------------------|-------------------------------|
|------------------------------|-------------------------------|
|-----------------5--7-7--0-0--|-------------------------------|
|--5--------------5--7-7--0-0--|--5--------------7p5---5-------|
|--0--0-0-0-0-0-0--------------|--0--0-0-0-0-0-0-----7----6-7--|
|------------------------------|-------------------------------|




|------------------------------|-------------------------------|
|------------------------------|-------------------------------|
|-----------------5--7-7--0-0--|--5----------------------------|
|--5--------------5--7-7--0-0--|--5--------------7p5---5-------|
|--0--0-0-0-0-0-0--------------|-----0-0-0-0-0-0-----7----6-7--|
|------------------------------|-------------------------------|


|----------------------|-----------------------|------------------------------|
|----------------------|-----------------------|------------------------------|
|--7--7----------------|--7--7-----------------|-----------------5--7-7--0-0--|
|--7--7------5--5------|--7--7-----------------|--5--------------5--7-7--0-0--|
|--5--5------5--5------|--5--5------3---2------|--0--0-0-0-0-0-0--------------|
|------------3--3------|--------------------3--|------------------------------|


|-------------------------------|--------------------|
|-------------------------------|--------------------|
|-------------------------------|--------------------|
|--5--------------7p5---5-------|-----9--------------|
|--0--0-0-0-0-0-0-----7----6-7--|-----7--------------|
|-------------------------------|--0-----------------|


|--------------------------------|-----------------------|---------------------|
|--------------------------------|-----------------------|---------------------|
|--------------------------------|-----------------------|---------------------|
|--------------------------------|--2----2------2---2----|----2---2----5-------|
|-----------------3----2---------|--0----0------0---0----|----0---0----3---5---|
|--3----2----3--------------3----|------------3----------|--3--------------3---|


|-----------------------|---------------------|-----------------------|
|-----------------------|---------------------|-----------------------|
|-----------------------|---------------------|-----------------------|
|--2----2------2---2----|----2---2----5-------|--2----2------2---2----|
|--0----0------0---0----|----0---0----3---5---|--0----0------0---0----|
|------------3----------|--3--------------3---|------------3----------|


|---------------------|-----------------------|----------------|
|---------------------|-----------------------|----------------|
|---------------------|-----------------------|----------------|
|----2---2----5-------|--2----2------2---2----|----------------|
|----0---0----3---5---|--0----0------0---0----|----------------|
|--3--------------3---|------------3----------|----------------|


|------------------------------|-------------------------------|
|------------------------------|-------------------------------|
|-----------------5--7-7--0-0--|-------------------------------|
|--5--------------5--7-7--0-0--|--5--------------7p5---5-------|
|--0--0-0-0-0-0-0--------------|--0--0-0-0-0-0-0-----7----6-7--|
|------------------------------|-------------------------------|




|------------------------------|-------------------------------|
|------------------------------|-------------------------------|
|-----------------5--7-7--0-0--|--5----------------------------|
|--5--------------5--7-7--0-0--|--5--------------7p5---5-------|
|--0--0-0-0-0-0-0--------------|-----0-0-0-0-0-0-----7----6-7--|
|------------------------------|-------------------------------|


|----------------------|-----------------------|------------------------------|
|----------------------|-----------------------|------------------------------|
|--7--7----------------|--7--7-----------------|-----------------5--7-7--0-0--|
|--7--7------5--5------|--7--7-----------------|--5--------------5--7-7--0-0--|
|--5--5------5--5------|--5--5------3---2------|--0--0-0-0-0-0-0--------------|
|------------3--3------|--------------------3--|------------------------------|


|-------------------------------|------------------------------|
|-------------------------------|------------------------------|
|-------------------------------|-----------------5--7-7--0-0--|
|--5--------------7p5---5-------|--5--------------5--7-7--0-0--|
|--0--0-0-0-0-0-0-----7----6-7--|--0--0-0-0-0-0-0--------------|
|-------------------------------|------------------------------|


|-------------------------------|----------------------|-----------------------|
|-------------------------------|----------------------|-----------------------|
|--5----------------------------|--7--7----------------|--7--7-----------------|
|--5--------------7p5---5-------|--7--7------5--5------|--7--7-----------------|
|-----0-0-0-0-0-0-----7----6-7--|--5--5------5--5------|--5--5------3---2------|
|-------------------------------|------------3--3------|--------------------3--|


|------------------------------|-------------------------------|
|------------------------------|-------------------------------|
|-----------------5--7-7--0-0--|-------------------------------|
|--5--------------5--7-7--0-0--|--5--------------7p5---5-------|
|--0--0-0-0-0-0-0--------------|--0--0-0-0-0-0-0-----7----6-7--|
|------------------------------|-------------------------------|


|--------------------|--------------------------------|-----------------------|
|--------------------|--------------------------------|-----------------------|
|--------------------|--------------------------------|-----------------------|
|-----9--------------|--------------------------------|--2----2------2---2----|
|-----7--------------|-----------------3----2---------|--0----0------0---0----|
|--0-----------------|--3----2----3--------------3----|------------3----------|


|---------------------|-----------------------|---------------------|
|---------------------|-----------------------|---------------------|
|---------------------|-----------------------|---------------------|
|----2---2----5-------|--2----2------2---2----|----2---2----5-------|
|----0---0----3---5---|--0----0------0---0----|----0---0----3---5---|
|--3--------------3---|------------3----------|--3--------------3---|





|-----------------------|---------------------|-----------------------|
|-----------------------|---------------------|-----------------------|
|-----------------------|---------------------|-----------------------|
|--2----2------2---2----|----2---2----5-------|--2----2------2---2----|
|--0----0------0---0----|----0---0----3---5---|--0----0------0---0----|
|------------3----------|--3--------------3---|------------3----------|


|---------------------|--------------------||------------------------|
|---------------------|--------------------||------------------------|
|---------------------|-----------4--------||*------------------5----|
|----2---2----5-------|--2--------5--------||*--7---7---7---7---5----|
|----0---0----3---5---|--0--------5--------||---0---0---0---0--------|
|--3--------------3---|-----------3--------||------------------------|

3x
|-----------------------|-----------------------|-----------------------||
|-----------------------|-----------------------|-----------------------||
|------------------7----|------------------5----|----------------------*||
|--7---7---7---7---7----|--7---7---7---7---5----|--7---5---------------*||
|--0---0---0---0--------|--0---0---0---0--------|----------7--6--5------||
|-----------------------|-----------------------|-------------------8---||


|-----------------------|-----------------------|-----------------------|
|-----------------------|-----------------------|-----------------------|
|--4---4---4---4---7----|--4---4---4---4---9----|--4---4---4---4---7----|
|--4---4---4---4---7----|--4---4---4---4---9----|--4---4---4---4---7----|
|--2---2---2---2---5----|--2---2---2---2---7----|--2---2---2---2---5----|
|-----------------------|-----------------------|-----------------------|


|-----------------------|-----------------------|-----------------------|
|-----------------------|-----------------------|-----------------------|
|-----------------------|--4---4---4---4---7----|--4---4---4---4---9----|
|--9---7----------------|--4---4---4---4---7----|--4---4---4---4---9----|
|----------9--8--7------|--2---2---2---2---5----|--2---2---2---2---7----|
|-------------------10--|-----------------------|-----------------------|


|-----------------------|-----------------------|-----------------------|
|-----------------------|-----------------------|-----------------------|
|--4---4---4---4---7----|-----------------------|--4---4---4---4---7----|
|--4---4---4---4---7----|--9---7----------------|--4---4---4---4---7----|
|--2---2---2---2---5----|----------9--8--7------|--2---2---2---2---5----|
|-----------------------|-------------------10--|-----------------------|


|-----------------------|-----------------------|-----------------------|
|-----------------------|-----------------------|-----------------------|
|--4---4---4---4---9----|--4---4---4---4---7----|-----------------------|
|--4---4---4---4---9----|--4---4---4---4---7----|--9---7----------------|
|--2---2---2---2---7----|--2---2---2---2---5----|----------9--8--7------|
|-----------------------|-----------------------|-------------------10--|




|-----------------------|-----------------------|-----------------------|
|-----------------------|-----------------------|-----------------------|
|--4---4---4---4---7----|--4---4---4---4---9----|--4---4---4---4---7----|
|--4---4---4---4---7----|--4---4---4---4---9----|--4---4---4---4---7----|
|--2---2---2---2---5----|--2---2---2---2---7----|--2---2---2---2---5----|
|-----------------------|-----------------------|-----------------------|


|-----------------------|-----------------------|-----------------------|
|-----------------------|-----------------------|-----------------------|
|-----------------------|--4---4---4---4---7----|--4---4---4---4---9----|
|--9---7----------------|--4---4---4---4---7----|--4---4---4---4---9----|
|----------9--8--7------|--2---2---2---2---5----|--2---2---2---2---7----|
|-------------------10--|-----------------------|-----------------------|


|-----------------------|-----------------------|-----------------------|
|-----------------------|-----------------------|-----------------------|
|--4---4---4---4---7----|-----------------------|--4---4---4---4---7----|
|--4---4---4---4---7----|--9---7----------------|--4---4---4---4---7----|
|--2---2---2---2---5----|----------9--8--7------|--2---2---2---2---5----|
|-----------------------|-------------------10--|-----------------------|


|-----------------------|-----------------------|-----------------------|
|-----------------------|-----------------------|-----------------------|
|--4---4---4---4---9----|--4---4---4---4---7----|-----------------------|
|--4---4---4---4---9----|--4---4---4---4---7----|--9---7----------------|
|--2---2---2---2---7----|--2---2---2---2---5----|----------9--8--7------|
|-----------------------|-----------------------|-------------------10--|


|-----------------------|-----------------------|-----------------------|
|-----------------------|-----------------------|-----------------------|
|--4---4---4---4---7----|--4---4---4---4---9----|--4---4---4---4---7----|
|--4---4---4---4---7----|--4---4---4---4---9----|--4---4---4---4---7----|
|--2---2---2---2---5----|--2---2---2---2---7----|--2---2---2---2---5----|
|-----------------------|-----------------------|-----------------------|


|-----------------------|-----------------------|-----------------------|
|-----------------------|-----------------------|-----------------------|
|-----------------------|--4---4---4---4---7----|--4---4---4---4---9----|
|--9---7----------------|--4---4---4---4---7----|--4---4---4---4---9----|
|----------9--8--7------|--2---2---2---2---5----|--2---2---2---2---7----|
|-------------------10--|-----------------------|-----------------------|


|-----------------------|-----------------------|-----------------------|
|-----------------------|-----------------------|-----------------------|
|--4---4---4---4---7----|-----------------------|------------------5----|
|--4---4---4---4---7----|--9---7----------------|--7---7---7---7---5----|
|--2---2---2---2---5----|----------9--8--7------|--7---7---7---7---3----|
|-----------------------|-------------------10--|--5---5---5---5--------|


|-----------------------|-----------------------|----------------------|
|-----------------------|-----------------------|----------------------|
|------------------7----|------------------5----|----------------------|
|--7---7---7---7---7----|--7---7---7---7---5----|--7---5---------------|
|--7---7---7---7---5----|--7---7---7---7---3----|----------7--6--5-----|
|--5---5---5---5--------|--5---5---5---5--------|-------------------8--|


|-----------------------|-----------------------|-----------------------|
|-----------------------|-----------------------|-----------------------|
|------------------5----|------------------7----|------------------5----|
|--7---7---7---7---5----|--7---7---7---7---7----|--7---7---7---7---5----|
|--7---7---7---7---3----|--7---7---7---7---5----|--7---7---7---7---3----|
|--5---5---5---5--------|--5---5---5---5--------|--5---5---5---5--------|


|----------------------|----------------------|----------------------|
|----------------------|----------------------|----------------------|
|----------------------|----------------------|----------------------|
|--7---5---------------|--7---5---------------|--7---5---------------|
|----------7--6--5-----|----------7--6--5-----|----------7--6--5-----|
|-------------------8--|-------------------8--|-------------------8--|


|------------------------------------------------------------------|
|------------------------------------------------------------------|
|--2-2-2-2-2-2-2-2-2-2-2-2-2-2-2-2-2-2-2-2-2-2-2-2-2-2-2-2-2-2-2-2-|
|--2-2-2-2-2-2-2-2-2-2-2-2-2-2-2-2-2-2-2-2-2-2-2-2-2-2-2-2-2-2-2-2-|
|--0-0-0-0-0-0-0-0-0-0-0-0-0-0-0-0-0-0-0-0-0-0-0-0-0-0-0-0-0-0-0-0-|
|------------------------------------------------------------------|


|------------------------------------------------------------------|
|------------------------------------------------------------------|
|--2-2-2-2-2-2-2-2-2-2-2-2-2-2-2-2-2-2-2-2-2-2-2-2-2-2-2-2-2-2-2-2-|
|--2-2-2-2-2-2-2-2-2-2-2-2-2-2-2-2-2-2-2-2-2-2-2-2-2-2-2-2-2-2-2-2-|
|--0-0-0-0-0-0-0-0-0-0-0-0-0-0-0-0-0-0-0-0-0-0-0-0-0-0-0-0-0-0-0-0-|
|------------------------------------------------------------------|


|-----------------|----------------|-------------------||
|-----------------|----------------|-------------------||
|--2--------------|----------------|--2----2-----------||
|--2--------------|----------------|--2----2-----------||
|--0--------------|----------------|--0----0-----------||
|-----------------|----------------|-------------------||
Guitar 2:
First little solo:
|-----17----------------------17-------20p17-------|
|--------20p17----17-20p17-------20p17-------20-17-|
|--19b---------19b---------19b---------------------|
|--------------------------------------------------|
|--------------------------------------------------|
|--------------------------------------------------|



|--------------20p17-------------------------------|
|-----17-20p17-------20-17\16-17-20p17-------------|
|--19b---------------------------------19-17----17-|
|--------------------------------------------19----|
|--------------------------------------------------|
|--------------------------------------------------|


|--------------------------------------20b---|
|-----17-20p17----17-20p17----17-20p17-------|
|--19b---------19b---------19b---------------|
|--------------------------------------------|
|--------------------------------------------|
|--------------------------------------------|


|--20p17-17-17-20p17-------------------------|----------------|
|--------------------20-17----17-20p17-------|----------------|
|--------------------------19b---------19b---|----------------|
|--------------------------------------------|----------------|
|--------------------------------------------|----------------|
|--------------------------------------------|----------------|
Second little solo:
|------17-----17-----17------17------17--|
|--20b----20b----20b-----20b-----20b-----|
|----------------------------------------|
|----------------------------------------|
|----------------------------------------|
|----------------------------------------|


|-----17-----17------17------17-----17----17-|
|--------20b-----20b-----20b-----------20b---|
|--19b--------------------------19b----------|
|--------------------------------------------|
|--------------------------------------------|
|--------------------------------------------|


|--20p17----17-20p17-------------------------------|
|--------20----------20-17-17-17-20p17-19----------|
|--------------------------------------19-17----17-|
|--------------------------------------------19----|
|--------------------------------------------------|
|--------------------------------------------------|


|----------------------------------------|----------------|----------------|
|----------------------------------------|----------------|----------------|
|--19b17---------------------------------|----------------|----------------|
|--------19-17----17-19-17---------------|----------------|----------------|
|--------------19----------19--17--15----|----------------|----------------|
|----------------------------------------|----------------|----------------|
Main solo (w/ wah pedal)




|-----7--------7------------------------|--------------------------------------|
|------10p7------10p7---7-10p7---7-10p7-|----7-10p7---7-10p7---7-10p7---7-10p7-|
|--9b-------9b--------9b-------9b-------|--9b-------9b-------9b-------9b-------|
|---------------------------------------|--------------------------------------|
|---------------------------------------|--------------------------------------|
|---------------------------------------|--------------------------------------|


|--10p7-9p7---7-9p7-10p7-9p7---7-10p7-|-----------------7--7--7--|
|-----------9----------------9--------|--10b12----r10------------|
|-------------------------------------|--------------------------|
|-------------------------------------|--------------------------|
|-------------------------------------|--------------------------|
|-------------------------------------|--------------------------|


|--7-10p7----7-10p7-----------------------|-------------------------------|
|---------10--------10-7-7-7-10-7---------|-------------------------------|
|---------------------------------9-7-7-7-|--9p7--------------------------|
|-----------------------------------------|------9-7---7-9-7--------------|
|-----------------------------------------|----------9-------9-7-5--5-----|
|-----------------------------------------|----------------------------7--|


|---------------------------------|------------------------|
|---------------------------------|--------------------19--|
|-----------------------------7---|--9b--9b--9b-9b-21b-----|
|-------------7-7-9p7-7-7-7-9---9-|------------------------|
|------5--7/9---------------------|------------------------|
|--5h7----------------------------|------------------------|


|----------------------------------------------|
|-------19----19----19-22-19----19-22p19-24p19-|
|---21b----21b---21b---------21----------------|
|----------------------------------------------|
|----------------------------------------------|
|----------------------------------------------|


|--------------------------------------------------|
|--22-19----19-22p19-24p19-22-19----19-22p19-24p19-|
|--------21----------------------21----------------|
|--------------------------------------------------|
|--------------------------------------------------|
|--------------------------------------------------|


|--------------------------------------------------|
|--22-19----19-22p19-------------17----------------|
|--------21----------21-18\16-18----18-16-14-14-14-|
|--------------------------------------------------|
|--------------------------------------------------|
|--------------------------------------------------|


|------------------------------|--22r-------22b---21r-19----19-|
|--17---17---17--17~-17--17-14-|-------------------------22----|
|--16b--16b--16b-16b-16b-16-14-|-------------------------------|
|------------------------------|-------------------------------|
|------------------------------|-------------------------------|
|------------------------------|-------------------------------|


|--22p19-------------------------------------------|
|--------22-19----19-22p19-------------------------|
|--------------21b---------21-19----19-21p19-------|
|--------------------------------21----------21-19-|
|--------------------------------------------------|
|--------------------------------------------------|


|--------------------------------------------------|
|--------------------------------------------------|
|--------------------------------------------------|
|-----19-21p19-----------------------------19--21--|
|--21----------21-19-17-17-19-17-16-17/21----------|
|--------------------------------------------------|


|------------------19---14p12-|
|-----------------------------|
|--21b--21b--21b--------------|
|-----------------------------|
|-----------------------------|
|-----------------------------|


|--17p14--17p14p12-17p14p12-17p14p12-17p14p12-17p14p12-17p14p12--------|
|---------------------------------------------------------------17p14--|
|----------------------------------------------------------------------|
|----------------------------------------------------------------------|
|----------------------------------------------------------------------|
|----------------------------------------------------------------------|


|--17p14-14-----17p14p12------17p14p12----0-17p14p12----0-|
|-----------x-0----------17-0----------17------------17---|
|---------------------------------------------------------|
|---------------------------------------------------------|
|---------------------------------------------------------|
|---------------------------------------------------------|


|--17p14p12----0-17p14p12----0-17p14-----14-17p14-------|
|-----------17------------17----------17----------17-14-|
|-------------------------------------------------------|
|-------------------------------------------------------|
|-------------------------------------------------------|
|-------------------------------------------------------|



|----------------------------|-----------------------|
|-----14-17--17b-17b-17r-----|----9b-----------------|
|--16b-----------------------|----9b-----7-------7-9b|
|----------------------------|-------------9---------|
|----------------------------|-----------------------|
|----------------------------|-----------------------|


|-----------------------------------|
|---7-10-7---7-10-7-----------------|
|----------9--------9-7-9-7---7~-9\-|
|---------------------------9-------|
|-----------------------------------|
|-----------------------------------|


|--------14-------17p14-------------------------------|
|--12/14----17p14-------17-14----14-17p14-------------|
|-----------------------------16b---------16-14-14-14-|
|-----------------------------------------------------|
|-----------------------------------------------------|
|-----------------------------------------------------|


|--------------------------|--22r-------22b---21r-19-19-19-|
|--------------------------|-------------------------------|
|--16b--16b--16b---16r-14--|-------------------------------|
|--------------------------|-------------------------------|
|--------------------------|-------------------------------|
|--------------------------|-------------------------------|


|--22p19-------------------------------------------|
|--------22-19----19-22p19-------------------------|
|--------------21b---------21-19-19-19-21p19-------|
|--------------------------------------------21-19-|
|--------------------------------------------------|
|--------------------------------------------------|


|--------------------------------------------------|
|--------------------------------------------------|
|--------------------------------------------------|
|-----19-21p19-------------------------------19-21-|
|--21----------21-19-17-17-19-17-16-17-19/21-------|
|--------------------------------------------------|


|--------------------------------------------|
|--------------------------------------------|
|--19-19-21p19-19-19-21p19-21-19----19/20----|
|--------------------------------21-18/19-21-|
|--------------------------------------------|
|--------------------------------------------|



|--------------------------------------------------|
|--15-15-12----13-16-13-14-17p14----15-18p15----16-|
|-----------13-------------------15----------16----|
|--------------------------------------------------|
|--------------------------------------------------|
|--------------------------------------------------|


|---------------------------------------------13-|
|--19p16----17-20p17----18-21p18----18-21~-15----|
|--------17----------18----------18--------------|
|------------------------------------------------|
|------------------------------------------------|
|------------------------------------------------|


|--17p14----15-19p16----16-20p17----18-21p18----19-|--22b--22b--22r-------|
|--------16----------18----------20----------20----|----------------------|
|--------------------------------------------------|----------------------|
|--------------------------------------------------|----------------------|
|--------------------------------------------------|----------------------|
|--------------------------------------------------|----------------------|


|--------------------------------------------------|
|---17-17-20p17-19p17-x-17-22p17-20p17----17\16-17-|
|--------------------------------------20----------|
|--------------------------------------------------|
|--------------------------------------------------|
|--------------------------------------------------|


|--------------------------------------------------|
|--22p17-20p17-19p17----17-22p17-20p17-19p17-17-17-|
|--------------------20----------------------------|
|--------------------------------------------------|
|--------------------------------------------------|
|--------------------------------------------------|


|--------------------------------------------------|--22b-------22b-----|
|--22p17-20p17-19p17----17-22p17-20p17-19p17-17-17-|--------------------|
|--------------------20----------------------------|--------------------|
|--------------------------------------------------|--------------------|
|--------------------------------------------------|--------------------|
|--------------------------------------------------|--------------------|


|--20p17-17-17-20p17-------------------------------|
|--------------------20-17-17-17-20p17-------------|
|--------------------------------------19-17----19-|
|--------------------------------------------19----|
|--------------------------------------------------|
|--------------------------------------------------|



|---------------------------------------------------|
|---------------------------------------------------|
|--17-17-17h19p17-----------------------------------|
|-----------------19-17----17-19p17-----------------|
|-----------------------19----------19-17-15--------|
|--------------------------------------------17-17b-|


|------------------------------------------------|
|---------------------------------------------17-|
|---------------------------------------17-19----|
|------------------17-17-19p17----17-19----------|
|--------15-17/19--------------19----------------|
|--15-17-----------------------------------------|


|-----------------------20p17----------------------------|
|--20-17\16-20p17-20p17-------20-17-17-17-17-20-17\16-17-|
|--------------------------------------------------------|
|--------------------------------------------------------|
|--------------------------------------------------------|
|--------------------------------------------------------|


|--------------------------------------------------|
|--20p17----------------------------------17-20p17-|
|--------19b17-17-17-19-17----17-19-17-19b---------|
|--------------------------19----------------------|
|--------------------------------------------------|
|--------------------------------------------------|


|--20p17----------------------------------------------|
|--------20-17-17-17-20p17-17-------------------------|
|-----------------------------19-17-17-17-19p17-17-17-|
|-----------------------------------------------------|
|-----------------------------------------------------|
|-----------------------------------------------------|


|--------------------------|--------------------------|------------------|
|--20----20----20----20----|--20----20----------------|--20--------------|
|--19b---19b---19b---19b---|--19b---19b---19b---19b---|--19b-------------|
|--------------------------|--------------------------|------------------|
|--------------------------|--------------------------|------------------|
|--------------------------|--------------------------|------------------|


|----------------|---------------------||
|----------------|--20----20-----------||
|----------------|--19b---19b----------||
|----------------|---------------------||
|----------------|---------------------||
|----------------|---------------------|| 




2. The Mechanix 
INTRO:
E|-----------||---------------------------------------------------------------|
B|-----------||---------------------------------------------------------------|
G|-----------||---------------------------------------------------------------|
D|--5---7-5--||----------------------------------------------------------5h7--|
A|--3-5-5-3--||--7p5-7p5-7p5-7p5-7p5-7p5-7p5-----7p5-7p5-7p5-7p5-----5h7------|
E|----3------||--0---0---0---0---0---0---0---7-6-0---0---0---0---7-6----------|

stanza                                   
E|---------------------------||-------||-------||----------------|
B|---------------------------||-------||-------||----------------|
G|---------------------------||-------||-------||----------------|
D|--------9-------9-------9--||--7-7--||--5-7--||--12-9-5---7-5--|
A|--------7-------7-------7--||--5-5--||--3-5--||--10-7-3-5-5-3--|
E|--0-0-0---0-0-0---0-0-0----||-------||-------||---------3------|
     . . .   . . .   . . .    
REFRAIN
E|-------------------------------------|
B|-------------------------------------|
G|-------------------------------------|
D|--9-9-7-7-5-5-4-----9-9-7-7-4-5-4-5--|
A|--7-7-5-5-3-3-2--*--7-7-5-5-2-3-2-3--|
E|-----------------*-------------------|
*-PICK SLIDE                  . . . .

E|-------------------------------------------------|
B|-------------------------------------------------|
G|-------------------------------------------------|
D|-----------------------10/9-9-------------10-10--|
A|------------------------8/7-9--------------8--8--|
E|--0-0-0-0-0-0-0-0-0-0---------0-0-0-0-0-0--------|
    . . . . . . . . . .         . . . . . .
E|-------------------------------------------------|
B|-------------------------------------------------|
G|-------------------------------------------------|
D|-------------------------------------------------|
A|--7-5---5----------------------7-5---5-----------|
E|------7---7-5-7-5-3-5-3-0--5-3-----7---7-5-7-----|
3.phantom lord                                                              
||-----------------------------------------------------------------------------
||-----------------------------------------------------------------------------
||-2-----2--2-----2--2--2-----2--2-----2-----4-----4--4-----4--4--4-----4--4---
||-2-----2--2-----2--2--2-----2--2-----2-----4-----4--4-----4--4--4-----4--4---
||-0-----0--0-----0--0--0-----0--0-----0-----2-----2--2-----2--2--2-----2--2---
||----------------------------------------------------------------------------- 
Main Riff. This is played all throughout the song, including right after the
Intro and between verses.
||------------------------|---------------------||
||------------------------|---------------------||
||*-----------------7--9--|--------------------*||
||*--7--9--9--9--9--5--7--|--7--9--9--9--9--7--*||
||---5--7--7--7--7--------|--5--7--7--7--7--5---||
||------------------------|---------------------|| 



This part is played after the non-distorted part in the middle
||-----------------------------------------------------------------||
||-----------------------------------------------------------------||
||*---------------------------------------------------------------*||
||*---2-----2--2--2-----5--5--5--5-----4--4--4--4-----3--3--3--3--*||
||----2-----2--2--2-----5--5--5--5-----4--4--4--4-----3--3--3--3---||
||----0-----0--0--0-----3--3--3--3-----2--2--2--2-----1--1--1--1---||
            \___________Extremely_Heavy_Palm_Muting!___________/
  This is played after repeating the above line the 4th time.
||------------------||
||------------------||
||------------------||
||---2--2--2--2--2--||
||---2--2--2--2--2--||
||---0--0--0--0--0--||
 4. Jump in the fire 
Numbers above staff show duration of note/rest (8=eighth, 4=quarter, 2=half,
1=whole,4.5=dotted quarter, etc.)
Riff 1
  8 8 8 8 8 8 8 8   8 8 8 8 8 8 8 8   2       2
|-----------------|-----------------|-----------------|
|-----------------|-----------------|-----------------|
|o---------------o|-----------------|-5-------3-------|
|o--------3------o|---------3-------|-5-------3-------|
|-----5-3---5-4-3-|-----5-3---5-4-3-|-3-------1-------|
|-3-6-------------|-3-6-------------|-----------------|
  8 8 8 8 8 8 8 8   8 8 8 8 8 8 8 8   2       2
|-----------------|-----------------|-----------------|
|-----------------|-----------------|-----------------|
|o---------------o|-----------------|-5-------3-------|
|o--------3------o|-3-------3-------|-5-------3-------|
|-----3-5---5-4-3-|---5-4-3---5-4-3-|-3-------1-------|
|-3-6-------------|-----------------|-----------------|
  8 8 8 8 8 8 8 8   8 8 8 8 8 8 8 8   8 8 8 8 8 4.5
|-----------------|-----------------|-----------------|
|-----------------|-----------------|-----------------|
|o---------------o|-----------------|-----------------|
|o--------3------o|-5-3---3---------|---------3-5~~~~-|
|-----3-5---5-4-3-|-----5---5-4-3---|-----3-5---------|
|-3-6-------------|---------------6-|-3-6-------------|
  8 8 8 8 8 8 8 8   8 8 8 8 8 8 8 8   2       2
|-----------------|-----------------|-----------------|
|-----------------|-----------------|-----------------|
|o---------------o|-----------------|-5-------3-------|
|o--------3------o|-3-------3-------|-5-------3-------|
|-----3-5---5-4-3-|---5-4-3---5-4-3-|-3-------1-------|
|-3-6-------------|-----------------|-----------------|
Riff 2 (Don't play repeat 4 during lead)                  
  8 8 8 8 8 8 8 8   2       4 4 4     8 8 8 8 8 8 8 8   2   8 8 8   4
|-----------------|-----------------|-----------------|-----------------|
|-----------------|-----------------|-----------------|-----------------|
|o--------------3===3---------------|---------------5===5---x-x-x---6--o|
|o--------------3===3-------3-3-3---|---------------5===5---x-x-x---6--o|
|---------------1===1-------3-3-3---|---------------3===3---x-x-x---4---|
|-1-3-1-3-1-3-1---|---------1-1-1---|-1-3-1-3-1-3-1---|-----------------|


|-----------------|
|-----------------|                                                     
==5-----6-----6--o|
==5--R--6--R--6--o|
==3-----4-----4---|
|-----------------|
Riff 3
  8 8 8 8  4  8 8   8 8  4  8 8 8 8   8 8 8 8  4  8 8   8 8  4  8 8 8 8
|-----------------|-----------------|-----------------|-----------------|
|-----------------|-----------------|-----------------|-----------------|
|-----------------|-----------------|-----------------|-----------------|
|-8-8-8-8--R--8-8-|-8-8--R--6-R-8-R-|-5-5-5-5--R--5-5-|-5-5--R--3-R-5-R-|
|-8-8-8-8-----8-8-|-8-8-----6---8---|-5-5-5-5-----5-5-|-5-5-----3---5---|
|-6-6-6-6-----6-6-|-6-6-----4---6---|-3-3-3-3-----3-3-|-3-3-----1---3---|

 Sitting in my room with my head in my heads I just cant seem to move.
Got to get up get out get high got to get back in the groove,
There’s a job to be done and Im the one you people chose to do it.
Now I tighten my belt and I see you felt its time to get back to it.

So come on,
Jump in the fire

So come on,
Jump in the fire

Moving my hips in a circular way just forward a bit
Pull your body into my waist see how good it fits
There’s a job to be done and Im the one you people chose to do it. 
Now I take off my pants its your second chance to get down so lets get back down to it

So come on,
Jump in the fire

So come on,
Jump in the fire

Solo

Sitting in my room with my head in my heads I just cant seem to move.
Got to get up get out get high got to get back in the groove,
There’s a job to be done and Im the one you people chose to do it.
Now I tighten my belt and I see you felt its time to get back to it.

So come on,
Jump in the fire

So come on,
Jump in the fire
Come on jump in now 
Outro solo

5. Motorbreath
Drum Intro

P.M.          =======================================================
E--------------------------------------------------------------------
B--------------------------------------------------------------------
G--------------------------------------------------------------------
D--------------------------------------------------------------------
A--7---8---9---------------------------------------------------------
E--5---6---7--7-7-7--7-7-7--7-7-7-7-7-7-3--3-3-3--3-3-3--3-3-3-3-3-3-

=============================================================
E-------------------------------------------------------------
B-------------------------------------------------------------
G-------------------------------------------------------------Repeat
D-------------------------------------------------------------
A-------------------------------------------------------------
E--5--5-5-5--5-5-5--5-5-5-5-5-5-2--2-2-2--2-2-2--2-2-2-2-2-2--

Verse Riff

P.M.                     =======================================
E---------------------------------------------------------------
B---------------------------------------------------------------
G---------------------------------------------------------------
D---------------------------------------------------------------
A--9--9----7--9--9----7--5--5----4--5--5----4--7--7----5--7--7--
E--7--7----5--7--7----5--3--3----2--3--3----2--5--5----3--5--5--
=======================
E----------------------
B----------------------
G----------------------Repeat as nessecary
D----------------------then right before the chorus
A--5--4--4-------4--4--play this....
E--3--2--2----0--2--2--

E------------
B------------
G------------4 times
D------------
A--9--9----7-
E--7--7----5-

Chorus 
P.M.                        =====                                
E----------------------------------------------------------------
B----------------------------------------------------------------
G----------------------------------------------------------------Repeat
D------------------7--7---4--------------------------------------
A--9--9----5--5----5--5---2-4-4-4----5--5----2--2----4-4-4---4---
E--7--7----3--3-------------2-2-2----3--3----0--0----2-2-2-0-2---

Ryhthm break
P.M.   =     =     =     =       
E--------------------------------
B--------------------------------
G--------------------------------play 2 times
D--4p2---4p2---4p2---4p2---4---2-
A------2-----2-----2-----2-------
E--------------------------------

then play this 1 time
P.M    =     =     =     =        
E---------------------------------
B---------------------------------
G---------------------------------
D--4p2---4p2---4p2---4p2---4---2--
A------0-----0-----0-----0--------
E---------------------------------

then play this 1 time
P.M.   =     =     =     =       
E--------------------------------
B--------------------------------
G--------------------------------then repeat the whole rhythm break
D--4p2---4p2---4p2---4p2---4---2-
A------2-----2-----2-----2-------
E--------------------------------

Play the verse and the chorus and the rhythm break once more
then

E--------------------
B--------------------
G--------------------
D--4----------4---5--
A--2----------2---3--
E--------------------

Solo backing ryhthm (James)
P.M.  ===========     =              ===========            
E-----------------------------------------------------------
B-----------------------------------------------------------
G-----------------------------------------------------------
D--6--------------6p4---6----6p4-4h6-------------6p4--------
A--4--4-4-4-4-4-4-4---4-4----4---4---4-4-4-4-4-4-4---6---6--
E----------------------------------------------------4---4--
      ===========     =              ===========
E----------------------------------------------------------------------
B----------------------------------------------------------------------
G----------------------------------------------------------------------
D--6--------------6p4---6----6p4-4h6------------------------6-----6--5-
A--4--4-4-4-4-4-4-4---4-4----4---4---4-4-4-4-4-4-6---6---6--4-----4--3-
E------------------------------------------------4---4---4-------------

1st Guitar solo (Kirk)
  w/wah wah
E-----------------
B--12---------9-9-
G--11-------------
D-----------------
A-----------------
E-----------------




E-------------
B--12p9----9--
G-------11----4 times
D-------------
A-------------
E-------------

E-----9-------
B--12b--12p9--
G-------------4 times
D-------------
A-------------
E-------------

E----------------------------------------
B-----9-12p9-----------------------------
G--11b-------11-9----9-11p9--------------
D-----------------11--------11-9---------
A--------------------------------11-9\---
E----------------------------------------

E---------------------------------------
B---------------------------------------
G---------------------------------9-11--
D----------------9-9-11p9----9-11-------
A-------7-9-9/11----------11------------
E--/9-----------------------------------

E-------------------------------------------
B---------------------------------------16--
G--11p9----9-11p9----9-11p9----9-9\/18b(20)-
D-------11--------11--------11--------------
A-------------------------------------------
E-------------------------------------------

E------16-----16-----16-19p16---------------------------------------
B--19b----19b----19b----------19-16-16-16-19p16----16-19p16-19b(21)-
G-----------------------------------------------18------------------
D-------------------------------------------------------------------
A-------------------------------------------------------------------
E-------------------------------------------------------------------

Play verse and chorus riffs as nessecary then..

Guitar solo 2

E--12p9-------
B-------12p9--
G-------------
D------------- 8 times
A-------------
E-------------





E--12p9-12p9-11-8-8-10-7-7-9-6-6-8-5-5-7-4-4-4-4-4--
B---------------------------------------------------
G---------------------------------------------------
D---------------------------------------------------
A---------------------------------------------------
E---------------------------------------------------

E--4---4-7p4-----------------------------------------
B----7-------7-4-7-4------------4---4---4---6--4-----
G--------------------6-4b---4---4---4---4---6--4---4-
D------------------------/6---6---6---6---6------6---
A----------------------------------------------------
E----------------------------------------------------

E------------------------------------
B-----4-7p4--------------------------
G--6b-------4h6p4---4-6-4------------
D-----------------6-------6-4--------
A-----------------------------6---4--
E------------------------------------

E--------------------------------------------------------------
B--------------------------------------------------------------
G----------------------------4-6-6b--4-6p4---4-6p4---4\/9---11-
D--------------4-4-6p4---4-6-------6-------6-------6-----------
A------2-4/6-----------6---------------------------------------
E--/4----------------------------------------------------------

E------9-9------------9------------------9----------------9----------------
B----------12b---9-9----12b--12bvvv----9---12b-----9-9------12b--12bvv-12b-
G--11b------------------------------11b----------------11b-----------------
D--------------------------------------------------------------------------
A--------------------------------------------------------------------------
E--------------------------------------------------------------------------

E----------------9h12p9---------------------------------------------------
B--12p9-9-9-12p9--------12p9----9-12p9------------------------------------
G----------------------------12--------11-9-9-9-11p9----------------------
D----------------------------------------------------11-9-9-9-11-9--------
A------------------------------------------------------------------11-9b--
E-------------------------------------------------------------------------

E-----16-16---16-16---16-16--16-19p16----16-19p16-21p16---
B--19----19b-----19b-----19b----------19------------------
G---------------------------------------------------------
D---------------------------------------------------------
A---------------------------------------------------------
E---------------------------------------------------------

E--19p16----16-19p16-21p16-19p16----16-19p16-------
B--------19----------------------19----------19-16-
G--------------------------------------------------
D--------------------------------------------------
A--------------------------------------------------
E--------------------------------------------------


E-----------16h19p16----------------19p16---------------19p16--16-19b-19b-19b
B----16-19p16--------19-16---16-19p16-----19-16--16-19p16-----19-------------
G-18b---------------------18b-----------------18b----------------------------
D----------------------------------------------------------------------------
A----------------------------------------------------------------------------
E----------------------------------------------------------------------------

Very Ending Riff

E--------------------------------
B--------------------------------
G--------------------------------
D-----------4--4--4-----------6--
A--6--6--6--2--2--2--4--4--4--4--
E--4--4--4-----------2--2--2----- 

6. no remorse
RIFF A
I--------------------------------------------------I
I--------------------------------------------------I
I------------------------------------------2-------I
I------------------------------------------2-------I
I-2-4---4-4---4-2---2-2--2-4---4-4---4-2---0-------I
I-0-2---2-2---2-0---0-0--0-2---2-2---2-0-----------I
       END RIFF A
I--------------------------------------------------I
I--------------------------------------------------I
I------------------------------------------4-------I
I------------------------------------------4-------I
I-2-4---4-4---4-2---2-2--2-4---4-4---4-2---2-------I
I-0-2---2-2---2-0---0-0--0-2---2-2---2-0-----------I

RIFF B
I--------------------------------------I
I--------------------------------------I
I-----------------------------5--------I
I-----------------------------5--------I
I-----5-7-----5-7-----5-7-----3--------I
I-0-0-----0-0-----0-0-----0-0----------I
         END RIFF B
I--------------------------------------I
I--------------------------------------I
I--------------------------------------I
I--------------------------------------I
I-----5-7-----5-7-----5-7--------------I
I-0-0-----0-0-----0-0-----5-6-7--------I

RIFF C   END RIFF C
I-------------------------I
I-------------------------I
I-------------------------I
I-5---2-5---2-5---2-5---2-I
I-5---2-5---2-5---2-5---2-I
I-3---0-3---0-3---0-3---0-I

RIFF D      END RIFF D
I----------------------------I
I----------------------------I
I----------------------------I
I----------------------------I
I-----10---9---7---5---5/7---I
I-0-0----0---0---0---0-------I


RIFF E
I----------------------------I----------------------------I
I----------------------------I----------------------------I
I---------------9------------I---------------7------------I
I---------------9------------I---------------7------------I
I---------------7------------I---------------5------------I
I-0-0-3-2-2-0-0--------------I-0-0-3-2-2-0-0--------------I
       END RIFF E
I----------------------------I----------------------------I
I----------------------------I----------------------------I
I---------------5------------I---------------7------------I
I---------------5------------I---------------7------------I
I---------------3------------I---------------5------------I
I-0-0-3-2-2-0-0--------------I-0-0-3-2-2-0-0--------------I

RIFF F
I-------------------------------I-------------------------------I
I-7---5-4-5---4---4-------------I-7---5-4-5---4---4-------------I
I---------------7-----7-5-4-5-7-I---------------7-----7-5-4-5-7-I
I-------------------------------I-------------------------------I
I-------------------------------I-------------------------------I
I-------------------------------I-------------------------------I
             END RIFF F
I-------------------------------I-------------------------------I
I-7---5-4-5---4---4-------------I-------------------------------I
I---------------7-----7-5-4-5-7-I-7-------------2---------------I
I-------------------------------I-7-------------2---------------I
I-------------------------------I-5-------------0---------------I
I-------------------------------I-------------------------------I

RIFF G            END RIFF G
------------------I------------------I------------------I---------------- ---
------------------I------------------I------------------I---------------- ---
-2----------------I-7----------------I-5----------------I-4--------4--5-- 4--
-2----------------I-7----------------I-5----------------I-4--------4--5-- 4--
-0-0#############-I-5-0#############-I-3-0#############-I-2#######-2--3-- 2--
------------------I------------------I------------------I---------------- ---

RIFF H       END RIFF H
---------------------------------------------------------I
---------------------------------------------------------I
-2-2-----5-2---2-2-----7-5---2-2-----5-2---0-0---4-5-4---I
-2-2--X--5-2---2-2--X--7-5---2-2--X--5-2---0-0---4-5-4---I
-0-0--X--3-0---0-0--X--5-3---0-0--X--3-0---0-0---2-3-2---I
---------------------------------------------------------I




----------------------------I----------------------------I
----------------------------I----------------------------I
---------------7------------I----------------------------I
---------------7------------I---------------2------------I
---------------5------------I---------------2------------I
-0-0-3-2-2-0----------------I-0-0-3-2-2-0---0------------I
7. seek and destroy
P.M.---|  h     P.M.  h           P.M.----|   P.M.
|------------------------------------------------------||
|------------------------------------------------------||o
|--------7^8--7-----------------------------------5----||
|--------------------7^8--7---(7)-----------5--------7-||
|-0---0-----------0----------------0--8--7-----7-------||o
|------------------------------------------------------|| 

Riff B
                     sl.
|------------------------||
|-9--7-----7-------------||
|-------9-----9--8--7--5-||
|------------------------||
|------------------------||
|------------------------||

(Gtr. II out)
Gtr. I  Rhy. Fig. 1

P.M.--------|            P.M.--------|
|------------------------|------------------------||
|------------------------|------------------------||o
|------------------------|------------------------||
|-------------5--7--5--7-|------------------------||
|-------------5--7--5--7-|-------------7--5-------||o
|-0--0--0--0-------------|-0--0--0--0--------7--6-||

Double w/Gtr. II         Gtrs. I&II

P.M.--------|            P.M.--------|
|------------------------|------------------------|
|------------------------|------------------------|
|------------------------|------------------------|
|-------------5--7--5--7-|------------------------|
|-------------5--7--5--7-|-------------7--5-------|
|-0--0--0--0-------------|-0--0--0--0--------7--6-|

Riff C
Play 4 times

P.M.---------------------------------------|
|------------------------|------------------------||
|------------------------|------------------------||o
|------------------------|------------------------||
|------------------------|-------------------5----||
|------------------------|----------------------7-||o
|-0--0--0--0--0--0--0--0-|-0--0--0--0--7--6-------||

1st, 2nd, 3rd Verses
w/Riff C (4 times)

Pre-Chorus
Rhy. Fig. 2

    P.M.----|             P.M.----|
|---------------------|---------------------|
|---------------------|---------------------|
|-5-----------5--7--5-|-5-----------5--7--5-|
|-5-----------5--7--5-|-5-----------5--7--5-|
|-3--0--0--0--3--5--3-|-3--0--0--0--3--5--3-|
|---------------------|---------------------|

    P.M.----|         
|---------------------||
|---------------------||o
|-5-----------5--7--5-||
|-5-----------5--7--5-||
|----0--0--0----------||o
|---------------------||

Fill 1                       

|------------------------||
|------------------------||
|-7--5-------------------||
|-------7--6--5----------|| Play Riff B (2 times)
|----------------7--6--5-||
|------------------------||
Chorus Rhy. Fig. 3
|-------------|---------------|
|-------------|---------------|
|-----------|-----------------|
|---7****6****5****----|------|
|---5****4****3****---|-------|
|-------------|---------------|

P.M.---------------------------------------------|
|------------------------|------------------------||
|------------------------|------------------------||o
|------------------------|------------------------||  play
|------------------------|------------------------||   3x
|------------------------|------------------------||o
|-0--0--0--0--0--0--0--0-|-0--0--0--0--0--0--0--0-||
              
|----------------------------|             
|----------------------------|             
|----------------------| back to Rhy. Fig. 1
|---7****6****5****4****4----|
|---5****4****3****2****4----| (w/Gtrs. I&II)          
|----------------------------|

Faster d=208

Rhy. Fill 1

    P.M.-|   P.M.-|   P.M.
|------------------------|
|------------------------|
|------------------------|
|-5--------7--------7----|
|----0--0-----0--0-----0-|
|------------------------|

Substitute Rhy. Fill 1 (2nd, 3rd, & 4th times)

       P.M.   P.M.-|   P.M.    P.M.-|   P.M.-|   P.M.
|-------------------------|-------------------------|
|-------------------------|-------------------------|
|-------------------------|-5-----------------------|
|-5--7------7--------7----|-5---------7--------7----|
|-0--0---0-----0--0-----0-|-----0--0-----0--0-----0-|
|-------------------------|-------------------------|

     P.M.-|   P.M.-|      P.M.-----|
|-------------------------|------------------------||
|-------------------------|------------------------||o
|-4-----------------------|------------------------||
|-4---------7--------7-\--|----------3--2--0-------||
|-----0--0-----0--0-------|-3--2--0-----------3--0-||o
|-------------------------|------------------------||

|-------------------|
|-------------------|
|-------------------|
|---7****6****5****-|
|---5****4****3****-|
|-------------------|

Guitar Solo
w/Rhy. Fig. 3 (3 times)
Gtr. III

    sl.         p         p     p     p         p     p
|---------12--15^12--12-15^12-17^12-15^12--12-15^12-17^12-|
|-12-/-15----------12--------------------15---------------|
|---------------------------------------------------------|
|---------------------------------------------------------|
|---------------------------------------------------------|
|---------------------------------------------------------|

                     Full
    p                  )             ~~~~~~~~~~~~~~ sl.
|-15^12----12----12---/---------|--------------------------|
|-------15----15----15----------|-(15)----------(15)-\-----|
|-------------------------------|--------------------------|
|-------------------------------|--------------------------|
|-------------------------------|--------------------------|
|-------------------------------|--------------------------|




          p             p    p
|-7---7-10^7----7-7---------------|
|------------10-------10^7-10^7---|
|-------------------------------9-|
|---------------------------------|
|---------------------------------|
|---------------------------------|

           Full
             )\   p       ~~~~~~~~~~~~~~~~~~~~~~~~~~~~~~~~~~
|-----------/--\------------------|------------------------|
|----------/----\-----------------|------------------------|
|-7---7---9----(9)^7--------------|------------------------|
|---9-----------------9---(9)-----|---(9)------------------|
|---------------------------------|------------------------|
|---------------------------------|------------------------|

                  Full
~~~~~~              )~~~~~~~
|--------------|-17/------------16-15-14---|
|--------------|--------------15--------15-|
|--------------|------------16-------------|
|-(9)----------|---------------------------|
|--------------|---------------------------|
|--------------|---------------------------|

             Full 1/2
               )\  )~~~~~~~~~~~~~~~~~~~~~~~~ sl.
|-------------/--\/-------------|--------------------------|
|-14--------15----(15)----------|-(15)---(15)-\------------|
|----16-------------------------|--------------------------|
|-------17----------------------|--------------------------|
|-------------------------------|--------------------------|
|-------------------------------|--------------------------|
sl.
|-----20-20-23-20-28-22-19-19-21-21-17-15-19-16-14-14-17-|
|-/-23---------------------------------------------------|
|--------------------------------------------------------|
|--------------------------------------------------------|
|--------------------------------------------------------|
|--------------------------------------------------------|

|-14-12-16-12-11-14-12-\-11-9-\-7-10^7----7-10^7------|
|--------------------------------------10--------10-7-|
|-----------------------------------------------------|
|-----------------------------------------------------|
|-----------------------------------------------------|
|-----------------------------------------------------|

                       Full
    p          P.M.      )\   p            ~~~~~~~~~~~
|-----------------------/--\-----|-------------------------|
|-10^7----------7------/----\----|-------------------------|
|------9--7--9-----9--9----(9)^7-|-9--7---7--(7)-----------|
|--------------------------------|------9------------------|
|--------------------------------|-------------------------|
|--------------------------------|--------------------5--5-|

                                       Full
       sl.       p       h               )\   p
|-----------------------------|---------/--\--------|
|-----------------------------|--------/----\-------|
|-----------------------------|-7--9--9----(9)^7--9-|
|------------7--9^7-----7^9-9-|---------------------|
|---5---/-9---------9---------|---------------------|
|-7---------------------------|---------------------|

        Full            Full
          )\              )      p
|--------/--\------------/------------------|
|-------/----\----------/---7--10^7---------|
|-7---(7)--------7--9--9------------9--7----|
|--------------9--------------------------9-|
|-------------------------------------------|
|-------------------------------------------|

        Full         
         ____          Full
         )   \   p       )sl.
|-------/-----\---------/----------------|
|------/-------\-------/--------------12-|
|-7---9-------(9)^7---9----\-----/-14----|
|----------------------------------------|
|----------------------------------------|
|----------------------------------------|

   Full                    Full
     )         p             )     p
|---/---12------------------/-12-------------|
|-15---------15^12----12--15-----15^12-12-15-|
|------------------14------------------------|
|--------------------------------------------|
|--------------------------------------------|
|--------------------------------------------|

   Full              Full
     )      p          )           p              p
|---/-12--------------/-12--12-|-15^12---------------------|
|-15------15^12-15--15----15---|------15-12--12-15^12------|
|------------------------------|-----------14--------14-12-|
|------------------------------|---------------------------|
|------------------------------|---------------------------|
|------------------------------|---------------------------|
|----------------------------------------------------------|
|----------------------------------------------------------|
|---12-14^12-----------------------------|
|-14--------14-12------------------------|
|----------------14-12----------------12-|
|---------------------15----------15-----|
   P.M.---------------------------------|
|-------------------------------------|
|-------------------------------------|
|----------------------------12----12-|
|----------12----12-14-12-14----14----|
|-14-12-14----14----------------------|
|-------------------------------------|
|----------------------------12----12-|
|----------12----12-15-12-15----15----|
|-14-12-14----14----------------------|
|-------------------------------------|
|-------------------------------------|
|-------------------------------------|

                               Gtrs. I&II
    p       sl.     p       sl. P.M.----|         P.M.-|
|-15^12------------------------|------------------------|
|------15-12-\-12-15^12--------|------------------------|
|----------------------14-12-\-|------------------------|
|------------------------------|------------------------|
|------------------------------|----------3--2--0-------|
|------------------------------|-3--2--0-----------3--2-|

P.M.-----|         P.M.-|
|------------------------|----------------------|
|------------------------|----------------------|
|------------------------|-2--------------------|
|------------------------|-2--------------------|
|----------3--2--0-------|-0--------------------|
|-3--2--0-----------3--2-|----------------------|

Back to
Intro
Verse
Pre-Chorus
Chorus

Ending
         P.M.-|       P.M.-|       P.M.-----------------|
|--------------------------------------------------------|
|--------------------------------------------------------|
|-12--11-------11--10-------10---9-----------------------|
|-12--11-------11--10-------10---9-----------------------|
|-10---9--------9---8--------8---7-----------------------|
|---------0--0---------0--0---------0--0--0--0--0--0--0--|

         P.M.-|      P.M.-|       P.M.----------------|
|------------------------------------------------------|
|------------------------------------------------------|
|-12--11-------11--7--------7-/-9----------------------|
|-12--11-------11--7--------7-/-9----------------------|
|-10---9--------9--5--------5-/-7----------------------|
|---------0--0--------0--0---------0--0--0--0--0--0--0-|
repeat

         P.M.--|   P.M.-|   P.M.-|   P.M.-|   P.M.-|
|--------|-------------------------------------------------|
|--------|-------------------------------------------------|
|--------|-------------------------------------------------|
|--------|-------5--------2--------5--------4--------7-\-5-|
|--7-\---|-------5--------2--------5--------4--------7-\-5-|
|--------|-0--0--3--0--0--0--0--0--3--0--0--2--0--0--5-\-3-| 

|------------------------||
|-9--7-----7-------------||
|-------9-----9--8--7--5-||
|------------------------||
|------------------------||
|------------------------||

|------------------------||
|-9--7-----7-------------||
|-------9-----9--8--7--5-||
|------------------------||
|------------------------||
|------------------------||

|------------------------||
|-9--7-----7-------------||
|-------9-----9--8--7--5-||
|------------------------||
|------------------------||
|------------------------|| 

|---------0----------------||
|---------0----------------|| 
|---------0----------------||
|---------0----------------|| 
|---------0----------------||
|-0-0-0-0-0----------------||
8. Whiplash
INTRO:

   E5                               Let ring
e:-------|--------------|---------|-------------------------------------
B:-------|--------------|---------|-------------------------------------
G:-9-9-9-|*-9----9-9-9-*|-9-------|-7-----------------------------------
D:-9-9-9-|*-9----9-9-9-*|-9-------|-5-----------------------------------
A:-7-7-7-|--7----7-7-7--|-7-------|-------------------------------------
E:-------|--------------|---------|-------------------------------------

     E5          x2
e:|-------|--------|--------|--------|------|-----------
B:|-------|--------|--------|--------|------|-----------
G:|*-9----|-(9)---*|-9-9----|-(9)----|-9----|-(9)-------
D:|*-9----|-(9)---*|-9-9----|-(9)----|-9----|-(9)-------
A:|--7----|-(7)----|-7-7----|-(7)----|-7----|-(7)-------
E:|--0----|-(0)----|-0-0----|-(0)----|-0----|-(0)-------


                                                     A5 Ab5
       PM-------------------------------------------          x3
e:|--------------------------------|----------------------------|-
B:|--------------------------------|----------------------------|-
G:|*-------------------------------|---------------------------*|-
D:|*-------------------------------|-----------------7--6------*|-
A:|--------------------------------|-----------------7--6--5p0--|-
E:|-0--0-0-0-0-0-0-0-0-0-0-0-0-0-0-|-0-0-0-0-0-0-0-0------------|-


                                                     A5 Ab5G5
       PM-------------------------------------------
e:|--------------------------------|--------------------------|-
B:|--------------------------------|--------------------------|-
G:|*-------------------------------|-------------------------*|-
D:|*-------------------------------|-----------------7--6--5-*|-
A:|--------------------------------|-----------------7--6--5--|-
E:|-0--0-0-0-0-0-0-0-0-0-0-0-0-0-0-|-0-0-0-0-0-0-0-0----------|-


                                                    A5 Ab5G5
       PM-------------------------------------------
e:|--------------------------------|--------------------------|-
B:|--------------------------------|--------------------------|-
G:|*-------------------------------|-------------------------*|-
D:|*-------------------------------|-----------------7--6--5-*|-
A:|-2------------------------------|-----------------7--6--5--|-
E:|-0--0-0-0-0-0-0-0-0-0-0-0-0-0-0-|-0-0-0-0-0-0-0-0----------|-


    PM----------------------------------------------------------- G5 x4
e:|---------------------------------|---------------------------------|-
B:|---------------------------------|---------------------------------|-
G:|*--------------------------------|--------------------------------*|-
D:|*--------------------------------|-----------------------------5--*|-
A:|---------------------------------|-----------------------------5---|-
E:|-0-0-0-0-0-0-0-0-0-0-0-0-0-0-0-0-|-0-0-0-0-0-0-0-0-0-0-0-0-0-0-----|-




VERSE:


    PM----------------------------------------------------------- G5 x4
e:|---------------------------------|---------------------------------|-
B:|---------------------------------|---------------------------------|-
G:|*--------------------------------|--------------------------------*|-
D:|*--------------------------------|-----------------------------5--*|-
A:|---------------------------------|-----------------------------5---|-
E:|-0-0-0-0-0-0-0-0-0-0-0-0-0-0-0-0-|-0-0-0-0-0-0-0-0-0-0-0-0-0-0-----|-

(4th time only) 
e:-22b~----|-
B:---------|-
G:---------|-
D:---------|-
A:---------|-
E:---------|-



CHORUS:

     C5    B5A5      F#5
                     PM----------------- x3
e:|------------|--------------------------|-
B:|------------|--------------------------|-
G:|*-----------|-------------------------*|-
D:|*-5---5-4-2-|-------------------------*|-
A:|--3---3-2-0-|-----4-4-4--4-4-4--4-4----|-
E:|------------|-0h2-2-2-2--2-2-2--2-2-0--|-



INTERLUDE:

                 D5     Db5     C5      A5      Ab5     G5
    Drums        |	|	|	|	|	|
e:-----------|----------------------------------------------
B:-----------|----------------------------------------------
G:-----------|----------------------------------------------
D:-----------|----------------------------------------------
A:-----------|----------------------------------------------
E:-----------|----------------------------------------------


                  PM--------                PM-------- x4
e:|--------------------------|--------------------------|-
B:|--------------------------|--------------------------|-
G:|*-------------------------|-------------------------*|-
D:|*-------5---5-------------|-------5---5-------------*|-
A:|--7p5---5---5-------------|-7p5---5---5--------------|-
E:|------7---7----0--0--0--0-|-----7---7----0--0--0--0--|-



SOLO:

e:-15p14p12----12-15p14p12----12-17p15p12----12-17p15p12----12-|-
B:----------15-------------15-------------15-------------15----|-
G:-------------------------------------------------------------|-
D:-------------------------------------------------------------|-
A:-------------------------------------------------------------|-
E:-------------------------------------------------------------|-

e:-17p15p12----12-17p15p12----12-17p15p12----12-17p15p12----12-|-
B:----------15-------------12-------------17-------------15----|-
G:-------------------------------------------------------------|-
D:-------------------------------------------------------------|-
A:-------------------------------------------------------------|-
E:-------------------------------------------------------------|-

e:-17p15p12----12-17p15p12----12-17p15p12----12-17p15p12----12-|-
B:-------------------------------------------------------------|-
G:----------15-------------15-------------15-------------15----|-
D:-------------------------------------------------------------|-
A:-------------------------------------------------------------|-
E:-------------------------------------------------------------|-

e:-17b---------------------|-----------------------------------|-
B:-----15-(15)\--------x-x-|----12----12----12----14--12-------|-
G:--------------14b----x-x-|----12----12----12----14--12----12-|-
D:------------------12-----|-14----14----14----14--------14----|-
A:-------------------------|-----------------------------------|-
E:-------------------------|-----------------------------------|-

e:--------------12h15p12----------------------------|-----------------|-
B:-----12-15p12----------15-12------12-15p12--------|-----------------|-
G:-14b----------------------14b-14b----------14-12\-|-2b----2b(2)b(2)-|-
D:--------------------------------------------------|-----------------|-
A:--------------------------------------------------|-----------------|-
E:--------------------------------------------------|-----------------|-

e:-------------------------|---------------------------------|-
B:-------------------------|---------------------------------|-
G:-2b----(2)p0-----------0-|-2p0h2p0-4p0h4p0-5p0h5p0-4p0h4p0-|-
D:--------------2-----2----|---------------------------------|-
A:-------------------------|---------------------------------|-
E:-------------------------|---------------------------------|-

e:---------------------------------|---------------------------------------|-
B:---------------------------------|---------------------------------------|-
G:-5p0h5p0-7p0h7p0-9p0h9p0-7p0h7p0-|-9p0h9p0-10p0h10p0-12p0h12p0-10p0h10p0-|-
D:---------------------------------|---------------------------------------|-
A:---------------------------------|---------------------------------------|-
E:---------------------------------|---------------------------------------|-

e:-----------------------------------|---------------10p7----7---7----------|-
B:---------------------------------7-|-10p7---7-10p7------10-7---7-10p7-----|-
G:-9p0h9p0-7p0h7p0-9b----9b(10)--9---|------9------------------9--------9-7-|-
D:-----------------------------------|--------------------------------------|-
A:-----------------------------------|--------------------------------------|-
E:-----------------------------------|--------------------------------------|-

e:--------------------------------|--------------------------------------------------|-
B:--------------------------------|-----------------------------------------------12-|-
G:-7-7-9p7------------------------|-------------------12-------------12----12-14b----|-
D:---------9p7---7-9p7------------|----------------12-12-12-14p12----12-14-----------|-
A:-------------9-------9-7-5------|----12-12-12-14----------------14-----------------|-
E:---------------------------7-7~-|-14-----------------------------------------------|-

e:--------12-15p12-------------------------------------|-----------------------------|-
B:-----12----------15-12----12-15p12----12-15p12----12-|-15b~---------------------0--|-
G:-14b-------------------14----------14----------14----|--------------------------0--|-
D:-----------------------------------------------------|-----------------------------|-
A:-----------------------------------------------------|-----------------------------|-
E:-----------------------------------------------------|-----------------------------|-

e:---------------------------|-12---12-12---12------12-12-12-----12-12-12-12-12-|-
B:-15b--(15)\----------------|-15b-----15b-----15b-----------15b----------------|-
G:---------------------------|--------------------------------------------------|-
D:---------------------------|--------------------------------------------------|-
A:---------------------------|--------------------------------------------------|-
E:---------------------------|--------------------------------------------------|-

e:-12-----12-12--12---------12-12--12-----12-|-15-12----12-15p12----12-15p12-----------
B:----15b----15b---------------15b----15b----|-------15----------15----------15-12-12--
G:------------------14b(15)------------------|-----------------------------------------
D:-------------------------------------------|-----------------------------------------
A:-------------------------------------------|-----------------------------------------
E:-------------------------------------------|-----------------------------------------

              PM--------------------------------- 
e:----------|--------------------------------------------|-
B:-12-15p12-|--------------------------------------------|-
G:----------|-14-12----12-14p12----12-14p12----12-14-12\-|-
D:----------|-------14----------14----------14-----------|-
A:----------|--------------------------------------------|-
E:----------|--------------------------------------------|-

e:-3p1p0-3p1p0-3p1p0-5p3p0-6p4p0-6p4p0-7p5p0-8p6p0-|-
B:-------------------------------------------------|-
G:-------------------------------------------------|-
D:-------------------------------------------------|-
A:-------------------------------------------------|-
E:-------------------------------------------------|-

e:-8p6p0-9p7p0-10p7p0-11p8p0-12p9p0-12p9p0-14p11p0-15p12p0-|-
B:---------------------------------------------------------|-
G:---------------------------------------------------------|-
D:---------------------------------------------------------|-
A:---------------------------------------------------------|-
E:---------------------------------------------------------|-

e:-15p12p0-16p13p0-17p13p0-17p14p0-18p15p0-19p16p0-20p17p0-21p18p0-|-
B:-----------------------------------------------------------------|-
G:-----------------------------------------------------------------|-
D:-----------------------------------------------------------------|-
A:-----------------------------------------------------------------|-
E:-----------------------------------------------------------------|-

e:-21p18p0-22p19-22p19-22p19-22b-----22b-|-
B:---------------------------------------|-
G:---------------------------------------|-
D:---------------------------------------|-
A:---------------------------------------|-
E:---------------------------------------|-
Am I evil?
||---||-----------------|----------------|---------------------|
||-4-||-----------------|----------------|---------------------|
||---||-9-----------7-9-|-10----------12-|-9---9-9-9-9---9-9-9-|
||-4-||-9-----------7-9-|-10----------12-|-9---9-9-9-9---9-9-9-|
||---||-7-----------5-7-|-8-----------10-|-7---7-7-7-7---7-7-7-|
||---||-----------------|----------------|---------------------|

   |   |     |     |       |   |     |   |       |   |     |	 |
 
 |-----------------------|---------------------|-----------------------|
 |-----------------------|---------------------|-----------------------|
 |-9---9-9-9-7-7-7-7-7-7-|-9---9-9-9-9---9-9-9-|-9---9-9-9-7-7-7-7-7-7-|
 |-9---9-9-9-7-7-7-7-7-7-|-9---9-9-9-9---9-9-9-|-9---9-9-9-7-7-7-7-7-7-|
 |-7---7-7-7-5-5-5-5-5-5-|-7---7-7-7-7---7-7-7-|-7---7-7-7-5-5-5-5-5-5-|
 |-----------------------|---------------------|-----------------------|
					       |
					       |
   					       | Gtr 2 : Distorted
					       | ( Trem Strum ) 
					       |-----------------------|
					       |-----------------------|
 					       |-----------------------|
					       |-14-\------------------|
					       |-14-\------------------|
					       |-12-\------------------|

  
Gtr 1 doubles Gtr 2

  |   |     |   |       |   |     |     |       |   |     |   |

|---------------------|-----------------------|---------------------|
|---------------------|-----------------------|---------------------|
|*--------------------|-----------------------|---------------------|
|-2-------------------|-----------9-9-9-9-9-9-|-8-------------------|
|*2-------------------|-----------9-9-9-9-9-9-|-8-------------------|
|-0-------------------|-----------7-7-7-7-7-7-|-6-------------------|


 
  |   |     |     |       |   |     |   |       |   |     |     |    

|-----------------------|---------------------|-----------------------|
|-----------------------|---------------------|-----------------------|
|----------------------*|---------------------|-----------------------|
|-----------3-3-3-3-3-3-|-2-------------------|-----------9-9-9-9-9-9-|
|-----------3-3-3-3-3-3*|-2-------------------|-----------9-9-9-9-9-9-|
|-----------1-1-1-1-1-1-|-0-------------------|-----------7-7-7-7-7-7-|



  |   |     |   |       |   |     |        |          |   |     |   |

|---------------------|-----------------------------|---------------------|
|---------------------|-----------------------------|---------------------|
|---------------------|-----------10-10-10-10-10-10-|-9-------------------|
|-8-------------------|-----------10-10-10-10-10-10-|-9-------------------|
|-8-------------------|-----------8--8--8--8--8--8--|-7-------------------|
|-6-------------------|-----------------------------|---------------------



  |   |     |     |       |   |     |   |       |   |     |     |

|-----------------------|---------------------|-----------------------|
|-----------------------|---------------------|-----------------------|
|-----------------------|---------------------|-----------------------|
|-----------9-9-9-9-9-9-|-8-------------------|-----------3-3-3-3-3-3-|
|-----------9-9-9-9-9-9-|-8-------------------|-----------3-3-3-3-3-3-|
|-----------7-7-7-7-7-7-|-6-------------------|-----------1-1-1-1-1-1-|



  |   |     |   |       |   |     |     |       |    |     |   |
   
|---------------------|-----------------------|----------------------|
|---------------------|-----------------------|----------------------|
|---------------------|-----------------------|*---------------------|
|-2-------------------|-----------7-7-7-7-7-7-|-/9---9-9-9-9---9-9-9-|
|-2-------------------|-----------5-5-5-5-5-5-|*/7---7-7-7-7---7-7-7-|
|-0-------------------|-----------------------|----------------------|


                        Gtr 1 : Grad rit.

  |   |     |     |       |   |   |   |      |   |   |   |
	(Repeat 3 times)
                                  ~~             ~~      ~~
|-----------------------|------------------|-------------------|
|-----------------------|------------------|-------------------|
|----------------------*|------------------|-------------10----|
|-9---9-9-9-7-7-7-7-7-7-|------------------|-----9---8---------|
|-7---7-7-7-5-5-5-5-5-5*|-------------8----|-7-----------------|
|-----------------------|-0---7---6--------|-------------------|


  ~~                                  
|------------------------------------|
|------------------------------------|
|-9---10---/12---/14-----/16---------|
|------------------------------------|
|------------------------------------|
|------------------------------------|



Gtr 2 : Intro solo. (See comments at end)

   HH  HH  HH  HH  HH  HH  HH  HH    HH  HH  HH  HH  HH  HH  HH  HH
|---------------------------------|---------------------------------|
|-058-058-058-058-058-058-058-058-|-047-047-047-047-047-047-047-047-|
|---------------------------------|---------------------------------|
|---------------------------------|---------------------------------|
|---------------------------------|---------------------------------|
|---------------------------------|---------------------------------|


							(Hold last note..)
   HH  HH  HH  HH  HH   HH   HH  HH    HH  HH  HH  HH  HH  HH  HH
|-----------------------------------|---------------------------------|
|-058-058-058-058-0710-0710-058-058-|-047-047-047-047-047-047-047-----|
|-----------------------------------|---------------------------------|
|-----------------------------------|---------------------------------|
|-----------------------------------|---------------------------------|
|-----------------------------------|---------------------------------|


  A   A   A   A   A   A Wh~~~~~~
|-------------------------------|
|-------------------------------|
|-------------------------------|
|-----5-------------------------|
|-5-----------5-------7---------|
|---------5-------7-------------|



"One, Two"		(Repeat Main Riff 8 times before verse)

                      PM---|  PM-|  PM---|

           	    |   |   |  |    |   |   |  |
Main Riff :       |------------------------------|
		  |------------------------------|
		  |*----------------------------*|
		  |---------------2---------3--2-|
		  |*2-2-2-2-5-2-2-0-2-2-2---1--0*|
		  |-0-0-0-0-3-0-0---0-0-0--------|	

(Main Riff with verse 1)

Verse 1 : (Lyrics)

		My mother was a witch, she was burned alive.
		Thankless little bitch, for the tears i've cried.
		Take her down now, don't want to see her face.
		All blistered and burned, can't hide my disgrace.


		      PM---|  PM-|  PM---|

		    |   |   |  |    |   |   |  |
Pre-Chorus riff : |------------------------------|
		  |------------------------------|
		  |*----------------------------*|
		  |---------7-----9---------10-9-|
		  |*7-7-7-7-5-7-7-7-7-7-7---8--7*|
		  |-5-5-5-5---5-5---5-5-5--------|

(Pre-Chorus riff x 4 with Pre-Chorus)

Pre-Chorus : (Lyrics)

		Twenty-seven, every one is nice,
		Gotta see 'em, make 'em pay the price,
		See the bodies out on the ice,
		Take my time.......


(Main Riff x 4 with Chorus)

Chorus : (Lyrics)

		Am I Evil?
		Yes I am,
		Am I Evil?
		I am that, yes I am....


			*******Main Riff x 2*******

(Main Riff x 8 with verse 2)

Verse 2 : (Lyrics)

		As i watched my mother die, I lost my head,
		Revenge now I sought, to break with my bread,
		Taking no chances, you come with me,
		I split you to the bone, help set you free.


(Pre-chorus riff x 4 with pre-chorus)

(Main Riff x 4 with chorus)



Bridge : 

		|------------------|------------------------------|
		|------------------|------------------------------|
		|*9-----7-----5---*|------------------------------|
		|-9-----7-----5----|---------------2---------3--2-|
		|*7-----5-----3---*|-2-2-2-2-5-2-2-0-2-2-2---1--0*|
		|------------------|-0-0-0-0-3-0-0---0-0-0--------|


               (Repeat 3 times)

	. |   |   |   |      |   |     |  |       |   |   |   |    
						    ~~~~~~~~~~~
	|------------------|--------------------|------------------|
	|------------------|--------------------|------------------|
	|*9-----7-----5---*|-9-----11-----12----|------------------|
	|-9-----7-----5----|-9-----11-----12----|------------------|
	|*7-----5-----3---*|-7-----9------10----|--/7--------------|
	|------------------|--------------------|------------------|



Double Time feel : 


	
				      _______________________________________
Fast Riff 1:			      |1.

  |   |   |   |      |   |   |   |      |   |   |   |      |   |   |   |

     PM-|    PM-|       PM-|               PM-|    PM--|      PM-|
|------------------|------------------|------------------|------------------|
|------------------|------------------|------------------|------------------|
|*-----------------|------------------|------------------|-----------------*|
|------------------|-------------7----|------------------|---------5--------|
|*7--7777-7--7777--|-7--7777-5---5----|-7--7777-7--7777--|-7--7777-3---5---*|
|-5--5555-5--5555--|-5--5555-3--------|-5--5555-5--5555--|-5--5555-----3----|


_____________________________________
|2.					Fast Riff 2 : (Note : Lyrics)

  |   |   |   |      |   |   |   |      |   |   |   |     |   |   |   | 

     PM-|    PM--|			PM------------------------|
|------------------|-----------------||-----------------|-----------------|
|------------------|-----------------||-----------------|-----------------|
|------------------|-----------------||*----------------|-----------------|
|------------------|-----------------||-----------------|------------7----|
|-7--7777-7--7777--|-----------------||*2--2222-2-2222--|-2--2222-2--5----|
|-5--5555-5--5555--|-555-555-555-532-||-0--0000-0-0000--|-0--0000-0-------|
   		   |   Triplets      |


  |   |   |   |     |   |   |   |   

  PM-------------------------|
|-----------------|-----------------|	
|-----------------|-----------------|
|-----------------|----------------*|    Repeat whole sequence again.
|-----------------|------------7-7--|
|-2--2222-2-2222--|-2--2222-2--5-5-*|
|-0--0000-0-0000--|-0--0000-0-------|



(With Fast Riff 2 [First repeat])

Lyrics : 


(With Fast Riff 2 [Second repeat])

Lyrics :







		*******Then Fast Riff 1 x 1*******



  |   |   |   |      |   |   |   |      |   |   |   |

|------------------|------------------|------------------|
|------------------|------------------|------------------|
|------------------|------------------|------------------|
|-2----------------|------------------|-5-------7--------|
|-2----------------|------------------|-5-------7--------|
|-0----------------|------------------|-3-------5--------|


GUITAR SOLO:

	
For the solo, the rhythm follows the following 'feel':

          X       X         X       X           
	|-X--XXXX-X-XXXX--|-X--XXXX-X-XXXX--|

	Chord changes are noted above tab lines, and are 2 or 3 fingered power
chords, depending on what you feel like. For the 'XX' notes, strike the
full chord, on the others just play the lowest note (Usually the E string)

  B5
  
  |  |||| |  | |||    |    | ||| |   | || |    
  @  @@@@ @  @ @@@    @    @ @@@ @   @ @@ @   
      (Full)    P                               
|-----------7-------|----------------11-12--|
|------------10-7-7/|/12-----------12-------|
|-9^^^^^^^^^--------|-----------------------|
|-------------------|-----------------------|
|-------------------|-----------------------|
|-------------------|-----------------------|



  |       |  |  |  |     |     |  |  |  |    |    |||| |   ||||
  @       @  @  @  @     @     @  @  @  @    @    @@@@ @   @@@@
    H  P       H  H        P  P     P  P
|-11-12-11---11-12-14-14-14-12-11-12-11----|-----------------7---|
|---------12----------------------------12-|-10---------/7-------|
|------------------------------------------|---------------------|
|------------------------------------------|---------------------|
|------------------------------------------|---------------------|
|------------------------------------------|---------------------|



  |  ||||  |     |   | |  |     |    | || | |     ||||
  @  @@@@  @     @   @ @  @     @    @ @@ @ @     @@@@
            H P                   P       P   P 
|-10-9--7--7-9-7-----7--------|--------------------------|
|----------------10----10-7---|-10-7---7-----------------|
|-----------------------------|------9---9-7-9-7---7---7-|
|-----------------------------|------------------9-------|
|-----------------------------|--------------------------|
|-----------------------------|--------------------------|



  |    ||  | | |    | | | |     |    ||  | | |    | | | | 
  @    @@  @ @ @    @ @ @ @     @    @@  @ @ @    @ @ @ @
 (Full)                        (Full)
|-----7-----------------------|-----7-----------------------|
|-----7-10-7---7--------------|-----7-10-7---7--------------|
|-9^^--------9---9-7-7------7-|-9^^--------9---9-7-7------7-|
|-----------------------------|-----------------------------|
|-----------------------------|-----------------------------|
|-----------------------------|-----------------------------|




  |    ||  | | |    | | | |      |      | | | |   |   | | | |
  @    @@  @ @ @    @ @ @ @      @      @ @ @ @   @   @ @ @ @
 (Full)
|-----7-----------------------|-/19--/20---/22---/24----------|
|-----7-10-7---7--------------|-------------------------------|
|-9^^--------9---9-7-7------7-|-------------------------------|
|-----------------------------|-------------------------------|
|-----------------------------|-------------------------------|
|-----------------------------|-------------------------------|



  E5
  |      | |  |  |  |      | |  |  |    |      | |  |  |  |      | |  |  |
  @      @ @  @  @  @      @ @  @  @    @      @ @  @  @  @      @ @  @  @
    P  P              P  P                P  P              P  P
|-15-14-12----12-14-15-14-12----12-14-|-15-14-12----12-14-15-14-12----12-14-|
|----------15----------------15-------|----------15----------------15-------|
|-------------------------------------|-------------------------------------|
|-------------------------------------|-------------------------------------|
|-------------------------------------|-------------------------------------|
|-------------------------------------|-------------------------------------|




  |     | | | |  |     | | | |     |     | | | |  |     | | | | 
  @     @ @ @ @  @     @ @ @ @     @     @ @ @ @  @     @ @ @ @

|-15---14---12--------12---------|--------------------------------|
|----------------15--------15----|-14---12---14-------------------|
|--------------------------------|----------------12======--------|
|--------------------------------|--------------------------------|
|--------------------------------|--------------------------------|
|--------------------------------|--------------------------------|



  B5
  |  | | | | |   | | | |    |    | | | |  |   | | | |
  @  @ @ @ @ @   @ @ @ @    @    @ @ @ @  @   @ @ @ @
 (Full) P     P      P        P      P     P     P
|------7-0-0-9-0-0-10-0-0-|-12-0-0-10-0-0-9-0-0-7-0-0-|
|----7--------------------|---------------------------|
|-9^----------------------|---------------------------|
|-------------------------|---------------------------|
|-------------------------|---------------------------|
|-------------------------|---------------------------|

  |    | | | | |   | | | |      |   | | | | |   | | | |
  @    @ @ @ @ @   @ @ @ @      @   @ @ @ @ @   @ @ @ @ 

|-10---9---7--------7---------|----------------------------|
|--------------10-------10----|-9---7---9------------------|
|-----------------------------|-------------7======\-------|
|-----------------------------|----------------------------|
|-----------------------------|----------------------------|
|-----------------------------|----------------------------|

 
  |  |||| |  ||||   |  |||| |  ||||   |  |||| |  ||||   |  |||| |  ||||
  @  @@@@ @  @@@@   @  @@@@ @  @@@@   @  @@@@ @  @@@@   @  @@@@ @  @@@@
   HH  HH  HH  HH    HH  HH  HH  HH    HH  HH  HH  HH    HH  HH  HH  HH
|-----------------|-----------------|-----------------|-047-047-047-047-|
|-047-047-047-047-|-058-058-058-058-|-047-047-047-047-|-----------------|
|-----------------|-----------------|-----------------|-----------------|
|-----------------|-----------------|-----------------|-----------------|
|-----------------|-----------------|-----------------|-----------------|
|-----------------|-----------------|-----------------|-----------------|



                                      A5
  |  |||| |  ||||   |  |||| |  ||||   |   ||||  |   ||||
  @  @@@@ @  @@@@   @  @@@@ @  @@@@   @   @@@@  @   @@@@
   HH  HH  HH  HH    HH  HH  HH  HH   T PP T PP T PP T PP
|-058-058-058-058-|-047-047-047-047-|-1285-1285-1285-1285-|
|-----------------|-----------------|---------------------|
|-----------------|-----------------|*-------------------*|
|-----------------|-----------------|---------------------|
|-----------------|-----------------|*-------------------*|
|-----------------|-----------------|---------------------|



  F5                    A#5                   F#5
  |   ||||  |   ||||    |   ||||  |   ||||    |   ||||  |   ||||
  @   @@@@  @   @@@@    @   @@@@  @   @@@@    @   @@@@  @   @@@@
  T PP T PP T PP T PP   T PP T PP T PP T PP   T PP T PP T PP T PP 
|-1385-1385-1385-1385-|-1396-1396-1396-1396-|-1496-1496-1496-1496-|
|---------------------|---------------------|---------------------|
|*-------------------*|*-------------------*|---------------------|
|---------------------|---------------------|---------------------|
|*-------------------*|*-------------------*|---------------------|
|---------------------|---------------------|---------------------|




  B5
  |    || | | |    || | |   |  |||| |  ||||   |  |||| |  ||||
  @    @@ @ @ @    @@ @ @   @  @@@@ @  @@@@   @  @@@@ @  @@@@
  T P P T P P T P P T P P    HH  HH  HH  HH    HH  HH  HH  HH
|-14107-14107-14107-14107-|-047-----047-----|-047-----047-----|
|-------------------------|-----047-----047-|-----047-----047-|
|*-----------------------*|-----------------|-----------------|
|-------------------------|-----------------|-----------------|
|*-----------------------*|-----------------|-----------------|
|-------------------------|-----------------|-----------------|




  |  |||| |  ||||   |  |||| |  ||||   |  |||| |  ||||   |  |||| |  ||||
  @  @@@@ @  @@@@   @  @@@@ @  @@@@   @  @@@@ @  @@@@   @  @@@@ @  @@@@
   HH  HH  HH  HH    HH  HH  HH  HH    HH  HH  HH  HH    HH  HH  HH  HH
|-----------------|-----------------|-----------------|-----------------|
|-047-----047-----|-047-----047-----|-----------------|-----------------|
|-----047-----047-|-----047-----047-|-047-----047-----|-047-----047-----|
|-----------------|-----------------|-----047-----047-|-----047-----047-|
|-----------------|-----------------|-----------------|-----------------|
|-----------------|-----------------|-----------------|-----------------|



                                        E5
  |  |||| |  ||||   |  |||| |  ||||     |      | | |  |   |      | | |  |
  @  @@@@ @  @@@@   @  @@@@ @  @@@@     @      @ @ @  @   @      @ @ @  @
   HH  HH  HH  HH                         P  P     P  P     P  P     P  P
|-----------------|-------------------|-------------------------------------|
|-----------------|----------------12-|-1514-0-0-1715-0-0-1514-0-0-1715-0-0-|
|-----------------|-------------/14---|-------------------------------------|
|-047-----047-----|-------------------|-------------------------------------|
|-----047-----047-|-------------------|-------------------------------------|
|-----------------|-7\----------------|-------------------------------------|



  |      | | |  |   |      | | |  |     |        |  | | |    |    ||| |
  @      @ @ @  @   @      @ @ @  @     @        @  @ @ @    @    @@@ @
    P  P    P  P    P  P    P  P
|-------------------------------------|---------------------------------|
|-1514-0-0-1715-0-0-1514-0-0-1715-0-0-|-1514-0-1412-0-1210-0-109-0-97-0-|
|-------------------------------------|---------------------------------|
|-------------------------------------|---------------------------------|
|-------------------------------------|---------------------------------|
|-------------------------------------|---------------------------------|


                      B5
  |  ||||  |  ||||    |   |||| |    || ||    |    |||| |  ||||
  @  @@@@  @  @@@@    @   @@@@ @    @@ @@    @    @@@@ @  @@@@ 
                     (Full)      P                     (Full)
|-------------------|----------------------|------------10^====|
|-7-----------------|-10^------107---7-----|-------------------|
|-7-9-7---7---------|--------------9---9-7-|-9-7---7-----------|
|-------------------|----------------------|-----9-------------|
|-------------------|----------------------|-------------------|
|-------------------|----------------------|-------------------|

 
  |   || || |       || | |    |    || | |  |  | | | |       (END SOLO)
  @   @@ @@ @       @@ @ @    @    @@ @ @  @  @ @ @ @
              H  P    H  P     H P   H P    ~~~~~~~~
|-9----12-------------------|--------------------------|
|-----------10-12-10-8-10-8-|-7-8-7-5-6-5--3========---|
|---------------------------|--------------------------|
|---------------------------|--------------------------|
|---------------------------|--------------------------|
|---------------------------|--------------------------|


*******Fast Riff 1 x 2 ( Note : Only repeat the first section )*******

On fourth repeat, Gtr 2 plays:

               P
|------------------|
|------------------|
|------------------|
|-/777-777-777-75--|
|----------------7-|
|------------------|


*******Fast Riff 2 x 4*******

*******Fast Riff 1 x 4*******


(Triplet feel - not strict time)

                             _________________________
                             |1,2,3.      |4.
                              H   H P 
|------------------|----------------------|----------| 
|------------------|----------------------|----------|
|------------------|---------------------*|----------|
|-----9---7-7------|-7-7------------------|-7--------|
|-----7---5-5------|-5-5---------5-7-5---*|-5---7----|
|-0-0--------------|---------5-7-------7--|-----5----|




    PM---|  PM-|  PM---|       h   h
              (Repeat 6 times)
|----------------------------|-----------------|
|----------------------------|-----------------|
|*--------------------------*|-----------------|
|---------------2--------3-2-|-------------2---|
|*2-2-2-2-5-2-2-0-2-2-2--1-0*|---------5---2---|
|-0-0-0-0-3-0-0---0-0-0------|-5---5---3---0---|
Metal militia
                               Rhythm Fig.1

|------------|----------------||--------------------------------------------|
|------------|----------------||*-------------------------------------------|
|------------|----------------||--------------------------------------------|
|------------|----------------||--------------------------------------------|
|--------3/--|--8----8--7--5--||*-----------------------------------5----7--|
|--------1/--|--6----6--5--3--||---0--0--0--0--0--0--0--0--0--0--0--3----5--|

				  PM..............................]	     



|-------------------------------------------|-------------------------------------------|
|-------------------------------------------|-------------------------------------------|
|-------------------------------------------|-------------------------------------------|
|-------------------------------------------|-------------------------------------------|
|-----------------------------------8----7--|-----------------------------------5----7--|
|--0--0--0--0--0--0--0--0--0--0--0--6----5--|--0--0--0--0--0--0--0--0--0--0--0--3----5--|

  PM..............................]           PM..............................]



|-------------------------------------------|------------------------------------||
|-------------------------------------------|-----------------------------------*||
|-------------------------------------------|------------------------------------||
|-------------------------------------------|------------------------------------||
|-----------------------------------5----7--|--------------------------8--7--5--*||
|--0--0--0--0--0--0--0--0--0--0--0--3----5--|--3--3--3--3--3--3--3--3--6--5--3---||

  PM..............................]           PM.....................]


							 ___________________
 w/ Rhy.Fig.1(4 times) (4th time 1st 3 bars only)       | 1.2.3.            | 

||----------------|------------------|------------------|-------------------||
||*---------------|------------------|------------------|------------------*||
||----------------|------------------|------------------|-------------------||
||----------------|------------------|------------------|-------------------||
||*---------------|------------------|------------------|------------------*||
||----------------|------------------|------------------|-------------------||



 4.                                                                    

|--------------------------|--------------------|---------------|
|--------------------------|--------------------|---------------|
|--------------------------|--------------------|---------------|
|--------------------------|--------------------|---------------|
|--------------------------|--8--7--5--8--7--5--|--7--------12\-|
|--0--0--0--0--0--0--0--0--|--6--5--3--6--5--3--|--5------------|

  PM......................]


  Rhythm Fig. 2      play 3 times          end Rhy. Fig. 2                     play 3 times

||-------------------------------||-----------------------||-------------------------------||
||*-----------------------------*||-----------------------||*-----------------------------*||
||-------------------------------||-----------------------||-------------------------------||
||-----7-----5-----2-----1----0--||--8\3--5---------------||-----7-----5-----2-----1----0--||
||*-0-----0-----0-----0---------*||--6\1-----3---5--7--8--||*-0-----0-----0-----0---------*||
||-------------------------------||--------------3--5--6--||-------------------------------||


			   $
                           w/ Rhy. Fig. 2                                      

||-----------------------||-------------|------------|------------|-------------|
||-----------------------||*------------|------------|------------|------------*|
||-----------------------||-------------|------------|------------|-------------|
||--8\3----5-------------||-------------|------------|------------|-------------|
||--6\1----3----5--7--8--||*------------|------------|------------|------------*|
||--------------3--5--6--||-------------|------------|------------|-------------|
                                                                                


 w/ Rhy. Fig. 2

|---------|---------|---------|---------|---------|---------|---------|---------|--------|
|---------|---------|---------|---------|---------|---------|---------|---------|--------|
|---------|---------|---------|---------|---------|---------|---------|---------|--------|
|---------|---------|---------|---------|---------|---------|---------|---------|--------|
|---------|---------|---------|---------|---------|---------|---------|---------|--------|
|---------|---------|---------|---------|---------|---------|---------|---------|--------|
1. Thunder...       Senseless...         Victims...          Running...         Stabbing..

      

|---------|---------|---------|---------|---------|---------|---------|
|---------|---------|---------|---------|---------|---------|---------|
|---------|---------|---------|---------|---------|---------|---------|
|---------|---------|---------|---------|---------|---------|---------|
|---------|---------|---------|---------|---------|---------|---------|
|---------|---------|---------|---------|---------|---------|---------|
          Leaving...           Suicide...          Ripping...                


 Pre-Chorus                                                    

|-------------------|----------------|-----------|-------------|
|-------------------|----------------|-----------|-------------|
|-------------------|----------------|-----------|-------------|
|--7--7------7------|--5----3--2--2--|--7--------|--5----3--5--|
|--5--5------5------|--3----1--0--0--|--5--------|--3----1--3--|
|-------------------|----------------|-----------|-------------|
 Oh!

 Chorus
 Rhy. Fig. 3

|-------------------------------------------|-------------------------------------------|
|-------------------------------------------|-------------------------------------------|
|-------------------------------------------|-------------------------------------------|
|-----------------------------------3----7--|-----------------------------------8----7--|
|--0--0--0--0--0--0--0--0--0--0--0--1----5--|--0--0--0--0--0--0--0--0--0--0--0--6----5--|
|-------------------------------------------|-------------------------------------------|

  PM..............................]	      PM..............................]


							      3rd time to CODA 2
                                                                  end Rhy. Fig.3  

|-------------------------------------------|-----------------------------------|
|-------------------------------------------|-----------------------------------|
|-------------------------------------------|-----------------------------------|
|-----------------------------------3----7--|--------------------------8--7--5--|
|--0--0--0--0--0--0--0--0--0--0--0--1----5--|--0--0--0--0--0--0--0--0--6--5--3--|
|-------------------------------------------|-----------------------------------|

  PM..............................]           PM.....................]


                                       4th time to CODA 1  __________________
 w/ Rhy. Fig.3(3 times) (3rd time 1st 3 bars only)        | 1.2.             |

||------------------|------------------|------------------|------------------||
||*-----------------|------------------|------------------|-----------------*||
||------------------|------------------|------------------|------------------||
||------------------|------------------|------------------|------------------||
||*-----------------|------------------|------------------|-----------------*||
||------------------|------------------|------------------|------------------||


 Rhy. Fig. 4				        end Rhy. Fig.4
 3.                           

|--------------------------|--------------------|------------|
|--------------------------|--------------------|------------|
|--------------------------|--------------------|------------|
|--------------------------|--8--7--5--8--7--5--|--7---------|
|--0--0--0--0--0--0--0--0--|--6--5--3--6--5--3--|--5---------|
|--------------------------|--------------------|------------|

  PM.....................]


 CODA 1
 w/ Rhy. Fig.4
 
|-------------|-------------|------------|
|-------------|-------------|------------|
|-------------|-------------|------------|
|-------------|-------------|------------|
|-------------|-------------|------------|
|-------------|-------------|------------|


 Solo

|--------------------------------|----8---------------------8--------7--|
|---------12--------10--------9--|--8b9-------r8----b9----8b9-----------|
|-----10------8--9---------8-----|--------------------------------------|
|--9--------------------7--------|--------------------------------------|
|--------------------------------|--------------------------------------|
|--------------------------------|--------------------------------------|



|--10p7------7--10p7---------------------------------|
|--------10-----------10--7--7--7--10p7--------------|
|----------------------------------------9--7-----7--|
|----------------------------------------------9-----|
|----------------------------------------------------|
|----------------------------------------------------|



|---------------------------------------------|--------------------------------|
|---------------------------------------------|--------------------------------|
|--9--7-----7--9--7---------------------------|--------------------------------|
|--------9-----------9--7--9p7-----7--9p7-----|--------------------------------|
|-------------------------------9----------9--|--9\7--5----7--5-------5-~------|
|---------------------------------------------|------------------7-------------|







|--------------------------------------|------------------------10p7--------------------|
|--------------------------------------|----------------7--10p7------10--7------7--10p7-|
|---------------------------------7--9-|-9p7---7--9b11----------------------10----------|
|--------------X--7--9p7----7--9-------|-----9------------------------------------------|
|------5--5/9------------9-------------|------------------------------------------------|
|-5h7----------------------------------|------------------------------------------------|





|--10p7--------------------------------------------|
|--------10--7------7--10p7------------------------|
|---------------10-----------9--7-----{9}b11------r|
|----------------------------------9---------------|
|--------------------------------------------------|
|--------------------------------------------------|





|------------------------------------------7--|
|------------------------------------/7-------|
|--{9}b11----9b11----9b11-~------r9--/7-------|
|---------------------------------------------|
|---------------------------------------------|
|---------------------------------------------|



|--9--7--7--9--10--10--9--10--12--12--10--12--14--14--12--13--15--|
|-----------------------------------------------------------------|
|-----------------------------------------------------------------|
|-----------------------------------------------------------------|
|-----------------------------------------------------------------|
|-----------------------------------------------------------------|



|--15--14--14--15--17----16--17--19----17--19--20----19----|
|----------------------------------------------------------|
|----------------------------------------------------------|
|----------------------------------------------------------|
|----------------------------------------------------------|
|----------------------------------------------------------|





|--22b24----r--b24--22b24------22b25--|--22b25---r--19h22p19----19--19--|
|-------------------------------------|---------------------------------|
|-------------------------------------|---------------------------------|
|-------------------------------------|---------------------------------|
|-------------------------------------|---------------------------------|
|-------------------------------------|---------------------------------|




|--22p19------19--22p19-------------------------19h22p19----------|
|---------22-------------22--19------19--22p19------------22--19--|
|--------------------------------22-------------------------------|
|-----------------------------------------------------------------|
|-----------------------------------------------------------------|
|-----------------------------------------------------------------|



|-----------------19h22p19---------------------------------------|
|------19--22p19------------22--19--19--22p19---------19--22p19--|
|--22------------------------------------------21b23-------------|
|----------------------------------------------------------------|
|----------------------------------------------------------------|
|----------------------------------------------------------------|



|--------------------22p19\18---------------------------22p19\18---------|
|---------19--22p19------------22p19---------19--22p19------------22p19--|
|--21b23------------------------------21b23------------------------------|
|------------------------------------------------------------------------|
|------------------------------------------------------------------------|
|------------------------------------------------------------------------|





|-----------------------------------|-------------------------------------------------|
|---------19--22p19------19--22p19--|--22b24---22b24---22b24---22b24---22b24---22b24--|
|--21b23-------------21-------------|-------------------------------------------------|
|-----------------------------------|-------------------------------------------------|
|-----------------------------------|-------------------------------------------------|
|-----------------------------------|-------------------------------------------------|
 
 
 
|-------------------|
|--22b24-~----------|
|-------------------|
|-------------------|
|-------------------|
|-------------------|
 
 






 
 Interlude

|-----------|----------|--------------------------------------------------|
|-----------|----------|--------------------------------------------------|
|-----------|----------|--------------------------------------------------|
|--2--------|----------|--------------------------------------------------|
|--0--------|----------|--0--0--0--0--0--0--0--0--0--0--0--0--0--0--0--0--|
|-----------|----------|--------------------------------------------------|

			 PM.............................................]

                                                                     play 4 times

|--------------------------------------------------||-------------------------------||
|--------------------------------------------------||*-----------------------------*||
|--------------------------------------------------||-------------------------------||
|--------------------------------------------------||---8----3----5-----------------||
|--0--0--0--0--0--0--0--0--0--0--0--0--0--0--0--0--||*--6----1----3----5--5--7--3--*||
|--------------------------------------------------||------------------3--3--5--1---||

  PM.............................................]

                        play 4 times

||-----------------------------------||-----------------------------------||
||*---------------------------------*||*---------------------------------*||
||-----------------------------------||-----------------------------------||
||--------5----7------------4--------||--------6----8----3--3----5--------||
||*--3----3----5----7--7----2----5--*||*--4----4----6----1--1----3----6--*||
||---1--------------5--5---------3---||---2---------------------------4---||





||-------------------------------------||-------------------------------------------|
||*-----------------------------------*||-------------------------------------------|
||-------------------------------------||-------------------------------------------|
||----------7---------4--4----6--------||-------------------------------------------|
||*--5------5----2----2--2----4----7--*||--7--7----5--5-----------------------------|
||---3-----------0-----------------5---||------------------8--8----7--7----5--7--8--|



                                            D.S.al CODA 2 

|-------------------------------------------|-----------|
|-------------------------------------------|-----------|
|-------------------------------------------|-----------|
|-------------------------------------------|-----------|
|-------------------------------------------|--2--------|
|--8--8----7--7----5--5----3--3----2--3--5--|--0--------|





 CODA 2
 w/ Rhy. Fig. 3		      Repeat and fade

|----------|----------|----------|----------||
|*---------|----------|----------|---------*||
|----------|----------|----------|----------||
|----------|----------|----------|----------||
|*---------|----------|----------|---------*||
|----------|----------|----------|----------||
comments
print report bad tab
I want to post or [tab]
guest
You may want to rate the tab now too:
select rating
Please do not post tabs as comments. Select "correction" instead!