Oops, an error
Loading. Please wait.

My Apocalypse Tab

ver1
ver1

Intro

Solo

Whole song

More versions @911Tabs.com
39,193 views 90 this week
3 commentsread comments
1 2 3 4 5
accurate
x 6
Autoscroll
+/-
esc
set tempo
stop
Contributor
Hey! There's an official Ultimate Guitar app which is ideal
for learning songs when you're away from computer. Get the app
WARNING: You are trying to view
                                    content from Ultimate-Guitar.com
                                    in an unauthorized application,
                                    which is prohibited.

                                    Please use an official Ultimate
                                    Guitar Tabs application for iPhone,
                                    iPad or Android to access legitimate
                                    chords, guitar, bass, and drum tabs
                                    from Ultimate-Guitar.com database.

                                    Type "ultimate guitar tabs" in Apple
                                    App Store's or Android Market's
                                    search to find the application.
-------------------------------------------------------------------------------
                             My Apocalypse - Metallica
-------------------------------------------------------------------------------


Tabbed by: Mustaine
Email: kreator11@gmail.com

"My Apocalypse" new song available for streaming at metallica.com

Tuning: E Standard


------------------------------------------------------------------------------|
------------------------------------------------------------------------------|
------------------------------------------------------------------------------|
----------------------------------------------------12\11---12\11---12\11-----|
-5h7--------------5h7--------------5h7----------------------------------------|
-0---0-0-0-0-0-0--0---0-0-0-0-0-0--0----0-0-0-0-0-0-10\9--0-10\9--0-10\9------|
                 repeat above bar 2x

------------------------------------------------------------------------------|
------------------------------------------------------------------------------|
------------------------------------------------------------------------------|
------------------------------------------------------------12\11---12\11-----|
-5h7-----------------5h7-----------------5h7----------------------------------|
-0---0--0-0-0-0-0-0--0---0--0-0-0-0-0-0--0---0--0-0-0-0-0-0-10\9--0-10\9--0---|


------------------------------------------------------------------------------|
------------------------------------------------------------------------------|
------------------------------------------------------------------------------|
-12\11------------------------------------------------------------------------|
------------------------------------------------------------------------------|
-10\9-------------------------------------------------------------------------|
                     repeat above 2 bars 2x

------------------------------------------------------------------------------|
------------------------------------------------------------------------------|
------------------------------------------------------------------------------|
-5b-----------5b-----------5b----------12\11---12\11---12\11------------------|
-7------------7------------7--------------------------------------------------|
----0-0--0-0-----0-0--0-0-----0-0--0-0-10\9--0-10\9--0-10\9-------------------|
                                        repeat above bar 2x

------------------------------------------------------------------------------|
------------------------------------------------------------------------------|
------------------------------------------------------------------------------|
-5b-----------------5b-----------------5b----------------12\11---12\11--------|
-7------------------7------------------7--------------------------------------|
----0--0-0-0-0-0-0-----0--0-0-0-0-0-0-----0--0-0-0-0-0-0-10\9--0-10\9--0------|


------------------------------------------------------------------------------|
------------------------------------------------------------------------------|
------------------------------------------------------------------------------|
-12\11------------------------------------------------------------------------|
------------------------------------------------------------------------------|
-10\9-------------------------------------------------------------------------|
                        repeat above 2 bars 4x

------------------------------------------------------------------------------|
------------------------------------------------------------------------------|
------------------------------------------------------------------------------|
-----------------------------------4--7---------------------------------------|
-4---------------------------5--5--2--5---------------------------------------|
-2--2-2-2--2-2-2--2-2-2--2---3--3---------------------------------------------|
                      repeat above bar 3x

------------------------------------------------------------------------------|
------------------------------------------------------------------------------|
------------------------------------------------------------------------------|
------------------------------------------------------------------------------|
-4----------------------------------------------------------------------------|
-2--2-2-2--2-2-2--2-2-2--2-2-2--2-2-2--2-2-2--2-2-2---------------------------|


------------------------------------------------------------------------------|
------------------------------------------------------------------------------|
------------------------------------------------------------------------------|
--5b\---5b\---5b\---12\11------12\11------12\11---14\13-------14\13-----------|
--5b\---5b\---5b\-------------------------------------------------------------|
--------------------10\9---0---10\9---0---10\9----12\11---0---12\11---0-------|


------------------------------------------------------------------------------|
------------------------------------------------------------------------------|
------------------------------------------------------------------------------|
-14\13------------------------------------------------------------------------|
----------11--11--11--11---13--13--13--13-------------------------------------|
-12\11----10--10--10--10---11--11--11--11-------------------------------------|


------------------------------------------------------------------------------|
------------------------------------------------------------------------------|
------------------------------------------------------------------------------|
-5b-----------------5b-----------------5b----------------12\11---12\11--------|
-7------------------7------------------7--------------------------------------|
----0--0-0-0-0-0-0-----0--0-0-0-0-0-0-----0--0-0-0-0-0-0-10\9--0-10\9----0----|


------------------------------------------------------------------------------|
------------------------------------------------------------------------------|
------------------------------------------------------------------------------|
---10-9-----9-----------------------------------------------------------------|
-7------8-9---9-8-------------------------------------------------------------|
------------------------------------------------------------------------------|
                     repeat above bar 8x

------------------------------------------------------------------------------|
------------------------------------------------------------------------------|
------------------------------------------------------------------------------|
-9--------------------9\7-----------------------7/9---------------------------|
-7--------------------7\5-----------------------5/7---------------------------|
----0-0-0-0-0-0--0-0-------0--0-0-0-0-0-0--0-0-------0--0-0-0-0-0-0--0-0-0-0--|


------------------------------------------------------------------------------|
------------------------------------------------------------------------------|
------------------------------------------------------------------------------|
---10-9-----9-----------------------------------------------------------------|
-7------8-9---9-8-------------------------------------------------------------|
------------------------------------------------------------------------------|
                       repeat above 2 bars 4x

------------------------------------------------------------------------------|
------------------------------------------------------------------------------|
------------------------------------------------------------------------------|
---10-9-----9-----------------------------------------------------------------|
-7------8-9---9-8-------------------------------------------------------------|
------------------------------------------------------------------------------|
                     repeat above bar 3x

------------------------------------------------------------------------------|
------------------------------------------------------------------------------|
------------------------------------------------------------------------------|
-9----------------------------------------------------------------------------|
-7----------------------------------------------------------------------------|
------------------------------------------------------------------------------|
      "SPIT IT OUT!"

------------------------------------------------------------------------------|
------------------------------------------------------------------------------|
------------------------------------------------------------------------------|
-9--------------------9\7-------------------------------------------------10--|
-7--------------------7\5-------5/7-------5/7--2------------------------7-----|
----0-0-0-0-0-0--0-0-------0-0--3/5--0-0--3/5--0--0-0-0-0-0-0--0-0-0-0--------|
       solo rhythm

------------------------------------------------------------------------------|
------------------------------------------------------------------------------|
------------------------------------------------------------------------------|
-9-----9----------------------------------------------------------------------|
---8-9---9-8------------------------------------------------------------------|
------------------------------------------------------------------------------|
                       repeat above 2 bars 3x

------------------------------------------------------------------------------|
------------------------------------------------------------------------------|
------------------------------------------------------------------------------|
-9--------------------9\7-----------------------------------------------------|
-7--------------------7\5-------5/7-------9\8--7--------------------7/8--5----|
----0-0-0-0-0-0--0-0-------0-0--3/5--0-0--7\6--5--5-5-5-5-5-5--5-5--5/6--3----|


------------------------------------------------------------------------------|
------------------------------------------------------------------------------|
------------------------------------------------------------------------------|
------------------------------------------------------------------------------|
-------------------5--4-------------------------------------------------------|
-3-3-3-3-3-3--3-3--3--2-------------------------------------------------------|


------------------------------------------------------------------------------|
------------------------------------------------------------------------------|
------------------------------------------------------------------------------|
------------------------------------------------------------------------------|
------------------------------------------------------------------------------|
-0--0-0-0-0--0-0---0--0-0-0-0--0-0---0--0-0-0-0--0-0---0--0-0-0-0--0-0--------|


------------------------------------------------------------------------------|
------------------------------------------------------------------------------|
------------------------------------------------------------------------------|
--------------------------------------------------------------------3--3------|
----------------------------------------------------3---------------3--3------|
-0--0-0-0-0--0-0---0--0-0-0-0--0-0---1--1-1-1-1--1--1---1--1-1-1-1--1--1------|


------------------------------------------------------------------------------|
------------------------------------------------------------------------------|
------------------------------------------------------------------------------|
------------------------------------------------------------------------------|
---2---2-3--5-3-2---2-----2---2-3--5-3----------------------------------------|
-0---0------------0-----0---0----------1--------------------------------------|
 Guitar 1           repeat above bar 2x

------------------------------------------------------------------------------|
------------3-----------------------3-----------------------------------------|
---4---4-5----5-4----4-----4----4-5---5---------------------------------------|
-2---2-------------2-----2----2---------3-------------------------------------|
------------------------------------------------------------------------------|
------------------------------------------------------------------------------|
 Guitar 2

------------------------------------------------------------------------------|
------------------------------------------------------------------------------|
------------------------------------------------------------------------------|
-2--------------------9\7-------------------------------------------9\7-------|
-2--------------------7\5-------5/7-------5/7--2--------------------7\5-------|
-0--0-0-0-0-0-0--0-0-------0-0--3/5--0-0--3/5--0--0-0-0-0-0-0--0-0-------0-0--|


------------------------------------------------------------------------------|
------------------------------------------------------------------------------|
------------------------------------------------------------------------------|
------------------------------------------------------------------------------|
-5/7-------5/7----------------------------------------------------------------|
-3/5--0-0--3/5----------------------------------------------------------------|
                   repeat above 2 bars 2x

------------------------------------------------------------------------------|
------------------------------------------------------------------------------|
------------------------------------------------------------------------------|
------------------------------------------------------------------------------|
---2---2-3--5-3-2---2-----2---2-3--5-3----------------------------------------|
-0---0------------0-----0---0----------1--------------------------------------|
 Guitar 1           repeat above bar 2x

------------------------------------------------------------------------------|
------------3-----------------------3-----------------------------------------|
---4---4-5----5-4----4-----4----4-5---5---------------------------------------|
-2---2-------------2-----2----2---------3-------------------------------------|
------------------------------------------------------------------------------|
------------------------------------------------------------------------------|
 Guitar 2

------------------------------------------------------------------------------|
------------------------------------------------------------------------------|
------------------------------------------------------------------------------|
-2--------------------9\7-------------------------------------------9\7-------|
-2--------------------7\5-------5/7-------5/7--2--------------------7\5-------|
-0--0-0-0-0-0-0--0-0-------0-0--3/5--0-0--3/5--0--0-0-0-0-0-0--0-0-------0-0--|


------------------------------------------------------------------------------|
------------------------------------------------------------------------------|
------------------------------------------------------------------------------|
------------------------------------------------------------------------------|
-5/7-------5/7----------------------------------------------------------------|
-3/5--0-0--3/5----------------------------------------------------------------|
                   repeat above 2 bars 2x

------------------------------------------------------------------------------|
------------------------------------------------------------------------------|
------------------------------------------------------------------------------|
---10-9-----9-----------------------------------------------------------------|
-7------8-9---9-8-------------------------------------------------------------|
------------------------------------------------------------------------------|
                       repeat above bar 4x

------------------------------------------------------------------------------|
------------------------------------------------------------------------------|
---8-7-----7---------8-7-----7-------7-------7---------8--------8-------------|
-5-----6-7---7-6---5-----6-7---7-6-----9-8-7---9-8-7-----10-9-8---10----------|
------------------------------------------------------------------------------|
------------------------------------------------------------------------------|


------------------------------------------------------------------------------|
------------------------------------------------------------------------------|
------------------------------------------------------------------------------|
------------------------------------------------------------------------------|
-5--4--3--2--3--4--5--4--3----------------------------------------------------|
-3--2--1--0--1--2--3--2--1----------------------------------------------------|


------------------------------------------------------------------------------|
------------------------------------------------------------------------------|
------------------------------------------------------------------------------|
-5b-----------------5b-----------------5b----------------12\11---12\11--------|
-7------------------7------------------7--------------------------------------|
----0--0-0-0-0-0-0-----0--0-0-0-0-0-0-----0--0-0-0-0-0-0-10\9--0-10\9--0------|


------------------------------------------------------------------------------|
------------------------------------------------------------------------------|
------------------------------------------------------------------------------|
-12\11------------------------------------------------------------------------|
------------------------------------------------------------------------------|
-10\9-------------------------------------------------------------------------|
                         repeat above 2 bars 4x

------------------------------------------------------------------------------|
------------------------------------------------------------------------------|
------------------------------------------------------------------------------|
-----------------------------------4--7---------------------------------------|
-4---------------------------5--5--2--5---------------------------------------|
-2--2-2-2--2-2-2--2-2-2--2---3--3---------------------------------------------|
                      repeat above bar 3x

------------------------------------------------------------------------------|
------------------------------------------------------------------------------|
------------------------------------------------------------------------------|
------------------------------------------------------------------------------|
-4----------------------------------------------------------------------------|
-2--2-2-2--2-2-2--2-2-2--2-2-2--2-2-2--2-2-2--2-2-2---------------------------|


------------------------------------------------------------------------------|
------------------------------------------------------------------------------|
------------------------------------------------------------------------------|
--5b\---5b\---5b\---12\11------12\11------12\11---14\13-------14\13-----------|
--5b\---5b\---5b\-------------------------------------------------------------|
--------------------10\9---0---10\9---0---10\9----12\11---0---12\11---0-------|


------------------------------------------------------------------------------|
------------------------------------------------------------------------------|
------------------------------------------------------------------------------|
-14\13------------------------------------------------------------------------|
----------11--11--11--11---13--13--13--13-------------------------------------|
-12\11----10--10--10--10---11--11--11--11-------------------------------------|


------------------------------------------------------------------------------|
------------------------------------------------------------------------------|
------------------------------------------------------------------------------|
------------------------------------------------------------------------------|
------------------------------------------------------------------5--4--3--2--|
-0-0-0-0-0-0-0-0-0-0-0-0-0-0-0-0-0-0-0-0-0-0-0-0-0-0-0-0-0-0-0-0--3--2--1--0--|


------------------------------------------------------------------------------|
------------------------------------------------------------------------------|
------------------------------------------------------------------------------|
------------------------------------------------------------------------------|
-3--4--5--4--3----------------------------------------------------------------|
-1--2--3--2--1----------------------------------------------------------------|
                        repeat above 2 bars 4x

------------------------------------------------------------------------------|
------------------------------------------------------------------------------|
------------------------------------------------------------------------------|
-3----------------------------------------------------------------------------|
-3----------------------------------------------------------------------------|
------------------------------------------------------------------------------|


------------------------------------------------------------------------------|
------------------------------------------------------------------------------|
------------------------------------------------------------------------------|
-2----------------------------------------------------------------------------|
-2----------------------------------------------------------------------------|
-0----------------------------------------------------------------------------|
comments
print report bad tab
3 comments total.
-1 reply
jpc675 wrote on August 28 2008, 11:36 am

Nice, few different fingerings from the first tab posted, a few clarifications, like the tri-tone use instead of the single pulloff. Either or sounds good, but nice touch.

-1 reply
Gresp wrote on September 1 2008, 05:43 am

Great tab man.

-1 reply
Gresp wrote on September 1 2008, 01:29 pm

Just there is no solo, but everything else is very good.

I want to post or [tab]
guest
You may want to rate the tab now too:
select rating
Please do not post tabs as comments. Select "correction" instead!