Oops, an error
Loading. Please wait.

My Apocalypse Bass Tab

ver2
ver2

Whole song

More versions @911Tabs.com
304 views 3 this week
no commentswrite comment
1 2 3 4 5
excellent!
x 2
Autoscroll
+/-
esc
set tempo
stop
Contributor
Difficulty
intermediate
WARNING: You are trying to view
                                    content from Ultimate-Guitar.com
                                    in an unauthorized application,
                                    which is prohibited.

                                    Please use an official Ultimate
                                    Guitar Tabs application for iPhone,
                                    iPad or Android to access legitimate
                                    chords, guitar, bass, and drum tabs
                                    from Ultimate-Guitar.com database.

                                    Type "ultimate guitar tabs" in Apple
                                    App Store's or Android Market's
                                    search to find the application.
                                My Apocalypse

Note: This is the master bass tab, link is here:

http://www.youtube.com/watch?v=UGVyOB8t3xY

Metallica
Death Magnetic
Tuning: Standard BEADG
5-String Required, or tune 4 string to BEAD
MetallicaDMRTL

G|-------------------------------|
D|-------------------------------|
A|-------------------------------| x2
E|-0--r--0--r--0--r--------------|
B|-------------------3p2-3p2-3p2-|

G|-----------------|
D|-----------------|
A|-----------------| x4
E|-----------------|
B|-5/4-4-4/3/2-2\3-|

G|-----------------|    |-----------------|
D|-----------------|    |-----------------|
A|-----------------| x3 |-----------------|
E|-----------------|    |-----------------|
B|-5/4-4-4/3/2-2\3-|    |-3p2-0-3p2-0-3p2-|

G|---------------|-----------------|-----------------|-----------------|
D|---------------|-----------------|-----------------|-----------------|
A|---------------|-----------------|-----------------|-----------------| x2
E|-3-------------|--3--------------|--3--------------|-----------------|
B|---5-5-5-0-3-5-|---5-5-5-5-5-5-5-|---5-5-5-5-5-5-5-|-3p2-0-3p2-0-3p2-|

G|------------------|------------------|------------------|-------------------|   x4
D|------------------|------------------|------------------|-------------------|
A|------------------|------------------|------------------|-5p4---5p4---5p4---|
E|-0--0-0-0-0-0-0-0-|-0--0-0-0-0-0-0-0-|-0--0-0-0-0-0-0-0-|-----0-----0-------|
B|------------------|------------------|------------------|-------------------|

G|------------------|----------|    |----------------------|---------------|
D|------------------|----------|    |----------------------|---------------|
A|------------------|------2-5-| x3 |----------------------|---------------|
E|-2--2-2-2-2-2-2-2-|-3-3------|    |-2--2-2-2-2-2-2-2-2-2-|-2-2-2-2-2-2-2-|
B|------------------|----------|    |----------------------|---------------|

G|----------------------------|
D|----------------------------|
A|----------------------------|
E|----------------------------|
B|-5/// r 0\5///-r-0\5///-r-x-|

G|-----------------|-----------------|-----------------|---------------|
D|-----------------|-----------------|-----------------|---------------|
A|-5p4---5p4---5p4-|-7p6---7p6---7p6-|-----------------|---------------|
E|-----0-----0-----|-----0-----0-----|-5p4-5p4-5p4-5p4-|---------------|
B|-----------------|-----------------|-----------------|-4-r-4-r-4-r-4-|

G|------------------|------------------|------------------|-------------------|   x4
D|------------------|------------------|------------------|-------------------|
A|------------------|------------------|------------------|-5p4---5p4---5p4---|
E|-0--0-0-0-0-0-0-0-|-0--0-0-0-0-0-0-0-|-0--0-0-0-0-0-0-0-|-----0-----0-------|
B|------------------|------------------|------------------|-------------------|
                     1st and 2nd     3rd time
G|------------------|----------|    |---------|
D|------------------|----------|    |---------|
A|------------------|------2-5-| x3 |---------|
E|-2--2-2-2-2-2-2-2-|-3-3------|    |-3-3-----|
B|------------------|----------|    |-----0-3-|

G|----------------------|---------------------------------|
D|----------------------|---------------------------------|
A|----------------------|---------------------------------|
E|-2--2-2-2-2-2-2-2-2-2-|-2-2-2-2-2-2-2-2-2-2-2-2-2-2-2-2-|
B|----------------------|---------------------------------|

G|----------------------------|
D|----------------------------|
A|----------------------------|
E|----------------------------|
B|-5/// r 0\5///-r-0\5///-r-x-|

G|-----------------|-----------------|-----------------|---------------|
D|-----------------|-----------------|-----------------|---------------|
A|-----------------|-----------------|-----------------|---------------|
E|-----------------|-----------------|-5p4-5p4-5p4-5p4-|---------------|
B|-3p2-0-3p2-0-3p2-|-5p4-0-5p4-0-5p4-|-----------------|-4-r-4-r-4-r-4-|

G|------------------|------------------|------------------|-----------------|
D|------------------|------------------|------------------|-----------------|
A|------------------|------------------|------------------|-5p4---5p4---5p4-|
E|-0--0-0-0-0-0-0-0-|-0--0-0-0-0-0-0-0-|-0--0-0-0-0-0-0-0-|-----0-----0-----|
B|------------------|------------------|------------------|-----------------|

G|-----|
D|-----|
A|-----|
E|--0--|
B|-----|

G|-----------------|
D|-----------------|
A|---3-2-----2-----| x4
E|-0-----1-2---2-1-|
B|-----------------|

G|-----------------------|-----------------------|
D|-----------------------|-----------------------|
A|-------------------7-5-|-------------------5-7-|
E|-0-0-0-0-0-0-0-0-0-----|-0-0-0-0-0-0-0-0-0-----|
B|-----------------------|-----------------------|

G|-----------------------|-----------------|
D|-----------------------|-----------------|
A|-----------------------|---3-2-----2-----| x4
E|-0-0-0-0-0-0-0-0-0-0-0-|-0-----1-2---2-1-|
B|-----------------------|-----------------|

G|-----------------|-----------------|-------------------|------------------|
D|-----------------|-----------------|----10-9-----9-----|---10-9-----9-----|
A|---3-2-----2-----|---3-2-----2-----|-/7------8-9---9-8-|-7------8-9---9-8-|
E|-0-----1-2---2-1-|-0-----1-2---2-1-|-------------------|------------------|
B|-----------------|-----------------|-------------------|------------------|

G|-----|
D|-----|
A|-----|
E|--0--|
B|-----|

G|-----------------------|-----------------|-----------------------|
D|*----------------------|-----------------|-----------------------|
A|-------------------7-5-|-----------------|-----------------------|
E|*0-0-0-0-0-0-0-0-0-----|-0-0-3-5-0-0-3-5-|-0-0-0-0-0-0-0-0-0-0-0-|
B|-----------------------|-----------------|-----------------------|

G|--------------------|
D|-------------------*|
A|-------------2------| x3
E|-0-0-0-0-1-2---2-1-*|
B|--------------------|

G|-----------------------|-----------------|
D|-----------------------|-----------------|
A|-------------------7-5-|-----------------|
E|-0-0-0-0-0-0-0-0-0-----|-0-0-3-5-0-0-7-6-|
B|-----------------------|-----------------|

G|-----------------------|-----------------------|
D|-----------------------|-----------------------|
A|-----------------------|-----------------------|
E|-5-5-5-5-5-5-5-5-5-5-4-|-3-3-3-3-3-3-3-3-3-3-2-|
B|-----------------------|-----------------------|

G|---------------|-3 times-------|------------------|-----------------|
D|*--------------|--------------*|------------------|-----------------|
A|---------------|---------------|------------------|---8-8-8-8-8-8-8-|
E|*0-0-0-0-0-0-0-|-0-0-0-0-0-0-0*|-1-1-1-1-1-1-1-1/-|-----------------|
B|---------------|---------------|------------------|-----------------|

G|---------------|-----------------|-----------------|-------------------|
D|---------------|-----------------|-----------------|-------------------|
A|---------------|-----------------|-----------------|-------------------|
E|-0-0-0-0-0-0-0-|-0-0-0-0-0-0-0-0-|-0-0-0-0-0-0-0-0-|-1-1-1-1-1-1-1-1-1-|
B|---------------|-----------------|-----------------|-------------------|

G|---------------|-----------------|-----------------|--------------------|
D|---------------|-----------------|-----------------|--------------------|
A|---------------|-----------------|-----------------|--------------------|
E|-0-0-0-0-0-0-0-|-0-0-0-0-0-0-0-0-|-0-0-0-0-0-0-0-0-|-1-1-1-1-1-1-1-1-1/-|
B|---------------|-----------------|-----------------|--------------------|

G|-----------------------|-----------------|
D|-----------------------|-----------------|
A|-------------------7-5-|-----------------| x4
E|-0-0-0-0-0-0-0-0-0-----|-0-0-3-5-0-0-3-5-|
B|-----------------------|-----------------|

G|---------------|-----------------|-----------------|-------------------|
D|---------------|-----------------|-----------------|-------------------|
A|---------------|-----------------|-----------------|-------------------|
E|-0-0-0-0-0-0-0-|-0-0-0-0-0-0-0-0-|-0-0-0-0-0-0-0-0-|-1-1-1-1-1-1-1-1-1-|
B|---------------|-----------------|-----------------|-------------------|

G|---------------|-----------------|-----------------|--------------------|
D|---------------|-----------------|-----------------|--------------------|
A|---------------|-----------------|-----------------|--------------------|
E|-0-0-0-0-0-0-0-|-0-0-0-0-0-0-0-0-|-0-0-0-0-0-0-0-0-|-1-1-1-1-1-1-1-1-1/-|
B|---------------|-----------------|-----------------|--------------------|

G|-----------------------|-----------------|
D|-----------------------|-----------------|
A|-------------------7-5-|-----------------| x4
E|-0-0-0-0-0-0-0-0-0-----|-0-0-3-5-0-0-3-5-|
B|-----------------------|-----------------|

G|-----------------|
D|-----------------|
A|---3-2-----2-----| x4
E|-0-----1-2---2-1-|
B|-----------------|

G|-----------------|
D|-----------------|
A|---6-5-----5-----| x2
E|-3-----4-5---5-4-|
B|-----------------|

G|-----------------|-----------------|-------------|-------|
D|-----------------|-----------------|-------------|-------|
A|-5-------5-------|-6-------6-------|-------------|-------|
E|---7-6-5---7-6-5-|---8-7-6---8-6-4-|-3-2-1-0-1-2-|-3-2-1-|
B|-----------------|-----------------|-------------|-------|

G|------------------|------------------|------------------|-------------------|   x4
D|------------------|------------------|------------------|-------------------|
A|------------------|------------------|------------------|-5p4---5p4---5p4---|
E|-0--0-0-0-0-0-0-0-|-0--0-0-0-0-0-0-0-|-0--0-0-0-0-0-0-0-|-----0-----0-------|
B|------------------|------------------|------------------|-------------------|
                     1st and 2nd     3rd time
G|------------------|----------|    |---------|
D|------------------|----------|    |---------|
A|------------------|------2-5-| x3 |---------|
E|-2--2-2-2-2-2-2-2-|-3-3------|    |-3-3-----|
B|------------------|----------|    |-----0-3-|

G|-----------------------|------------------------|
D|-----------------------|------------------------|
A|-----------------------|-9-9-9-9-9-9-9-9-9-9-9\-|
E|-2--2-2-2-2-2-2-2-2-2/-|------------------------|
B|-----------------------|------------------------|

G|----------------------------|
D|----------------------------|
A|----------------------------|
E|----------------------------|
B|-5/// r 0\5///-r-0\5///-r-x-|

G|-----------------|-----------------|-----------------|---------------|
D|-----------------|-----------------|-----------------|---------------|
A|-----------------|-----------------|-----------------|---------------|
E|-----------------|-----------------|-5p4-5p4-5p4-5p4-|---------------|
B|-3p2-0-3p2-0-3p2-|-5p4-0-5p4-0-5p4-|-----------------|-4-r-4-r-4-r-4-|

G|---------------------------------|----------------------------|  (only)
D|*--------------------------------|----------------------------| with pick
A|-7-7-7-7-7-7-7-7-7-7-7-7-7-7-7-7-|-7-7-7-7-7-7-7-7-7-7-7-7-7\-|  on 7's
E|*--------------------------------|----------------------------|
B|---------------------------------|----------------------------|

G|-------------|--------|
D|-------------|-------*|
A|-------------|--------| x4
E|-3-2-1-0-1-2-|-3-2-1-*|
B|-------------|--------|

G|--------------------------------|
D|--------------------------------|
A|-3///////////////////////////15-| with pick (super fast)
E|--------------------------------|
B|--------------------------------|

G|-------------------------------|-----|-------|-------|  with pick again
D|-------------------------------|-----|-------|-------|
A|-15\\\\\\\\\\\\\\\\\\\\\\\\\\3-|-3-3-|-3-3-3-|-7\\\\-|  slide last note
E|-------------------------------|-----|-------|-7\\\\-|      fast
B|-------------------------------|-----|-------|-5\\\\-|

My Apocalypse, hope u enjoi, this is a little hard nut extremely fun, keep it metal!!!!!!

             MetallicaDMRTL

                             \m/Metallica\m/
comments
We did not receive enough feedback on this tab! Please rate:
1 2 3 4 5
I want to post or [tab]
guest
You may want to rate the tab now too:
select rating
Please do not post tabs as comments. Select "correction" instead!