Oops, an error
Loading. Please wait.

My Apocalypse Tab

ver4
ver4

Intro

Solo

Whole song

More versions @911Tabs.com
7,080 views 15 this week
3 commentsread comments
1 2 3 4 5
excellent!
x 3
Autoscroll
+/-
esc
set tempo
stop
Contributor
Hey! There's an official Ultimate Guitar app which is ideal
for learning songs when you're away from computer. Get the app
WARNING: You are trying to view
                                    content from Ultimate-Guitar.com
                                    in an unauthorized application,
                                    which is prohibited.

                                    Please use an official Ultimate
                                    Guitar Tabs application for iPhone,
                                    iPad or Android to access legitimate
                                    chords, guitar, bass, and drum tabs
                                    from Ultimate-Guitar.com database.

                                    Type "ultimate guitar tabs" in Apple
                                    App Store's or Android Market's
                                    search to find the application.
Metallica - My Apocalypse - Death Magnetic

Tabbed by: Chase Grimes
Email: bigbucksgrimes@yahoo.com

Time took to complete tab:
approx. 10 hours

Tuning: Guitar 1 (James Hetfield) - EADGBe (standard)
        Guitar 2 (Kirk Hammett) - EADGBe (standard)

Software used:
Amazing Slow Downer
Limewire
mp3DirectCut
BitTorrent
Windows Media Player

Key:

 b     bend
 /     slide up
 \     slide down
 h     hammer-on
 p     pull-off
 ~     vibrato
 +     pinched harmonic
 *     palm mute

Song Order for Guitar 1 (James Hetfield):
Part 1  x2
Part 2  x2
Part 3  x2
Part 4  x4
Part 5  x1
Part 6  x1
Part 4  x4
Part 5  x1
Part 6  x1
Part 4  x1
Part 7  x1
Part 8  x1
Part 9  x1
Part 10 x1
Part 11 x1
Part 12 x2
Part 11 x1
Part 12 x2
Part 13 x1
Part 4  x4
Part 5  x1
Part 6  x1
Part 14 x1



Song Order for Guitar 2 (Kirk Hammett):
Lead 1  x1
Lead 2  x1
Lead 2  x1







Part 1 - Guitar 1 - Distorted Electric

      * * * * * *     * * * * * *     * * * * * *     *     *
e|----------------------------------------------------------------|
B|----------------------------------------------------------------|
G|------------------------------------------------7\6---7\6---7\6-|
D|------------------------------------------------x-----x-----x---|
A|5h7-------------5h7-------------5h7-------------5\4---5\4---5\4-|
E|0---0-0-0-0-0-0-0---0-0-0-0-0-0-0---0-0-0-0-0-0-----0-----0-----|



Part 2 - Guitar 1 - Distorted Electric

      * *** * * *     * *** * * *     * *** * * *     *     *
e|----------------------------------------------------------------|
B|----------------------------------------------------------------|
G|------------------------------------------------7\6---7\6---7\6-|
D|------------------------------------------------x-----x-----x---|
A|5h7-------------5h7-------------5h7-------------5p4---5p4---5p4-|
E|0---0-000-0-0-0-0---0-000-0-0-0-0---0-000-0-0-0-----0-----0-----|



Part 3 - Guitar 1 - Distorted Electric

      * *     * *     * *     * *     * *     * *     *     *
e|----------------------------------------------------------------|
B|----------------------------------------------------------------|
G|------------------------------------------------7\6---7\6---7\6-|
D|4/5-------------4/5-------------4/5-------------x-----x-----x---|
A|5/7-------------5/7-------------5/7-------------5\4---5\4---5\4-|
E|----0-0-----0-0-----0-0-----0-0-----0-0-----0-0-----0-----0-----|



Part 4 - Guitar 1 - Distorted Electric

      * *** * * *     * *** * * *     * *** * * *     *     *
e|----------------------------------------------------------------|
B|----------------------------------------------------------------|
G|------------------------------------------------7\6---7\6---7\6-|
D|4/5-------------4/5-------------4/5-------------x-----x-----x---|
A|5/7-------------5/7-------------5/7-------------5\4---5\4---5\4-|
E|----0-000-0-0-0-----0-000-0-0-0-----0-000-0-0-0-----0-----0-----|



Part 5 - Guitar 1 - Distorted Electric

      * * *** * *                     * * *** * *
e|----------------------------------------------------------------|
B|----------------------------------------------------------------|
G|----------------------------------------------------------------|
D|------------------------4---7---------------------------4---7---|
A|4---------------5---5---2---5---4---------------5---5---2---5---|
E|2---2-2-222-2-2-3---3-----------2---2-2-222-2-2-3---3-----------|

      * * *** * *                     * *** *** *** *** *** *** *
e|----------------------------------------------------------------|
B|----------------------------------------------------------------|
G|----------------------------------------------------------------|
D|------------------------4---7-----------------------------------|
A|4---------------5---5---2---5---4-------------------------------|
E|2---2-2-222-2-2-3---3-----------2---2-222-222-222-222-222-222-2-|



Part 6 - Guitar 1 - Distorted Electric

                                                      *     *
e|----------------------------------------------------------------|
B|----------------------------------------------------------------|
G|------------------------------------------------7\6---7\6---7\6-|
D|5~--------------5~--------------5~--------------x-----x-----x---|
A|5~--------------5~--------------5~--------------5\4---5\4---5\4-|
E|----------------------------------------------------0-----0-----|

      *     *
e|------------------------------------------------|
B|------------------------------------------------|
G|9\8---9\8---9\8-7\6-7\6-7\6-7\6-8---8---8---8---|
D|x-----x-----x---7\6-7\6-7\6-7\6-8---8---8---8---|
A|7\6---7\6---7\6-5\4-5\4-5\4-5\4-6---6---6---6---|
E|----0-----0-------------------------------------|



Part 7 - Guitar 1 - Distorted Electric

  * * * * * * * * * * * * * * * *                   + +
e|----------------------------------------------------------------|
B|----------------------------------------------------------------|
G|--5-4-----4-------5-4-----4-------5-4-----4-------5-4-----4-----|
D|2-----3-4---4-3-2-----3-4---4-3-2-----3-4---4-3-2-----3-4---4-3-|
A|----------------------------------------------------------------|
E|----------------------------------------------------------------|



Part 8 - Guitar 1 - Distorted Electric

e|----------------------------------------------------------------|
B|----------------------------------------------------------------|
G|--5-4-----4-------5-4-----4-------5-4-----4-------5-4-----4-----|
D|2-----3-4---4-3-2-----3-4---4-3-2-----3-4---4-3-2-----3-4---4-3-|
A|----------------------------------------------------------------|
E|----------------------------------------------------------------|



Part 9 - Guitar 1 - Distorted Electric

    ******* *     * ******* *     * ******* * * *
e|-----------------------------------------------------------------|
B|-----------------------------------------------------------------|
G|-----------------------------------------------------------------|
D|9-----------9-7-------------7-9-------------------10-9-----9-----|
A|7-----------7-5-------------5-7-----------------7------8-9---9-8-|
E|--0000000-0-----0-0000000-0-----0-0000000-0-0-0------------------|

    ******* *     * ******* *     * ******* * * *
e|-----------------------------------------------------------------|
B|-----------------------------------------------------------------|
G|-----------------------------------------------------------------|
D|9-----------9-7-------------7-9-------------------10-9-----9-----|
A|7-----------7-5-------------5-7-----------------7------8-9---9-8-|
E|--0000000-0-----0-0000000-0-----0-0000000-0-0-0------------------|

    ******* *     * ******* *     * ******* * * *
e|-----------------------------------------------------------------|
B|-----------------------------------------------------------------|
G|-----------------------------------------------------------------|
D|9-----------9-7-------------7-9-------------------10-9-----9-----|
A|7-----------7-5-------------5-7-----------------7------8-9---9-8-|
E|--0000000-0-----0-0000000-0-----0-0000000-0-0-0------------------|

    ******* *     * ******* *     * ******* * * *
e|-----------------------------------------------------------------|
B|-----------------------------------------------------------------|
G|-----------------------------------------------------------------|
D|9-----------9-7-------------7-9-------------------10-9-----9-----|
A|7-----------7-5-------------5-7-----------------7------8-9---9-8-|
E|--0000000-0-----0-0000000-0-----0-0000000-0-0-0------------------|

e|-----------------------------------------------------------------|
B|-----------------------------------------------------------------|
G|--10-9-----9-------10-9-----9-------10-9-----9-----9-------------|
D|7------8-9---9-8-7------8-9---9-8-7------8-9---9-8-7-------------|
A|-----------------------------------------------------------------|
E|-----------------------------------------------------------------|



Lead 1 - Guitar 2 - Distorted Electric

e|12----12----12----------------------------------------------------
B|15b17-15b17-15b17-------11----11----11----------12----12----12----
G|------------------------13b15-13b15-13b15-------14b16-14b16-14b16-
D|------------------------------------------------------------------
A|------------------------------------------------------------------
E|------------------------------------------------------------------

e|----------------------------|
B|----------------------------|
G|----------------------------|
D|----------------------------|
A|------1//////////15-b17-----|
E|----------------------------|

e|0-0-2-0-0-3-0-0-0-5-0-0-0-3-0-0-0-5-0-0-0-7-5-0-0-8-7-0-0-6-5-0-0-
B|------------------------------------------------------------------
G|------------------------------------------------------------------
D|------------------------------------------------------------------
A|------------------------------------------------------------------
E|------------------------------------------------------------------

e|8-7-5-------12-10-8---------13-12-10----------15----|
B|------8-7-5---------12-10-8----------14-13-11-------|
G|----------------------------------------------------|
D|----------------------------------------------------|
A|----------------------------------------------------|
E|----------------------------------------------------|

e|-----------------------------------------------------------------
B|15--------15--------15----------14b-----14b------------------12b-
G|14b16-----14b16-----14b16r14-12-14b-----14b---------14-12----12b-
D|----------------------------------------------------------14-----
A|-----------------------------------------------------------------
E|-----------------------------------------------------------------

e|---------------------------------------------|
B|---------------------------------------------|
G|-------------------------12------------------|
D|----------14----------14-12------------------|
A|-----------------------------------14/-------|
E|---------------------------------------------|

  *  *  *  *  *  *  *  *  *  *  *  *  *  *  *  *
e|------------------------------------------------
B|------------------------------------------------
G|2--4--4--0--5--0--4--0--5--7--7--0--9--0--7--0--
D|------------------------------------------------
A|------------------------------------------------
E|------------------------------------------------

e|----------------------------------------------------|
B|-------------14-15-17-15-14h15-14----14-------------|
G|----12-14/16----------------------16----16-14-16\14p|
D|/14-------------------------------------------------|
A|----------------------------------------------------|
E|----------------------------------------------------|

e|----------------------------------------------------------------
B|----------------------------------------------------------------
G|12---------------11--------------10--------------9--------------
D|--------13---------------12--------------11--------------10-----
A|----------------------------------------------------------------
E|----------------------------------------------------------------

e|---------------------------------------------------------------|
B|---------------------------------------------------------------|
G|-8-------------------------------------------------------------|
D|---------9~----------------------------------------------------|
A|---------------------------------------------------------------|
E|---------------------------------------------------------------|



Part 10 - Guitar 1 - Distorted Electric
(This part is played over Lead 1)

    *** *** *     * *     * *       * * * * * * *
e|-----------------------------------------------------------------|
B|-----------------------------------------------------------------|
G|-----------------------------------------------------------------|
D|9-----------9-7-----------------------------------10-9-----9-----|
A|7-----------7-5-----5/7-----5/7-----------------7------8-9---9-8-|
E|--000-000-0-----0-0-3/5-0-0-3/5-0-0-0-0-0-0-0-0------------------|

    *** *** *     * *     * *       * * * * * * *
e|-----------------------------------------------------------------|
B|-----------------------------------------------------------------|
G|-----------------------------------------------------------------|
D|9-----------9-7-----------------------------------10-9-----9-----|
A|7-----------7-5-----5/7-----5/7-----------------7------8-9---9-8-|
E|--000-000-0-----0-0-3/5-0-0-3/5-0-0-0-0-0-0-0-0------------------|

    *** *** *     * *     * *       * * * * * * *
e|-----------------------------------------------------------------|
B|-----------------------------------------------------------------|
G|-----------------------------------------------------------------|
D|9-----------9-7-----------------------------------10-9-----9-----|
A|7-----------7-5-----5/7-----5/7-----------------7------8-9---9-8-|
E|--000-000-0-----0-0-3/5-0-0-3/5-0-0-0-0-0-0-0-0------------------|

    *** *** *     * *     * *       * * * * * * * * *** *** **
e|----------------------------------------------------------------|
B|----------------------------------------------------------------|
G|----------------------------------------------------------------|
D|9-----------9-7-------------------------------------------------|
A|7-----------7-5-----5/7-----5/7-----------------------------7-5-|
E|--000-000-0-----0-0-3/5-0-0-3/5-0-0-0-0-0-0-0-0-5-555-555-555-3-|

  * *** *** **                    * ***** *       * ***** *
e|----------------------------------------------------------------|
B|----------------------------------------------------------------|
G|----------------------------------------------------------------|
D|----------------------------------------------------------------|
A|------------5-4-------------------------------------------------|
E|3-333-333-333-2-----------------0-00000-0-------0-00000-0-------|

  * ***** *       * ***** *       * ***** *       * ***** *
e|----------------------------------------------------------------|
B|----------------------------------------------------------------|
G|----------------------------------------------------------------|
D|----------------------------------------------------------------|
A|----------------------------------------------------------------|
E|0-00000-0-------0-00000-0-------0-00000-0-------0-00000-0-------|

  * *****         * ****
e|--------------------------------|
B|--------------------------------|
G|--------------------------------|
D|--------------------------------|
A|--------3-------------3-3-------|
E|1-11111-1-------1-11111-1-------|



Part 11 - Guitar 1 - Distorted Electric

e|----------------------------------------------------------------|
B|----------------------------------------------------------------|
G|----------------------------------------------------------------|
D|----------------------------------------------------------------|
A|--2~------2-2-3-3/5-3-2~------2~--2---2-2~----2-2-3-3/5---------|
E|0-------0-------------------0-------0-------0-----------1~------|

e|----------------------------------------------------------------|
B|----------------------------------------------------------------|
G|----------------------------------------------------------------|
D|----------------------------------------------------------------|
A|--2~------2-2-3-3/5-3-2~------2~--2---2-2~----2-2-3-3/5---------|
E|0-------0-------------------0-------0-------0-----------1~------|



Lead 2 - Guitar 2 - Distorted Electric

e|-----------------------------------------------------------------------|
B|-----------------------------------------------------------------------|
G|-----------------------------------------------------------------------|
D|--9~------9-9-10-10/12-10-9~------9~--9---9-9~----9-9-10-10/12---------|
A|7-------7-----------------------7-------7-------7--------------8~------|
E|-----------------------------------------------------------------------|

e|-----------------------------------------------------------------------|
B|-----------------------------------------------------------------------|
G|-----------------------------------------------------------------------|
D|--9~------9-9-10-10/12-10-9~------9~--9---9-9~----9-9-10-10/12---------|
A|7-------7-----------------------7-------7-------7--------------8~------|
E|-----------------------------------------------------------------------|



Part 12 - Guitar 1 - Distorted Electric

    ******* * *     * *     * *     * ******* * *     * *     * *
e|--------------------------------------------------------------------|
B|--------------------------------------------------------------------|
G|--------------------------------------------------------------------|
D|9-------------9-7-------------------------------9-7-----------------|
A|7-------------7-5-----5-7-----5-7---------------7-5-----5-7-----5-7-|
E|0-0000000-0-0-----0-0-3-5-0-0-3-5-0-0000000-0-0-----0-0-3-5-0-0-3-5-|



Part 13 - Guitar 1 - Distorted Electric

e|--------------------------------------------------------------------|
B|--------------------------------------------------------------------|
G|--------------------------------------------------------------------|
D|--10-9-----9-------10-9-----9-------10-9-----9-------10-9-----9-----|
A|7------8-9---9-8-7------8-9---9-8-7------8-9---9-8-7------8-9---9-8-|
E|--------------------------------------------------------------------|

e|------------------------------------------------------------------------|
B|------------------------------------------------------------------------|
G|------------------------------------------------------------------------|
D|---13-12-------12----------13-12-------12-------12----------12----------|
A|10-------11-12----12-11-10-------11-12----12-11----14-13-12----14-13-12-|
E|------------------------------------------------------------------------|

                              * * * * *   * *
e|--------------------------------------------|
B|--------------------------------------------|
G|--------------------------------------------|
D|13-----------13-----------------------------|
A|---15-14-12-----15--------5-4-3-2-3-4-5-4-3-|
E|-------------------15\----3-2-1-0-1-2-3-2-1-|



Part 14 - Guitar 1 - Distorted Electric

  ********************************    *   *   *   *   *       *
e|----------------------------------------------------------------|
B|----------------------------------------------------------------|
G|----------------------------------------------------------------|
D|----------------------------------------------------------------|
A|--------------------------------5---4---3---2---3---4---5---4---|
E|000000000000000000000000000000003---2---1---0---1---2---3---2---|

  ********************************    *   *   *   *   *       *
e|----------------------------------------------------------------|
B|----------------------------------------------------------------|
G|----------------------------------------------------------------|
D|----------------------------------------------------------------|
A|--------------------------------5---4---3---2---3---4---5---4---|
E|000000000000000000000000000000003---2---1---0---1---2---3---2---|

  ********************************    *   *   *   *   *       *
e|----------------------------------------------------------------|
B|----------------------------------------------------------------|
G|----------------------------------------------------------------|
D|----------------------------------------------------------------|
A|--------------------------------5---4---3---2---3---4---5---4---|
E|000000000000000000000000000000003---2---1---0---1---2---3---2---|

  ********************************    *   *   *   *   *   *   *
e|----------------------------------------------------------------|
B|----------------------------------------------------------------|
G|----------------------------------------------------------------|
D|----------------------------------------------------------------|
A|--------------------------------5---4---3---2---3---4---5---4---|
E|000000000000000000000000000000003---2---1---0---1---2---3---2---|

e|------------------------------------------------
B|6--6--6--6--6--6--6--6--6--6--6--6--6--6--6--6--
G|5--5--5--5--5--5--5--5--5--5--5--5--5--5--5--5--
D|3--3--3--3--3--3--3--3--3--3--3--3--3--3--3--3--
A|------------------------------------------------
E|------------------------------------------------

e|------------------------------------------------|
B|6--6--6--6--6--6--6--6--6--6--6--6--6--6--6--6--|
G|5--5--5--5--5--5--5--5--5--5--5--5--5--5--5--5--|
D|3--3--3--3--3--3--3--3--3--3--3--3--3--3--3--3--|
A|------------------------------------------------|
E|------------------------------------------------|

e|------------------------------------------------
B|------------------------------------------------
G|5--5--5--5--5--5--5--5--5--5--5--5--5--5--5--5--
D|3--3--3--3--3--3--3--3--3--3--3--3--3--3--3--3--
A|3--3--3--3--3--3--3--3--3--3--3--3--3--3--3--3--
E|------------------------------------------------

e|------------------------------------------------|
B|------------------------------------------------|
G|5--5--5--5--5--5--5--5--5--5--5--5--5--5--5--5--|
D|3--3--3--3--3--3--3--3--3--3--3--3--3--3--3--3--|
A|3--3--3--3--3--3--3--3--3--3--3--3--3--3--3--3--|
E|------------------------------------------------|

e|------------------------------------------------
B|------------------------------------------------
G|------------------------------------------------
D|------------------------------------------------
A|------------------------------------------------
E|------------------------------------------------

e|------------------------------------------------|
B|4~----------------------------------------------|
G|3~----------------------------------------------|
D|1~----------------------------------------------|
A|1~----------------------------------------------|
E|------------------------------------------------|

e|------------------------------------------------
B|------------------------------------------------
G|------------------------------------------------
D|------------------------------------------------
A|------------------------------------------------
E|------------------------------------------------

e|------------------------------------------------|
B|------------------------------------------------|
G|------------------------------------------------|
D|------------------------------------------------|
A|8\----------------------------------------------|
E|8\----------------------------------------------|




Key:

 b     bend
 /     slide up
 \     slide down
 h     hammer-on
 p     pull-off
 ~     vibrato
 +     pinched harmonic
 *     palm mute
comments
We did not receive enough feedback on this tab! Please rate:
print report bad tab
1 2 3 4 5
3 comments total.
0 reply
sincinho wrote on January 12 2009, 08:08 pm

great tab
just like the The day that never comes one is perfect *****

0 reply
wild52 wrote on October 26 2009, 08:46 pm

5 stars

0 reply
Kirk_Jr. wrote on April 4 2010, 02:31 am

on part 7 how does he do the effect is it just a steady wah increase?

I want to post or [tab]
guest
You may want to rate the tab now too:
select rating
Please do not post tabs as comments. Select "correction" instead!