Oops, an error
Loading. Please wait.

No Life Til Leather Tab

5,012 views 3 this week
6 commentsread comments
1 2 3 4 5
accurate
x 7
add to favorites launch autoscroll
font size
0
reset
Autoscroll
+/-
esc
set tempo
stop
Contributor
Difficulty
advanced
WARNING: You are trying to view
                                    content from Ultimate-Guitar.com
                                    in an unauthorized application,
                                    which is prohibited.

                                    Please use an official Ultimate
                                    Guitar Tabs application for iPhone,
                                    iPad or Android to access legitimate
                                    chords, guitar, bass, and drum tabs
                                    from Ultimate-Guitar.com database.

                                    Type "ultimate guitar tabs" in Apple
                                    App Store's or Android Market's
                                    search to find the application.
NO LIFE TIL LEATHER demo album
Tabbed by wild52
1.Hit The Lights
Legend
------
h = hammer-on
p = pull-off
b = bend
r = bend release
/ = slide up/down
 = natural harmonic
[5] = artifical harmonic
~ = vibrato
tr = trill
Guitar 1
E||------------------|----------------------|------------|------------------|
B||------------------|----------------------|------------|------------------|
G||------------------|----------------------|------------|------------------|
D||--2---------------|--2----2----2----2----|--2----2----|--2---------------|
A||--2---------------|--2----2----2----2----|--2----2----|--2---------------|
E||--0---------------|--0----0----0----0----|--0----0----|--0---------------|
//
|------------------|-----------------|------------------|
|------------------|-----------------|------------------|
|------------------|-----------------|------------------|
|------------------|-----------------|------------------|
|--4---------------|-----------------|--x\--------------|
|--2---------------|-----------------|--x\--------------|
//
|-----------------------------|-------------------------------|
|-----------------------------|-------------------------------|
|-----------------5--7-7---0--|-------------------------------|
|--5--------------5--7-7---0--|--5--------------7p5---5-------|
|--0--0-0-0-0-0-0-------------|--0--0-0-0-0-0-0-----7----6-7--|
|-----------------------------|-------------------------------|

|------------------------------|----------------------------|
|------------------------------|----------------------------|
|-----------------5--7-7--0-0--|--5-------------------7b----|
|--5--------------5--7-7--0-0--|--5-------------------------|
|--0--0-0-0-0-0-0--------------|-----0-0-0-0-0-0-6h7--------|
|------------------------------|----------------------------|

|-----------------------------|-------------------------------|
|-----------------------------|-------------------------------|
|-----------------5--7-7---0--|--5----------------------------|
|--5--------------5--7-7---0--|--5--------------7p5---5-------|
|--0--0-0-0-0-0-0-------------|-----0-0-0-0-0-0-----7----6-7--|
|-----------------------------|-------------------------------|

|------------------------------|----------------------------------|
|------------------------------|----------------------------------|
|-----------------5--7-7--0-0--|----------------------------------|
|--5--------------5--7-7--0-0--|--5-------------------------------|
|--0--0-0-0-0-0-0--------------|--0--0-0-0-0-0--------------------|
|------------------------------|----------------------------------|


|------------------------------|-------------------------------|
|------------------------------|-------------------------------|
|-----------------5--7-7--0-0--|-------------------------------|
|--5--------------5--7-7--0-0--|--5--------------7p5---5-------|
|--0--0-0-0-0-0-0--------------|--0--0-0-0-0-0-0-----7----6-7--|
|------------------------------|-------------------------------|

|------------------------------|-------------------------------|
|------------------------------|-------------------------------|
|-----------------5--7-7--0-0--|--5----------------------------|
|--5--------------5--7-7--0-0--|--5--------------7p5---5-------|
|--0--0-0-0-0-0-0--------------|-----0-0-0-0-0-0-----7----6-7--|
|------------------------------|-------------------------------|
Verses
|----------------------|-----------------------|----------------------------|
|----------------------|-----------------------|----------------------------|
|--7--7----------------|--7--7-----------------|-----------------5--7-7--0-0|
|--7--7------5--5------|--7--7-----------------|--5--------------5--7-7--0-0|
|--5--5------5--5------|--5--5------3---2------|--0--0-0-0-0-0-0------------|
|------------3--3------|--------------------3--|----------------------------|
No life till leather...
|-------------------------------|------------------------------|
|-------------------------------|------------------------------|
|-------------------------------|-----------------5--7-7--0-0--|
|--5--------------7p5---5-------|--5--------------5--7-7--0-0--|
|--0--0-0-0-0-0-0-----7----6-7--|--0--0-0-0-0-0-0--------------|
|-------------------------------|------------------------------|

|-------------------------------|----------------------|---------------------|
|-------------------------------|----------------------|---------------------|
|--5----------------------------|--7--7----------------|--7--7---------------|
|--5--------------7p5---5-------|--7--7------5--5------|--7--7---------------|
|-----0-0-0-0-0-0-----7----6-7--|--5--5------5--5------|--5--5------3---2----|
|-------------------------------|------------3--3------|-------------------3-|

------------------------------|-------------------------------|
------------------------------|-------------------------------|
-----------------5--7-7--0-0--|-------------------------------|
--5--------------5--7-7--0-0--|--5--------------7p5---5-------|
--0--0-0-0-0-0-0--------------|--0--0-0-0-0-0-0-----7----6-7--|
------------------------------|-------------------------------|

|--------------------|--------------------------------|----------------------|
|--------------------|--------------------------------|----------------------|
|--------------------|--------------------------------|----------------------|
|-----9--------------|--------------------------------|--2----2------2---2---|
|-----7--------------|-----------------3----2---------|--0----0------0---0---|
|--0-----------------|--3----2----3--------------3----|------------3---------|

|---------------------|-----------------------|---------------------|
|---------------------|-----------------------|---------------------|
|---------------------|-----------------------|---------------------|
|----2---2----5-------|--2----2------2---2----|----2---2----5-------|
|----0---0----3---5---|--0----0------0---0----|----0---0----3---5---|
|--3--------------3---|------------3----------|--3--------------3---|


|-----------------------|---------------------|-----------------------|
|-----------------------|---------------------|-----------------------|
|-----------------------|---------------------|-----------------------|
|--2----2------2---2----|----2---2----5-------|--2----2------2---2----|
|--0----0------0---0----|----0---0----3---5---|--0----0------0---0----|
|------------3----------|--3--------------3---|------------3----------|

|-----------------|------------------------------|
|-----------------|------------------------------|
|-----------------|-----------------5--7-7--0-0--|
|-----------------|--5--------------5--7-7--0-0--|
|-----------------|--0--0-0-0-0-0-0--------------|
|-----------------|------------------------------|

|-------------------------------|------------------------------|
|-------------------------------|------------------------------|
|-------------------------------|-----------------5--7-7--0-0--|
|--5--------------7p5---5-------|--5--------------5--7-7--0-0--|
|--0--0-0-0-0-0-0-----7----6-7--|--0--0-0-0-0-0-0--------------|
|-------------------------------|------------------------------|

|-------------------------------|----------------------|---------------------|
|-------------------------------|----------------------|---------------------|
|--5----------------------------|--7--7----------------|--7--7---------------|
|--5--------------7p5---5-------|--7--7------5--5------|--7--7---------------|
|-----0-0-0-0-0-0-----7----6-7--|--5--5------5--5------|--5--5------3---2----|
|-------------------------------|------------3--3------|-------------------3-|

|------------------------------|-------------------------------|
|------------------------------|-------------------------------|
|-----------------5--7-7--0-0--|-------------------------------|
|--5--------------5--7-7--0-0--|--5--------------7p5---5-------|
|--0--0-0-0-0-0-0--------------|--0--0-0-0-0-0-0-----7----6-7--|
|------------------------------|-------------------------------|

|------------------------------|-------------------------------|
|------------------------------|-------------------------------|
|-----------------5--7-7--0-0--|--5----------------------------|
|--5--------------5--7-7--0-0--|--5--------------7p5---5-------|
|--0--0-0-0-0-0-0--------------|-----0-0-0-0-0-0-----7----6-7--|
|------------------------------|-------------------------------|

|----------------------|-----------------------|-----------------------------|
|----------------------|-----------------------|-----------------------------|
|--7--7----------------|--7--7-----------------|-----------------5--7-7--0-0-|
|--7--7------5--5------|--7--7-----------------|--5--------------5--7-7--0-0-|
|--5--5------5--5------|--5--5------3---2------|--0--0-0-0-0-0-0-------------|
|------------3--3------|--------------------3--|-----------------------------|

|-------------------------------|--------------------|
|-------------------------------|--------------------|
|-------------------------------|--------------------|
|--5--------------7p5---5-------|-----9--------------|
|--0--0-0-0-0-0-0-----7----6-7--|-----7--------------|
|-------------------------------|--0-----------------|


|--------------------------------|-----------------------|-------------------|
|--------------------------------|-----------------------|-------------------|
|--------------------------------|-----------------------|-------------------|
|--------------------------------|--2----2------2---2----|----2---2----5-----|
|-----------------3----2---------|--0----0------0---0----|----0---0----3---5-|
|--3----2----3--------------3----|------------3----------|--3--------------3-|

|-----------------------|---------------------|-----------------------|
|-----------------------|---------------------|-----------------------|
|-----------------------|---------------------|-----------------------|
|--2----2------2---2----|----2---2----5-------|--2----2------2---2----|
|--0----0------0---0----|----0---0----3---5---|--0----0------0---0----|
|------------3----------|--3--------------3---|------------3----------|

|---------------------|-----------------------|----------------|
|---------------------|-----------------------|----------------|
|---------------------|-----------------------|----------------|
|----2---2----5-------|--2----2------2---2----|----------------|
|----0---0----3---5---|--0----0------0---0----|----------------|
|--3--------------3---|------------3----------|----------------|

|------------------------------|-------------------------------|
|------------------------------|-------------------------------|
|-----------------5--7-7--0-0--|-------------------------------|
|--5--------------5--7-7--0-0--|--5--------------7p5---5-------|
|--0--0-0-0-0-0-0--------------|--0--0-0-0-0-0-0-----7----6-7--|
|------------------------------|-------------------------------|

|------------------------------|-------------------------------|
|------------------------------|-------------------------------|
|-----------------5--7-7--0-0--|--5----------------------------|
|--5--------------5--7-7--0-0--|--5--------------7p5---5-------|
|--0--0-0-0-0-0-0--------------|-----0-0-0-0-0-0-----7----6-7--|
|------------------------------|-------------------------------|


|----------------------|-----------------------|-----------------------------|
|----------------------|-----------------------|-----------------------------|
|--7--7----------------|--7--7-----------------|-----------------5--7-7--0-0-|
|--7--7------5--5------|--7--7-----------------|--5--------------5--7-7--0-0-|
|--5--5------5--5------|--5--5------3---2------|--0--0-0-0-0-0-0-------------|
|------------3--3------|--------------------3--|-----------------------------|

|-------------------------------|------------------------------|
|-------------------------------|------------------------------|
|-------------------------------|-----------------5--7-7--0-0--|
|--5--------------7p5---5-------|--5--------------5--7-7--0-0--|
|--0--0-0-0-0-0-0-----7----6-7--|--0--0-0-0-0-0-0--------------|
|-------------------------------|------------------------------|

|-------------------------------|----------------------|---------------------|
|-------------------------------|----------------------|---------------------|
|--5----------------------------|--7--7----------------|--7--7---------------|
|--5--------------7p5---5-------|--7--7------5--5------|--7--7---------------|
|-----0-0-0-0-0-0-----7----6-7--|--5--5------5--5------|--5--5------3---2----|
|-------------------------------|------------3--3------|-------------------3-|

|------------------------------|-------------------------------|
|------------------------------|-------------------------------|
|-----------------5--7-7--0-0--|-------------------------------|
|--5--------------5--7-7--0-0--|--5--------------7p5---5-------|
|--0--0-0-0-0-0-0--------------|--0--0-0-0-0-0-0-----7----6-7--|
|------------------------------|-------------------------------|


|--------------------|--------------------------------|----------------------|
|--------------------|--------------------------------|----------------------|
|--------------------|--------------------------------|----------------------|
|-----9--------------|--------------------------------|--2----2------2---2---|
|-----7--------------|-----------------3----2---------|--0----0------0---0---|
|--0-----------------|--3----2----3--------------3----|------------3---------|


|---------------------|-----------------------|---------------------|
|---------------------|-----------------------|---------------------|
|---------------------|-----------------------|---------------------|
|----2---2----5-------|--2----2------2---2----|----2---2----5-------|
|----0---0----3---5---|--0----0------0---0----|----0---0----3---5---|
|--3--------------3---|------------3----------|--3--------------3---|


|-----------------------|---------------------|-----------------------|
|-----------------------|---------------------|-----------------------|
|-----------------------|---------------------|-----------------------|
|--2----2------2---2----|----2---2----5-------|--2----2------2---2----|
|--0----0------0---0----|----0---0----3---5---|--0----0------0---0----|
|------------3----------|--3--------------3---|------------3----------|


|---------------------|--------------------||------------------------|
|---------------------|--------------------||------------------------|
|---------------------|-----------4--------||*------------------5----|
|----2---2----5-------|--2--------5--------||*--7---7---7---7---5----|
|----0---0----3---5---|--0--------5--------||---0---0---0---0--------|
|--3--------------3---|-----------3--------||------------------------|

3x
|-----------------------|-----------------------|-----------------------||
|-----------------------|-----------------------|-----------------------||
|------------------7----|------------------5----|----------------------*||
|--7---7---7---7---7----|--7---7---7---7---5----|--7---5---------------*||
|--0---0---0---0--------|--0---0---0---0--------|----------7--6--5------||
|-----------------------|-----------------------|-------------------8---||


|-----------------------|-----------------------|-----------------------|
|-----------------------|-----------------------|-----------------------|
|--4---4---4---4---7----|--4---4---4---4---9----|--4---4---4---4---7----|
|--4---4---4---4---7----|--4---4---4---4---9----|--4---4---4---4---7----|
|--2---2---2---2---5----|--2---2---2---2---7----|--2---2---2---2---5----|
|-----------------------|-----------------------|-----------------------|


|-----------------------|-----------------------|-----------------------|
|-----------------------|-----------------------|-----------------------|
|-----------------------|--4---4---4---4---7----|--4---4---4---4---9----|
|--9---7----------------|--4---4---4---4---7----|--4---4---4---4---9----|
|----------9--8--7------|--2---2---2---2---5----|--2---2---2---2---7----|
|-------------------10--|-----------------------|-----------------------|


|-----------------------|-----------------------|-----------------------|
|-----------------------|-----------------------|-----------------------|
|--4---4---4---4---7----|-----------------------|--4---4---4---4---7----|
|--4---4---4---4---7----|--9---7----------------|--4---4---4---4---7----|
|--2---2---2---2---5----|----------9--8--7------|--2---2---2---2---5----|
|-----------------------|-------------------10--|-----------------------|


|-----------------------|-----------------------|-----------------------|
|-----------------------|-----------------------|-----------------------|
|--4---4---4---4---9----|--4---4---4---4---7----|-----------------------|
|--4---4---4---4---9----|--4---4---4---4---7----|--9---7----------------|
|--2---2---2---2---7----|--2---2---2---2---5----|----------9--8--7------|
|-----------------------|-----------------------|-------------------10--|

|-----------------------|-----------------------|-----------------------|
|-----------------------|-----------------------|-----------------------|
|--4---4---4---4---7----|--4---4---4---4---9----|--4---4---4---4---7----|
|--4---4---4---4---7----|--4---4---4---4---9----|--4---4---4---4---7----|
|--2---2---2---2---5----|--2---2---2---2---7----|--2---2---2---2---5----|
|-----------------------|-----------------------|-----------------------|

|-----------------------|-----------------------|-----------------------|
|-----------------------|-----------------------|-----------------------|
|-----------------------|--4---4---4---4---7----|--4---4---4---4---9----|
|--9---7----------------|--4---4---4---4---7----|--4---4---4---4---9----|
|----------9--8--7------|--2---2---2---2---5----|--2---2---2---2---7----|
|-------------------10--|-----------------------|-----------------------|

|-----------------------|-----------------------|-----------------------|
|-----------------------|-----------------------|-----------------------|
|--4---4---4---4---7----|-----------------------|--4---4---4---4---7----|
|--4---4---4---4---7----|--9---7----------------|--4---4---4---4---7----|
|--2---2---2---2---5----|----------9--8--7------|--2---2---2---2---5----|
|-----------------------|-------------------10--|-----------------------|

|-----------------------|-----------------------|-----------------------|
|-----------------------|-----------------------|-----------------------|
|--4---4---4---4---9----|--4---4---4---4---7----|-----------------------|
|--4---4---4---4---9----|--4---4---4---4---7----|--9---7----------------|
|--2---2---2---2---7----|--2---2---2---2---5----|----------9--8--7------|
|-----------------------|-----------------------|-------------------10--|

|-----------------------|-----------------------|-----------------------|
|-----------------------|-----------------------|-----------------------|
|--4---4---4---4---7----|--4---4---4---4---9----|--4---4---4---4---7----|
|--4---4---4---4---7----|--4---4---4---4---9----|--4---4---4---4---7----|
|--2---2---2---2---5----|--2---2---2---2---7----|--2---2---2---2---5----|
|-----------------------|-----------------------|-----------------------|

|-----------------------|-----------------------|-----------------------|
|-----------------------|-----------------------|-----------------------|
|-----------------------|--4---4---4---4---7----|--4---4---4---4---9----|
|--9---7----------------|--4---4---4---4---7----|--4---4---4---4---9----|
|----------9--8--7------|--2---2---2---2---5----|--2---2---2---2---7----|
|-------------------10--|-----------------------|-----------------------|

|-----------------------|-----------------------|-----------------------|
|-----------------------|-----------------------|-----------------------|
|--4---4---4---4---7----|-----------------------|------------------5----|
|--4---4---4---4---7----|--9---7----------------|--7---7---7---7---5----|
|--2---2---2---2---5----|----------9--8--7------|--7---7---7---7---3----|
|-----------------------|-------------------10--|--5---5---5---5--------|


|-----------------------|-----------------------|----------------------|
|-----------------------|-----------------------|----------------------|
|------------------7----|------------------5----|----------------------|
|--7---7---7---7---7----|--7---7---7---7---5----|--7---5---------------|
|--7---7---7---7---5----|--7---7---7---7---3----|----------7--6--5-----|
|--5---5---5---5--------|--5---5---5---5--------|-------------------8--|

|-----------------------|-----------------------|-----------------------|
|-----------------------|-----------------------|-----------------------|
|------------------5----|------------------7----|------------------5----|
|--7---7---7---7---5----|--7---7---7---7---7----|--7---7---7---7---5----|
|--7---7---7---7---3----|--7---7---7---7---5----|--7---7---7---7---3----|
|--5---5---5---5--------|--5---5---5---5--------|--5---5---5---5--------|

|----------------------|----------------------|----------------------|
|----------------------|----------------------|----------------------|
|----------------------|----------------------|----------------------|
|--7---5---------------|--7---5---------------|--7---5---------------|
|----------7--6--5-----|----------7--6--5-----|----------7--6--5-----|
|-------------------8--|-------------------8--|-------------------8--|

|------------------------------------------------------------------|
|------------------------------------------------------------------|
|--2-2-2-2-2-2-2-2-2-2-2-2-2-2-2-2-2-2-2-2-2-2-2-2-2-2-2-2-2-2-2-2-|
|--2-2-2-2-2-2-2-2-2-2-2-2-2-2-2-2-2-2-2-2-2-2-2-2-2-2-2-2-2-2-2-2-|
|--0-0-0-0-0-0-0-0-0-0-0-0-0-0-0-0-0-0-0-0-0-0-0-0-0-0-0-0-0-0-0-0-|
|------------------------------------------------------------------|

|------------------------------------------------------------------|
|------------------------------------------------------------------|
|--2-2-2-2-2-2-2-2-2-2-2-2-2-2-2-2-2-2-2-2-2-2-2-2-2-2-2-2-2-2-2-2-|
|--2-2-2-2-2-2-2-2-2-2-2-2-2-2-2-2-2-2-2-2-2-2-2-2-2-2-2-2-2-2-2-2-|
|--0-0-0-0-0-0-0-0-0-0-0-0-0-0-0-0-0-0-0-0-0-0-0-0-0-0-0-0-0-0-0-0-|
|------------------------------------------------------------------|

|-----------------|----------------|-------------------||
|-----------------|----------------|-------------------||
|--2--------------|----------------|--2----2-----------||
|--2--------------|----------------|--2----2-----------||
|--0--------------|----------------|--0----0-----------||
|-----------------|----------------|-------------------||
Guitar 2:
First little solo:
|-----17----------------------17-------20p17-------|
|--------20p17----17-20p17-------20p17-------20-17-|
|--19b---------19b---------19b---------------------|
|--------------------------------------------------|
|--------------------------------------------------|
|--------------------------------------------------|


|--------------20p17-------------------------------|
|-----17-20p17-------20-17\16-17-20p17-------------|
|--19b---------------------------------19-17----17-|
|--------------------------------------------19----|
|--------------------------------------------------|
|--------------------------------------------------|


|--------------------------------------20b---|
|-----17-20p17----17-20p17----17-20p17-------|
|--19b---------19b---------19b---------------|
|--------------------------------------------|
|--------------------------------------------|
|--------------------------------------------|


|--20p17-17-17-20p17-------------------------|----------------|
|--------------------20-17----17-20p17-------|----------------|
|--------------------------19b---------19b---|----------------|
|--------------------------------------------|----------------|
|--------------------------------------------|----------------|
|--------------------------------------------|----------------|


Second little solo:

|------17-----17-----17------17------17--|
|--20b----20b----20b-----20b-----20b-----|
|----------------------------------------|
|----------------------------------------|
|----------------------------------------|
|----------------------------------------|


|-----17-----17------17------17-----17----17-|
|--------20b-----20b-----20b-----------20b---|
|--19b--------------------------19b----------|
|--------------------------------------------|
|--------------------------------------------|
|--------------------------------------------|

|--20p17----17-20p17-------------------------------|
|--------20----------20-17-17-17-20p17-19----------|
|--------------------------------------19-17----17-|
|--------------------------------------------19----|
|--------------------------------------------------|
|--------------------------------------------------|


|----------------------------------------|----------------|----------------|
|----------------------------------------|----------------|----------------|
|--19b17---------------------------------|----------------|----------------|
|--------19-17----17-19-17---------------|----------------|----------------|
|--------------19----------19--17--15----|----------------|----------------|
|----------------------------------------|----------------|----------------|
Main solo (w/ wah pedal)
|-----7--------7------------------------|----------------------------------------|
|------10p7------10p7---7-10p7---7-10p7-|----7-10p7---7-10p7---7-10p7---7-10p7---|
|--9b-------9b--------9b-------9b-------|--9b-------9b-------9b-------9b---------|
|---------------------------------------|----------------------------------------|
|---------------------------------------|----------------------------------------|
|---------------------------------------|----------------------------------------|
|--10p7-9p7---7-9p7-10p7-9p7---7-10p7-|-----------------7--7--7------------------|
|-----------9----------------9--------|--10b12----r10----------------------------|
|-------------------------------------|------------------------------------------|
|-------------------------------------|------------------------------------------|
|-------------------------------------|------------------------------------------|
|-------------------------------------|------------------------------------------|

|--7-10p7----7-10p7-----------------------|-------------------------------|
|---------10--------10-7-7-7-10-7---------|-------------------------------|
|---------------------------------9-7-7-7-|--9p7--------------------------|
|-----------------------------------------|------9-7---7-9-7--------------|
|-----------------------------------------|----------9-------9-7-5--5-----|
|-----------------------------------------|----------------------------7--|

|---------------------------------|------------------------|
|---------------------------------|--------------------19--|
|-----------------------------7---|--9b--9b--9b-9b-21b-----|
|-------------7-7-9p7-7-7-7-9---9-|------------------------|
|------5--7/9---------------------|------------------------|
|--5h7----------------------------|------------------------|

|----------------------------------------------|
|-------19----19----19-22-19----19-22p19-24p19-|
|---21b----21b---21b---------21----------------|
|----------------------------------------------|
|----------------------------------------------|
|----------------------------------------------|

|--------------------------------------------------|
|--22-19----19-22p19-24p19-22-19----19-22p19-24p19-|
|--------21----------------------21----------------|
|--------------------------------------------------|
|--------------------------------------------------|
|--------------------------------------------------|


|--------------------------------------------------|
|--22-19----19-22p19-------------17----------------|
|--------21----------21-18\16-18----18-16-14-14-14-|
|--------------------------------------------------|
|--------------------------------------------------|
|--------------------------------------------------|


|------------------------------|--22r-------22b---21r-19----19-|
|--17---17---17--17~-17--17-14-|-------------------------22----|
|--16b--16b--16b-16b-16b-16-14-|-------------------------------|
|------------------------------|-------------------------------|
|------------------------------|-------------------------------|
|------------------------------|-------------------------------|


|--22p19-------------------------------------------|
|--------22-19----19-22p19-------------------------|
|--------------21b---------21-19----19-21p19-------|
|--------------------------------21----------21-19-|
|--------------------------------------------------|
|--------------------------------------------------|


|--------------------------------------------------|
|--------------------------------------------------|
|--------------------------------------------------|
|-----19-21p19-----------------------------19--21--|
|--21----------21-19-17-17-19-17-16-17/21----------|
|--------------------------------------------------|


|------------------19---14p12-|
|-----------------------------|
|--21b--21b--21b--------------|
|-----------------------------|
|-----------------------------|
|-----------------------------|


|--17p14--17p14p12-17p14p12-17p14p12-17p14p12-17p14p12-17p14p12--------|
|---------------------------------------------------------------17p14--|
|----------------------------------------------------------------------|
|----------------------------------------------------------------------|
|----------------------------------------------------------------------|
|----------------------------------------------------------------------|


|--17p14-14-----17p14p12------17p14p12----0-17p14p12----0-|
|-----------x-0----------17-0----------17------------17---|
|---------------------------------------------------------|
|---------------------------------------------------------|
|---------------------------------------------------------|
|---------------------------------------------------------|


|--17p14p12----0-17p14p12----0-17p14-----14-17p14-------|
|-----------17------------17----------17----------17-14-|
|-------------------------------------------------------|
|-------------------------------------------------------|
|-------------------------------------------------------|
|-------------------------------------------------------|


|----------------------------|-----------------------|
|-----14-17--17b-17b-17r-----|----9b-----------------|
|--16b-----------------------|----9b-----7-------7-9b|
|----------------------------|-------------9---------|
|----------------------------|-----------------------|
|----------------------------|-----------------------|


|-----------------------------------|
|---7-10-7---7-10-7-----------------|
|----------9--------9-7-9-7---7~-9\-|
|---------------------------9-------|
|-----------------------------------|
|-----------------------------------|


|--------14-------17p14-------------------------------|
|--12/14----17p14-------17-14----14-17p14-------------|
|-----------------------------16b---------16-14-14-14-|
|-----------------------------------------------------|
|-----------------------------------------------------|
|-----------------------------------------------------|


|--------------------------|--22r-------22b---21r-19-19-19-|
|--------------------------|-------------------------------|
|--16b--16b--16b---16r-14--|-------------------------------|
|--------------------------|-------------------------------|
|--------------------------|-------------------------------|
|--------------------------|-------------------------------|


|--22p19-------------------------------------------|
|--------22-19----19-22p19-------------------------|
|--------------21b---------21-19-19-19-21p19-------|
|--------------------------------------------21-19-|
|--------------------------------------------------|
|--------------------------------------------------|


|--------------------------------------------------|
|--------------------------------------------------|
|--------------------------------------------------|
|-----19-21p19-------------------------------19-21-|
|--21----------21-19-17-17-19-17-16-17-19/21-------|
|--------------------------------------------------|


|--------------------------------------------|
|--------------------------------------------|
|--19-19-21p19-19-19-21p19-21-19----19/20----|
|--------------------------------21-18/19-21-|
|--------------------------------------------|
|--------------------------------------------|


|--------------------------------------------------|
|--15-15-12----13-16-13-14-17p14----15-18p15----16-|
|-----------13-------------------15----------16----|
|--------------------------------------------------|
|--------------------------------------------------|
|--------------------------------------------------|


|---------------------------------------------13-|
|--19p16----17-20p17----18-21p18----18-21~-15----|
|--------17----------18----------18--------------|
|------------------------------------------------|
|------------------------------------------------|
|------------------------------------------------|


|--17p14----15-19p16----16-20p17----18-21p18----19-|--22b--22b--22r-------|
|--------16----------18----------20----------20----|----------------------|
|--------------------------------------------------|----------------------|
|--------------------------------------------------|----------------------|
|--------------------------------------------------|----------------------|
|--------------------------------------------------|----------------------|


|--------------------------------------------------|
|---17-17-20p17-19p17-x-17-22p17-20p17----17\16-17-|
|--------------------------------------20----------|
|--------------------------------------------------|
|--------------------------------------------------|
|--------------------------------------------------|


|--------------------------------------------------|
|--22p17-20p17-19p17----17-22p17-20p17-19p17-17-17-|
|--------------------20----------------------------|
|--------------------------------------------------|
|--------------------------------------------------|
|--------------------------------------------------|


|--------------------------------------------------|--22b-------22b-----|
|--22p17-20p17-19p17----17-22p17-20p17-19p17-17-17-|--------------------|
|--------------------20----------------------------|--------------------|
|--------------------------------------------------|--------------------|
|--------------------------------------------------|--------------------|
|--------------------------------------------------|--------------------|


|--20p17-17-17-20p17-------------------------------|
|--------------------20-17-17-17-20p17-------------|
|--------------------------------------19-17----19-|
|--------------------------------------------19----|
|--------------------------------------------------|
|--------------------------------------------------|


|---------------------------------------------------|
|---------------------------------------------------|
|--17-17-17h19p17-----------------------------------|
|-----------------19-17----17-19p17-----------------|
|-----------------------19----------19-17-15--------|
|--------------------------------------------17-17b-|


|------------------------------------------------|
|---------------------------------------------17-|
|---------------------------------------17-19----|
|------------------17-17-19p17----17-19----------|
|--------15-17/19--------------19----------------|
|--15-17-----------------------------------------|


|-----------------------20p17----------------------------|
|--20-17\16-20p17-20p17-------20-17-17-17-17-20-17\16-17-|
|--------------------------------------------------------|
|--------------------------------------------------------|
|--------------------------------------------------------|
|--------------------------------------------------------|


|--------------------------------------------------|
|--20p17----------------------------------17-20p17-|
|--------19b17-17-17-19-17----17-19-17-19b---------|
|--------------------------19----------------------|
|--------------------------------------------------|
|--------------------------------------------------|


|--20p17----------------------------------------------|
|--------20-17-17-17-20p17-17-------------------------|
|-----------------------------19-17-17-17-19p17-17-17-|
|-----------------------------------------------------|
|-----------------------------------------------------|
|-----------------------------------------------------|


|--------------------------|--------------------------|------------------|
|--20----20----20----20----|--20----20----------------|--20--------------|
|--19b---19b---19b---19b---|--19b---19b---19b---19b---|--19b-------------|
|--------------------------|--------------------------|------------------|
|--------------------------|--------------------------|------------------|
|--------------------------|--------------------------|------------------|


|----------------|---------------------------------------------|
|----------------|--20----20-----------------------------------|
|----------------|--19b---19b----------------------------------|
|----------------|---------------------------------------------|
|----------------|---------------------------------------------|
|--------------------------------------------------------------|

2. the mechanix
Intro   
---------------------|---------------------
---------------------|---------------------
---------------------|---------------------
---5---------7----5--|---------------------
---3----5----5----3--|-7p5-7p5-7p5-7p5-7p5-
--------3------------|-0-0-0-0-0-0-0-0-0-0-

-------------------------
-------------------------
-------------------------
-------------------------
-7p5-7p5-5-5-7p5-7p5-7p5-
-0-0-0-0-7---0-0-0-0-0-0-

|----------------|---------------------------------
|----------------|---------------------------------
|----------------|---------------------------------
|-------7P5------|---------------------------------
|---5h7-----7P5--|-7p5-7p5-7p5-5-5-7p5-7p5-7p5-5-5-
|-7--------------|-0-0-0-0-0-0-7---0-0-0-0-0-0-7---

|------------------------|
|------------------------|
|------------------------|
|--5---------7----5------|
|--3----5----5----3------|
|-------3----------------|
Chorus.
|-----------------------------|---------------------------|
|-----------------------------|---------------------------|
|-----------------------------|---------------------------|
|------9------9-----9---7--7--|------9-----9-----9---5--7-|
|------7------7-----7---5--5--|------7-----7-----7---3--5-|
|--000---000----000-----------|--000---000---000----------|

|---------------------------|---------------------|
|---------------------------|---------------------|
|---------------------------|---------------------|
|------9-----9-----9---12-9-|--5---------7----5---|
|------7-----9-----7---10-7-|--3----5----5----3---|
|--000---000---000----------|-------3-------------| 


|-----------------------------|---------------------------|
|-----------------------------|---------------------------|
|-----------------------------|---------------------------|
|-------------9++++++++++-----|--------9-----7+++++++++---|
|-------------7++++++++++-----|--------7-----5+++++++++---|
|-----------------------------|---------------------------|

|------------------------------|-----------------------------|
|------------------------------|-----------------------------|
|------------------------------|-----------------------------|
|--------7------5++++++++++++--|--------5------3++++---------|
|--------5------3++++++++++++--|--------3------1++++---------|
|------------------------------|-----------------------X////-|

|-----------------------------|------------------------------|
|-----------------------------|------------------------------|
|-----------------------------|------------------------------|
|-------------9++++++++-------|-------9------7++++++++-------|
|-------------7++++++++-------|-------7------5++++++++-------|
|-----------------------------|------------------------------|

|------------------------------|------------------------------|
|------------------------------|------------------------------|
|------------------------------|------------------------------|
|--------7------5+++++++-------|-----5-----7--5---------------|
|--------5------3+++++++-------|-----3--5--5--3---------------|
|------------------------------|--------3---------------------| 
Bridge, alternative picking. 1/2
|---------------------------------|
|---------------------------------|
|---------------------------------|
|---------------------------------|
|---------------------------------|
|---0-0-0-0-0-0-0-0-0-0-----------|

|-------------------------------------------|
|-------------------------------------------|
|-------------------------------------------|
|--------------------------------10/9-------|
|--------------------------------8/7--------|
|--0-0-0-0-0-0-0-0-0-0-0-0-0-0-0------------|

|-------------------------------------------|
|-------------------------------------------|
|-------------------------------------------|
|--------------------------------10/9-------|
|---------------------------------8/7-------|
|--0-0-0-0-0-0-0-0-0-0-0-0-0-0-0------------|

|---------------------------------------------|
|---------------------------------------------|
|---------------------------------------------|
|--------------------------------10-----------|
|---------------------------------8-----------|
|--0-0-0-0-0-0-0-0-0-0-0-0-0-0-0--------------|
2/2
|---------------------------|
|---------------------------|
|---------------------------|
|---------------------------|
|---7-5---5-----------------|
|-------7---7-6-5-3-5-0-3-5-|

3.Motorbreath

Drum Intro

P.M.          =======================================================
E--------------------------------------------------------------------|
B--------------------------------------------------------------------|
G--------------------------------------------------------------------|
D--------------------------------------------------------------------|
A--7---8---9---------------------------------------------------------|
E--5---6---7--7-7-7--7-7-7--7-7-7-7-7-7-3--3-3-3--3-3-3--3-3-3-3-3-3-|

=============================================================
E-------------------------------------------------------------|
B-------------------------------------------------------------|
G-------------------------------------------------------------|Repeat
D-------------------------------------------------------------|
A-------------------------------------------------------------|
E--5--5-5-5--5-5-5--5-5-5-5-5-5-2--2-2-2--2-2-2--2-2-2-2-2-2--|

Verse Riff

P.M.                     =======================================
E---------------------------------------------------------------|
B---------------------------------------------------------------|
G---------------------------------------------------------------|
D---------------------------------------------------------------|
A--9--9----7--9--9----7--5--5----4--5--5----4--7--7----5--7--7--|
E--7--7----5--7--7----5--3--3----2--3--3----2--5--5----3--5--5--|
=======================
E----------------------|
B----------------------|
G----------------------|Repeat as nessecary
D----------------------|then right before the chorus
A--5--4--4-------4--4--|play this....
E--3--2--2----0--2--2--|

E------------|
B------------|
G------------|4 times
D------------|
A--9--9----7-|
E--7--7----5-|

Chorus
P.M.                        =====
E----------------------------------------------------------------|
B----------------------------------------------------------------|
G----------------------------------------------------------------|Repeat
D------------------7--7---4--------------------------------------|
A--9--9----5--5----5--5---2-4-4-4----5--5----2--2----4-4-4---4---|
E--7--7----3--3-------------2-2-2----3--3----0--0----2-2-2-0-2---|

Ryhthm break
P.M.   =     =     =     =
E--------------------------------|
B--------------------------------|
G--------------------------------|play 2 times
D--4p2---4p2---4p2---4p2---4---2-|
A------2-----2-----2-----2-------|
E--------------------------------|

then play this 1 time
P.M    =     =     =     =
E---------------------------------|
B---------------------------------|
G---------------------------------|
D--4p2---4p2---4p2---4p2---4---2--|
A------0-----0-----0-----0--------|
E---------------------------------|
then play this 1 time
P.M.   =     =     =     =
E--------------------------------|
B--------------------------------|
G--------------------------------|then repeat the whole rhythm break
D--4p2---4p2---4p2---4p2---4---2-|
A------2-----2-----2-----2-------|
E--------------------------------|

Play the verse and the chorus and the rhythm break once more
then

E--------------------|
B--------------------|
G--------------------|
D--4----------4---5--|
A--2----------2---3--|
E--------------------|

Solo backing ryhthm (James)
P.M.  ===========     =              ===========
E-----------------------------------------------------------|
B-----------------------------------------------------------|
G-----------------------------------------------------------|
D--6--------------6p4---6----6p4-4h6-------------6p4--------|
A--4--4-4-4-4-4-4-4---4-4----4---4---4-4-4-4-4-4-4---6---6--|
E----------------------------------------------------4---4--|
      ===========     =              ===========
E----------------------------------------------------------------------|
B----------------------------------------------------------------------|
G----------------------------------------------------------------------|
D--6--------------6p4---6----6p4-4h6------------------------6-----6--5-|
A--4--4-4-4-4-4-4-4---4-4----4---4---4-4-4-4-4-4-6---6---6--4-----4--3-|
E------------------------------------------------4---4---4-------------|

1st Guitar solo (Kirk)
  w/wah wah
E-----------------|
B--12---------9-9-|
G--11-------------|
D-----------------|
A-----------------|
E-----------------|

E-------------|
B--12p9----9--|
G-------11----|4 times
D-------------|
A-------------|
E-------------|

E-----9-------|
B--12b--12p9--|
G-------------|4 times
D-------------|
A-------------|
E-------------|

E----------------------------------------|
B-----9-12p9-----------------------------|
G--11b-------11-9----9-11p9--------------|
D-----------------11--------11-9---------|
A--------------------------------11-9\---|
E----------------------------------------|

E---------------------------------------|
B---------------------------------------|
G---------------------------------9-11--|
D----------------9-9-11p9----9-11-------|
A-------7-9-9/11----------11------------|
E--/9-----------------------------------|

E-------------------------------------------|
B---------------------------------------16--|
G--11p9----9-11p9----9-11p9----9-9\/18b(20)-|
D-------11--------11--------11--------------|
A-------------------------------------------|
E-------------------------------------------|

E------16-----16-----16-19p16---------------------------------------|
B--19b----19b----19b----------19-16-16-16-19p16----16-19p16-19b(21)-|
G-----------------------------------------------18------------------|
D-------------------------------------------------------------------|
A-------------------------------------------------------------------|
E-------------------------------------------------------------------|
Play verse and chorus riffs as nessecary then..
Guitar solo 2
E--12p9-------|
B-------12p9--|
G-------------|
D-------------| 8 times
A-------------|
E-------------|

E--12p9-12p9-11-8-8-10-7-7-9-6-6-8-5-5-7-4-4-4-4-4--|
B---------------------------------------------------|
G---------------------------------------------------|
D---------------------------------------------------|
A---------------------------------------------------|
E---------------------------------------------------|

E--4---4-7p4-----------------------------------------|
B----7-------7-4-7-4------------4---4---4---6--4-----|
G--------------------6-4b---4---4---4---4---6--4---4-|
D------------------------/6---6---6---6---6------6---|
A----------------------------------------------------|
E----------------------------------------------------|

E------------------------------------|
B-----4-7p4--------------------------|
G--6b-------4h6p4---4-6-4------------|
D-----------------6-------6-4--------|
A-----------------------------6---4--|
E------------------------------------|

E--------------------------------------------------------------|
B--------------------------------------------------------------|
G----------------------------4-6-6b--4-6p4---4-6p4---4\/9---11-|
D--------------4-4-6p4---4-6-------6-------6-------6-----------|
A------2-4/6-----------6---------------------------------------|
E--/4----------------------------------------------------------|

E------9-9------------9------------------9----------------9----------------|
B----------12b---9-9----12b--12bvvv----9---12b-----9-9------12b--12bvv-12b-|
G--11b------------------------------11b----------------11b-----------------|
D--------------------------------------------------------------------------|
A--------------------------------------------------------------------------|
E--------------------------------------------------------------------------|

E----------------9h12p9---------------------------------------------------|
B--12p9-9-9-12p9--------12p9----9-12p9------------------------------------|
G----------------------------12--------11-9-9-9-11p9----------------------|
D----------------------------------------------------11-9-9-9-11-9--------|
A------------------------------------------------------------------11-9b--|
E-------------------------------------------------------------------------|

E-----16-16---16-16---16-16--16-19p16----16-19p16-21p16---|
B--19----19b-----19b-----19b----------19------------------|
G---------------------------------------------------------|
D---------------------------------------------------------|
A---------------------------------------------------------|
E---------------------------------------------------------|

E--19p16----16-19p16-21p16-19p16----16-19p16-------|
B--------19----------------------19----------19-16-|
G--------------------------------------------------|
D--------------------------------------------------|
A--------------------------------------------------|
E--------------------------------------------------|

E------------16h19p16----------------19p16---------------19p16--16-19b-19b-19b-|
B----16-19p16--------19-16---16-19p16-----19-16--16-19p16-----19---------------|
G--18b--------------------18b------------------18b-----------------------------|
D------------------------------------------------------------------------------|
A------------------------------------------------------------------------------|
E------------------------------------------------------------------------------|
Very Ending Riff
E--------------------------------|
B--------------------------------|
G--------------------------------|
D-----------4--4--4-----------6--|
A--6--6--6--2--2--2--4--4--4--4--|
E--4--4--4-----------2--2--2-----|
4. Seek and destroy
 P.M.---|  h     P.M.  h           P.M.-------------------|   P.M.
|---------------------------|-----------------------------|
|---------------------------|-----------------------------|o
|--------7^8--7-------------|---------------------5-------|
|--------------------7^8--7-|-(7)-----------5--------7----|
|-0---0-----------0---------|------0--8--7-----7----------|o
|---------------------------|-----------------------------|
Riff B                 sl.
|-------------------------||
|-9--7-----7--------------||
|-------9-----9--8--7-\-5-||
|-------------------------||
|-------------------------||
|-------------------------||
(Gtr. II out)
Gtr. I  Rhy. Fig. 1

P.M.--------|            P.M.------------------------|
|------------------------|---------------------------|
|------------------------|---------------------------|o
|------------------------|---------------------------|
|-------------5--7--5--7-|---------------------------|
|-------------5--7--5--7-|-------------7--5----------|o
|-0--0--0--0-------------|-0--0--0--0--------7--6----|
Double w/Gtr. II         Gtrs. I&II

P.M.--------|            P.M.-----------------------|
|------------------------|--------------------------|
|------------------------|--------------------------|
|------------------------|--------------------------|
|-------------5--7--5--7-|--------------------------|
|-------------5--7--5--7-|-------------7--5---------|
|-0--0--0--0-------------|-0--0--0--0--------7--6---|
Riff C
Play 4 times
P.M.-------------------------------------------------|
|------------------------|---------------------------|
|------------------------|---------------------------|o
|------------------------|---------------------------|
|------------------------|-------------------5-------|
|------------------------|----------------------7----|o
|-0--0--0--0--0--0--0--0-|-0--0--0--0--7--6----------|
1st, 2nd, 3rd Verses
w/Riff C (4 times)
Pre-Chorus
Rhy. Fig. 2
    P.M.----|             P.M.----------------|
|---------------------|-----------------------|
|---------------------|-----------------------|
|-5-----------5--7--5-|-5-----------5--7--5---|
|-5-----------5--7--5-|-5-----------5--7--5---|
|-3--0--0--0--3--5--3-|-3--0--0--0--3--5--3---|
|---------------------|-----------------------|
    P.M.----|
|---------------------||
|---------------------||o
|-5-----------5--7--5-||
|-5-----------5--7--5-||
|----0--0--0----------||o
|---------------------||
Fill 1
|------------------------||
|------------------------||
|-7--5-------------------||
|-------7--6--5----------|| Play Riff B (2 times)
|----------------7--6--5-||
|------------------------||
Chorus Rhy. Fig. 3
|-------------|---------------|
|-------------|---------------|
|-12----------|-11-----10-----|
|-12----------|-11-----10-----|
|-10----------|--9------8-----|
|-------------|---------------|

P.M.----------------------------------------------------|
|------------------------|------------------------------|
|------------------------|------------------------------|o
|------------------------|------------------------------|  play
|------------------------|------------------------------|   3x
|------------------------|------------------------------|o
|-0--0--0--0--0--0--0--0-|-0--0--0--0--0--0--0--0-------|

|-------------|--------------|
|-------------|--------------|
|-12----------|-11----10-----| back to Rhy. Fig. 1
|-12----------|-11----10-----|   (w/Gtrs. I&II)
|-10----------|--9-----8-----|
|-------------|--------------|
Faster d=208
Rhy. Fill 1
    P.M.-|   P.M.-|   P.M.
|------------------------|
|------------------------|
|------------------------|
|-5--------7--------7----|
|----0--0-----0--0-----0-|
|------------------------|
Substitute Rhy. Fill 1 (2nd, 3rd, & 4th times)

       P.M.   P.M.-|   P.M.    P.M.-|   P.M.-|   P.M.
|-------------------------|---------------------------|
|-------------------------|---------------------------|
|-------------------------|-5-------------------------|
|-5--7------7--------7----|-5---------7--------7------|
|-0--0---0-----0--0-----0-|-----0--0-----0--0-----0---|
|-------------------------|---------------------------|
     P.M.-|   P.M.-|      P.M.------------------------|
|-------------------------|---------------------------|
|-------------------------|---------------------------|o
|-4-----------------------|---------------------------|
|-4---------7--------7-\--|----------3--2--0----------|
|-----0--0-----0--0-------|-3--2--0-----------3--0----|o
|-------------------------|---------------------------|

|---------------|
|---------------|
|-12----11--10--|
|-12----11--10--|
|-10-----9---8--|
|---------------|
Guitar Solo
w/Rhy. Fig. 3 (3 times)
Gtr. III
    sl.         p         p     p     p         p     p
|---------12--15^12--12-15^12-17^12-15^12--12-15^12-17^12-|
|-12-/-15----------12--------------------15---------------|
|---------------------------------------------------------|
|---------------------------------------------------------|
|---------------------------------------------------------|
|---------------------------------------------------------|
                     Full
    p                  )             ~~~~~~~~~~~~~~ sl.
|-15^12----12----12---/---------|--------------------------|
|-------15----15----15----------|-(15)----------(15)-\-----|
|-------------------------------|--------------------------|
|-------------------------------|--------------------------|
|-------------------------------|--------------------------|
|-------------------------------|--------------------------|
          p             p    p
|-7---7-10^7----7-7---------------|
|------------10-------10^7-10^7---|
|-------------------------------9-|
|---------------------------------|
|---------------------------------|
|---------------------------------|
           Full
             )\   p       ~~~~~~~~~~~~~~~~~~~~~~~~~~~~~~~~~~
|-----------/--\------------------|------------------------|
|----------/----\-----------------|------------------------|
|-7---7---9----(9)^7--------------|------------------------|
|---9-----------------9---(9)-----|---(9)------------------|
|---------------------------------|------------------------|
|---------------------------------|------------------------|
                  Full
~~~~~~              )~~~~~~~
|--------------|-17/------------16-15-14---|
|--------------|--------------15--------15-|
|--------------|------------16-------------|
|-(9)----------|---------------------------|
|--------------|---------------------------|
|--------------|---------------------------|
             Full 1/2
               )\  )~~~~~~~~~~~~~~~~~~~~~~~~ sl.
|-------------/--\/-------------|--------------------------|
|-14--------15----(15)----------|-(15)---(15)-\------------|
|----16-------------------------|--------------------------|
|-------17----------------------|--------------------------|
|-------------------------------|--------------------------|
|-------------------------------|--------------------------|
sl.
|-----20-20-23-20-28-22-19-19-21-21-17-15-19-16-14-14-17-|
|-/-23---------------------------------------------------|
|--------------------------------------------------------|
|--------------------------------------------------------|
|--------------------------------------------------------|
|--------------------------------------------------------|

|-14-12-16-12-11-14-12-\-11-9-\-7-10^7----7-10^7------|
|--------------------------------------10--------10-7-|
|-----------------------------------------------------|
|-----------------------------------------------------|
|-----------------------------------------------------|
|-----------------------------------------------------|
                       Full
    p          P.M.      )\   p            ~~~~~~~~~~~
|-----------------------/--\-----|-------------------------|
|-10^7----------7------/----\----|-------------------------|
|------9--7--9-----9--9----(9)^7-|-9--7---7--(7)-----------|
|--------------------------------|------9------------------|
|--------------------------------|-------------------------|
|--------------------------------|--------------------5--5-|
                                       Full
       sl.       p       h               )\   p
|-----------------------------|---------/--\--------|
|-----------------------------|--------/----\-------|
|-----------------------------|-7--9--9----(9)^7--9-|
|------------7--9^7-----7^9-9-|---------------------|
|---5---/-9---------9---------|---------------------|
|-7---------------------------|---------------------|
        Full            Full
          )\              )      p
|--------/--\------------/------------------|
|-------/----\----------/---7--10^7---------|
|-7---(7)--------7--9--9------------9--7----|
|--------------9--------------------------9-|
|-------------------------------------------|
|-------------------------------------------|
        Full
         ____          Full
         )   \   p       )sl.
|-------/-----\---------/----------------|
|------/-------\-------/--------------12-|
|-7---9-------(9)^7---9----\-----/-14----|
|----------------------------------------|
|----------------------------------------|
|----------------------------------------|
   Full                    Full
     )         p             )     p
|---/---12------------------/-12-------------|
|-15---------15^12----12--15-----15^12-12-15-|
|------------------14------------------------|
|--------------------------------------------|
|--------------------------------------------|
|--------------------------------------------|
   Full              Full
     )      p          )           p              p
|---/-12--------------/-12--12-|-15^12---------------------|
|-15------15^12-15--15----15---|------15-12--12-15^12------|
|------------------------------|-----------14--------14-12-|
|------------------------------|---------------------------|
|------------------------------|---------------------------|
|------------------------------|---------------------------|

|------------------------------------------|
|------------------------------------------|
|---12-14^12-------------------------------|
|-14--------14-12--------------------------|
|----------------14-12----------------12---|
|---------------------15----------15-------|
   P.M.------------------------------------|
|------------------------------------------|
|------------------------------------------|
|----------------------------12----12------|
|----------12----12-14-12-14----14---------|
|-14-12-14----14---------------------------|
|------------------------------------------|

|----------------------------12----12-|
|----------12----12-15-12-15----15----|
|-14-12-14----14----------------------|
|-------------------------------------|
|-------------------------------------|
|-------------------------------------|
                               Gtrs. I&II
    p       sl.     p       sl. P.M.----|         P.M.-|
|-15^12------------------------|--------------------------|
|------15-12-\-12-15^12--------|--------------------------|
|----------------------14-12-\-|--------------------------|
|------------------------------|--------------------------|
|------------------------------|----------3--2--0---------|
|------------------------------|-3--2--0-----------3--2---|
P.M.-----|         P.M.-----------------------------------|
|------------------------|--------------------------------|
|------------------------|--------------------------------|
|------------------------|-2------------------------------|
|------------------------|-2------------------------------|
|----------3--2--0-------|-0------------------------------|
|-3--2--0-----------3--2-|--------------------------------|
Back to
Intro
Verse
Pre-Chorus
Chorus
Ending   P.M.-|       P.M.-|       P.M.--------------------|
|----------------------------------------------------------|
|----------------------------------------------------------|
|-12--11-------11--10-------10---9-------------------------|
|-12--11-------11--10-------10---9-------------------------|
|-10---9--------9---8--------8---7-------------------------|
|---------0--0---------0--0---------0--0--0--0--0--0--0----|
         P.M.-|      P.M.-|       P.M.---------------------|
|----------------------------------------------------------|
|----------------------------------------------------------|
|-12--11-------11--7--------7-/-9--------------------------|
|-12--11-------11--7--------7-/-9--------------------------|
|-10---9--------9--5--------5-/-7--------------------------|
|---------0--0--------0--0---------0--0--0--0--0--0--0-----|
repeat
         P.M.--|   P.M.-|   P.M.-|   P.M.-|   P.M.-----------|
|--------|---------------------------------------------------|
|--------|---------------------------------------------------|
|--------|---------------------------------------------------|
|--------|-------5--------2--------5--------4--------7-\-5---|
|--7-\---|-------5--------2--------5--------4--------7-\-5---|
|--------|-0--0--3--0--0--0--0--0--3--0--0--2--0--0--5-\-3---|
5.Metal Militia
Intro
||---------------------------------------------------------------------------|
||---------------------------------------------------------------------------|
||---------------------------------------------------------------------------|
||---------------------------------------------------------------------------|
||-3/5~~~-----8\7---------------------------------------------------5--7-----|
||-1/3~~~-----6\5---0--0--0--0--0--0--0--0--0--0--0--0--0--0--0--0--3--5-----|

-----------------------------------------------------------------------------|
-----------------------------------------------------------------------------|
-----------------------------------------------------------------------------|
-----------------------------------------------------------------------------|
------------------------------------------------8--7-------------------------|
0--0--0--0--0--0--0--0--0--0--0--0--0--0--0--0--6--5-----0--0--0--0--0--0----|

------------------------------------------------------------------------||
------------------------------------------------------------------------||
------------------------------------------------------------------------||
------------------------------------------------------------------------||
------------------------------5--7-----------------------------8-8-7--5--||
0--0--0--0--0--0--0--0--0--0--3--5-----0--0--0--0--0--0--0--0--6-6-5--3--||
Before Main Riff
||----------------------------------------||
||----------------------------------------||
||----------------------------------------||
||----------------------------------------||
||-8--7--5-----8--7--5-----8--7--5-----7--||
||-6--5--3-----6--5--3-----6--5--3-----5--||
  Repeat a few times
||-------------------------------||------------------------||
||-------------------------------||------------------------||
||*-----------------------------*||---3-----2--------------||
||*-----7-----5-----2-----1--0--*||---1--5--0-----x--x--2--||
||---0-----0-----0-----0---------||------3--------x--x--0--||
||-------------------------------||------------------------||
6.Jump in the Fire
Key:
~~      Vibrato
===     Tied notes
__3__   Triplets
R       Rest
Numbers above staff show duration of note/rest (8=eighth, 4=quarter, 2=half,
1=whole,4.5=dotted quarter, etc.)
Riff 1
  8 8 8 8 8 8 8 8   8 8 8 8 8 8 8 8   2       2
|-----------------|-----------------|-----------------|
|-----------------|-----------------|-----------------|
|o---------------o|-----------------|-5-------3-------|
|o--------3------o|---------3-------|-5-------3-------|
|-----3-5---5-4-3-|-----5-3---5-4-3-|-3-------1-------|
|-3-6-------------|-3-6-------------|-----------------|

  8 8 8 8 8 8 8 8   8 8 8 8 8 8 8 8   2       2
|-----------------|-----------------|-----------------|
|-----------------|-----------------|-----------------|
|o---------------o|-----------------|-5-------3-------|
|o--------3------o|-3-------3-------|-5-------3-------|
|-----3-5---5-4-3-|---5-4-3---5-4-3-|-3-------1-------|
|-3-6-------------|-----------------|-----------------|

  8 8 8 8 8 8 8 8   8 8 8 8 8 8 8 8   8 8 8 8 8 4.5
|-----------------|-----------------|-----------------|
|-----------------|-----------------|-----------------|
|o---------------o|-----------------|-----------------|
|o--------3------o|-5-3---3---------|---------3-5~~~~-|
|-----3-5---5-4-3-|-----5---5-4-3---|-----3-5---------|
|-3-6-------------|---------------6-|-3-6-------------|
  8 8 8 8 8 8 8 8   8 8 8 8 8 8 8 8   2       2
|-----------------|-----------------|-----------------|
|-----------------|-----------------|-----------------|
|o---------------o|-----------------|-5-------3-------|
|o--------3------o|-3-------3-------|-5-------3-------|
|-----3-5---5-4-3-|---5-4-3---5-4-3-|-3-------1-------|
|-3-6-------------|-----------------|-----------------|
Riff 2 (Don't play repeat 4 during lead)
                                                       1. 2. 3.
                                                      +-----------------+
                            __3__                           __3__
  8 8 8 8 8 8 8 8   2       4 4 4     8 8 8 8 8 8 8 8   2   8 8 8   4
|-----------------|-----------------|-----------------|--------------------|
|-----------------|-----------------|-----------------|--------------------|
|o--------------3===3---------------|---------------5===5---x-x-x---6--o---|
|o--------------3===3-------3-3-3---|---------------5===5---x-x-x---6--o---|
|---------------1===1-------3-3-3---|---------------3===3---x-x-x---4------|
|-1-3-1-3-1-3-1---|---------1-1-1---|-1-3-1-3-1-3-1---|--------------------|
                                                      4.+------------------|
                                                        2  8   8  8  8
                                                      |-----------------|
                                                      |-----------------|
                                                      ==5-----6-----6--o|
                                                      ==5--R--6--R--6--o|
                                                      ==3-----4-----4---|
                                                      |-----------------|


Riff 3
  8 8 8 8  4  8 8   8 8  4  8 8 8 8   8 8 8 8  4  8 8   8 8  4  8 8 8 8
|-----------------|-----------------|-----------------|-----------------|
|-----------------|-----------------|-----------------|-----------------|
|-----------------|-----------------|-----------------|-----------------|
|-8-8-8-8--R--8-8-|-8-8--R--6-R-8-R-|-5-5-5-5--R--5-5-|-5-5--R--3-R-5-R-|
|-8-8-8-8-----8-8-|-8-8-----6---8---|-5-5-5-5-----5-5-|-5-5-----3---5---|
|-6-6-6-6-----6-6-|-6-6-----4---6---|-3-3-3-3-----3-3-|-3-3-----1---3---|
[RIFF 1]
[Verse 1, play RIFF 2 underneath]
 7.Phantom Lord
Sitting in my room with my head in my heads I just cant seem to move.
Got to get up get out get high got to get back in the groove,
There’s a job to be done and Im the one you people chose to do it.
Now I tighten my belt and I see you felt its time to get back to it.

So come on,
Jump in the fire

So come on,
Jump in the fire

Moving my hips in a circular way just forward a bit
Pull your body into my waist see how good it fits
There’s a job to be done and Im the one you people chose to do it. 
Now I take off my pants its your second chance to get down so lets get back down to it

So come on,
Jump in the fire

So come on,
Jump in the fire

Solo

Sitting in my room with my head in my heads I just cant seem to move.
Got to get up get out get high got to get back in the groove,
There’s a job to be done and Im the one you people chose to do it.
Now I tighten my belt and I see you felt its time to get back to it.

So come on,
Jump in the fire

So come on,
Jump in the fire
Come on jump in now 

fade in
|-----------------|-------------------|--------------------|
|-----------------|-------------------|--------------------|
|-----------------|*--2----------2----|--2----------2--2--*|
|-----------------|*--2----------2----|--2----------2--2--*|
|--0--------------|---0----------0----|--0----------0--0---|
|-----------------|-------------------|--------------------|


|-------------|-------------------|--------------------|
|-------------|-------------------|--------------------|
|--2----------|*--4----------4----|--4----------4--4--*|
|--2----------|*--4----------4----|--4----------4--4--*|
|--0----------|---2----------2----|--2----------2--2---|
|-------------|-------------------|--------------------|

|----------------------------------------------------------|
|----------------------------------------------------------|
|-4----------------------------7--9------------------------|
|-4----7--7--9-9--7-9p7-9--9-9-5--7--7--9-9--7-9p7-9--9--7-|
|-2----5--5--7-7----7---7--7-7-------5--7-7----7---7--7--5-|
|----------------------------------------------------------|

|-----------------------------|----------------------------|
|-----------------------------|----------------------------|
|-----------------------7--9--|----------------------------|
|--7--9-9--7-9p7-9--9-9-5--7--|--7--9-9--7-9p7-9--9-9-7----|
|--5--7-7----7---7--7-7-------|--5--7-7----7---7--7-7-5----|
|-----------------------------|----------------------------|
4x
||-----------------------------|--------------------------||
||-----------------------------|--------------------------||
||*----------------------7--9--|-------------------------*||
||*-7--9-9--7-9p7-9--9-9-5--7--|-7--9-9--7-9p7-9--9-9-7--*||
||--5--7-7----7---7--7-7-------|-5--7-7----7---7--7-7-5---||
||-----------------------------|--------------------------||

|-----------|------------------|---------------------------|
|-----------|------------------|---------------------------|
|-2---------|-5-----4----------|----------------------7--9-|
|-2---------|-5-----4---5--5---|-7--9-9--7-9p7-9--9-9-5--7-|
|-0---------|-3-----2---5--5---|-5--7-7----7---7--7-7------|
|-----------|-----------3--3---|---------------------------|
Sound is.. ..sound of metal nears
|---------------------------|----------------------------|
|---------------------------|----------------------------|
|---------------------------|----------------------7--9--|
|-7--9-9--7-9p7-9--9-9-7----|-7--9-9--7-9p7-9--9-9-5--7--|
|-5--7-7----7---7--7-7-5----|-5--7-7----7---7--7-7-------|
|---------------------------|----------------------------|

|---------------------------|------------|-----------------|
|---------------------------|------------|-----------------|
|---------------------------|-2----------|-5------4--------|
|-7--9-9--7-9p7-9--9-9-7----|-2----------|-5------4---5--5-|
|-5--7-7----7---7--7-7-5----|-0----------|-3------2---5--5-|
|---------------------------|------------|------------3--3-|
Your body's.. ..taste of leather on your lips
|----------------------------|---------------------------|
|----------------------------|---------------------------|
|----------------------7--9--|---------------------------|
|-7--9-9--7-9p7-9--9-9-5--7--|-7--9-9--7-9p7-9--9-9-7----|
|-5--7-7----7---7--7-7-------|-5--7-7----7---7--7-7-5----|
|----------------------------|---------------------------|


|----------------------------|---------------------------|
|----------------------------|---------------------------|
|----------------------7--9--|---------------------------|
|-7--9-9--7-9p7-9--9-9-5--7--|-7--9-9--7-9p7-9--9-9-7----|
|-5--7-7----7---7--7-7-------|-5--7-7----7---7--7-7-5----|
|----------------------------|---------------------------|

|----------------|----------------|----------------|
|----------------|----------------|----------------|
|----------------|----------------|----------------|
|--7--5--7--4--5-|--7--5--7--4--5-|--7--5--7--4--5-|
|--7--5--7--4--5-|--7--5--7--4--5-|--7--5--7--4--5-|
|0-5--3--5--2--3-|0-5--3--5--2--3-|0-5--3--5--2--3-|
Hear the cry of war Louder than before With his sword in hand

|----------------|----------------|----------------|
|----------------|----------------|----------------|
|----------------|----------------|----------------|
|--7--5--4--5--4-|--7--5--7--4--5-|--7--5--7--4--5-|
|--7--5--4--5--4-|--7--5--7--4--5-|--7--5--7--4--5-|
|0-5--3--2--3--2-|0-5--3--5--2--3-|0-5--3--5--2--3-|
to control the land Crushing metal strikes on this frightning night
w/ fill 1
|-----------------------|-----------------------|----------|
|-----------------------|-----------------------|----------|
|-----------------------|-----------------------|----------|
|----7---5---7---4---5--|----7---5---4---5---4--|-2------7-|
|----7---5---7---4---5--|----7---5---4---5---4--|-2------5-|
|-0--5---3---5---2---3--|-0--5---3---2---3---2--|-0--------|
Fall onto your knees for the Phantom Lord
fill 1:
|--12-10-9----10-9-------9-------------------|
|----------12------12-10---12-10-9-12-10-9---|
|------------------------------------------9-|
|--------------------------------------------|
|--------------------------------------------|
|--------------------------------------------|
6x
|----------------------------|---------------------------||
|----------------------------|---------------------------||
|----------------------7--9--|--------------------------*||
|-7--9-9--7-9p7-9--9-9-5--7--|-7--9-9--7-9p7-9--9-9-7---*||
|-5--7-7----7---7--7-7-------|-5--7-7----7---7--7-7-5----||
|----------------------------|---------------------------||

|----------|-------------------|---------------------------|
|----------|-------------------|---------------------------|
|-2--------|-5------4----------|----------------------7--9-|
|-2--------|-5------4---5--5---|-7--9-9--7-9p7-9--9-9-5--7-|
|-0--------|-3------2---5--5---|-5--7-7----7---7--7-7------|
|----------|------------3--3---|---------------------------|
Victims falling.. ..dying pain


|---------------------------|----------------------------|
|---------------------------|----------------------------|
|---------------------------|----------------------7--9--|
|-7--9-9--7-9p7-9--9-9-7----|-7--9-9--7-9p7-9--9-9-5--7--|
|-5--7-7----7---7--7-7-5----|-5--7-7----7---7--7-7-------|
|---------------------------|----------------------------|

|--------------------------|------------|------------------|
|--------------------------|------------|------------------|
|--------------------------|--2---------|--5------4--------|
|-7--9-9--7-9p7-9--9-9-7---|--2---------|--5------4---5--5-|
|-5--7-7----7---7--7-7-5---|--0---------|--3------2---5--5-|
|--------------------------|------------|-------------3--3-|
Fists of terror.. ..nothing you can do
|----------------------------|---------------------------|
|----------------------------|---------------------------|
|----------------------7--9--|---------------------------|
|-7--9-9--7-9p7-9--9-9-5--7--|-7--9-9--7-9p7-9--9-9-7----|
|-5--7-7----7---7--7-7-------|-5--7-7----7---7--7-7-5----|
|----------------------------|---------------------------|

|----------------------------|---------------------------|
|----------------------------|---------------------------|
|----------------------7--9--|---------------------------|
|-7--9-9--7-9p7-9--9-9-5--7--|-7--9-9--7-9p7-9--9-9-7----|
|-5--7-7----7---7--7-7-------|-5--7-7----7---7--7-7-5----|
|----------------------------|---------------------------|

|----------------|----------------|----------------|
|----------------|----------------|----------------|
|----------------|----------------|----------------|
|--7--5--7--4--5-|--7--5--7--4--5-|--7--5--7--4--5-|
|--7--5--7--4--5-|--7--5--7--4--5-|--7--5--7--4--5-|
|0-5--3--5--2--3-|0-5--3--5--2--3-|0-5--3--5--2--3-|

|----------------|----------------|----------------|
|----------------|----------------|----------------|
|----------------|----------------|----------------|
|--7--5--4--5--4-|--7--5--7--4--5-|--7--5--7--4--5-|
|--7--5--4--5--4-|--7--5--7--4--5-|--7--5--7--4--5-|
|0-5--3--2--3--2-|0-5--3--5--2--3-|0-5--3--5--2--3-|
begin solo I
|-----------------------|-----------------------|---------|
|-----------------------|-----------------------|---------|
|-----------------------|-----------------------|---------|
|----7---5---7---4---5--|----7---5---4---5---4--|-2-------|
|----7---5---7---4---5--|----7---5---4---5---4--|-2-------|
|-0--5---3---5---2---3--|-0--5---3---2---3---2--|-0-------|

|----------------|----------------|----------------|
|----------------|----------------|----------------|
|--5--4--5-------|--5--4--5-------|--5--4--5-------|
|--5--4--5--4--5-|--5--4--5--4--5-|--5--4--5--4--5-|
|--3--2--3--4--5-|--3--2--3--4--5-|--3--2--3--4--5-|
|0----------2--3-|0----------2--3-|0----------2--3-|


|----------------|----------------|----------------|
|----------------|----------------|----------------|
|--5--4--5-------|--5--4--5--5--4-|--5--4--5--5--4-|
|--5--4--5--4--5-|--5--4--5--5--4-|--5--4--5--5--4-|
|--3--2--3--4--5-|--3--2--3--3--2-|--3--2--3--3--2-|
|0----------2--3-|0---------------|0---------------|

|----------------|----------------|----------------|
|----------------|----------------|----------------|
|--5--4--5--5--4-|--5--4--5--5--4-|--5--4--5-------|
|--5--4--5--5--4-|--5--4--5--5--4-|--5--4--5--4--5-|
|--3--2--3--3--2-|--3--2--3--3--2-|--3--2--3--4--5-|
|0---------------|0---------------|0----------2--3-|

|----------------|----------------|----------------|
|----------------|----------------|----------------|
|--5--4--5-------|--5--4--5-------|--5--4--5-------|
|--5--4--5--4--5-|--5--4--5--4--5-|--5--4--5--4--5-|
|--3--2--3--4--5-|--3--2--3--4--5-|--3--2--3--4--5-|
|0----------2--3-|0----------2--3-|0----------2--3-|

|----------------|----------------|----------------|
|----------------|----------------|----------------|
|--5--4--5--5--4-|--5--4--5--5--4-|--5--4--5--5--4-|
|--5--4--5--5--4-|--5--4--5--5--4-|--5--4--5--5--4-|
|--3--2--3--3--2-|--3--2--3--3--2-|--3--2--3--3--2-|
|0---------------|0---------------|0---------------|
slower(tempo=66)
|------------------------|------------------|
|------------------------|------------------|
|-----5---4---5---5---4--|------------------|
|-----5---4---5---5---4--|--5----4----------|
|-----3---2---3---3---2--|------------------|
|--0---------------------|------------------|
play 8x
||------------------------------------||
||---------------------------------0--||
||*------0-------0-------0-----------*||
||*--------2-------2-------2-----2---*||
||-----2-------2-------0-------0------||
||---0-------3-------2-------1--------||
4x faster (tempo=96)
||------------------------------------||-------------------|
||------------------------------------||-------------------|
||*----------------------------------*||-------------------|
||*----------------------------------*||-------------------|
||---2-2-2-2-2-2-2-2-0-0-0-0-0-0-0-0--||-2----2----2----2--|
||---0-0-0-0-3-3-3-3-2-2-2-2-1-1-1-1--||-0----0----0----0--|
faster (tempo=152) begin solo II
|--------------------|------------|------------------------|
|--------------------|------------|------------------------|
|--------------------|--2---------|--5-------4-------------|
|--------------------|--2---------|--5-------4----5----5---|
|-2----2----2----2---|--0---------|--3-------2----5----5---|
|-0----0----0----0---|------------|---------------3----3---|


||---------------------------------||
||---------------------------------||
||---------------------------------||
||---------------------------------||  x2
||---------------------------------||
||-0-0-0-0-0-0-0-0-0-0-0-0-0-0-0-0-||

|-----------------|--------------------------|
|-----------------|--------------------------|
|--2--------------|--5--------4--------------|
|--2--------------|--5--------4----5----5----|
|--0--------------|--3--------2----5----5----|
|-----------------|----------------3----3----|

||---------------------------------||
||---------------------------------||
||---------------------------------||
||---------------------------------||  x2
||---------------------------------||
||-0-0-0-0-0-0-0-0-0-0-0-0-0-0-0-0-||

|-----------------|--------------------------|
|-----------------|--------------------------|
|--2--------------|--5--------4--------------|
|--2--------------|--5--------4----5----5----|
|--0--------------|--3--------2----5----5----|
|-----------------|----------------3----3----|

||---------------------------------||
||---------------------------------||
||---------------------------------||
||---------------------------------||  x2
||---------------------------------||
||-0-0-0-0-0-0-0-0-0-0-0-0-0-0-0-0-||

|-----------------|--------------------------|
|-----------------|--------------------------|
|--2--------------|--5--------4--------------|
|--2--------------|--5--------4----5----5----|
|--0--------------|--3--------2----5----5----|
|-----------------|----------------3----3----|

||---------------------------------||
||---------------------------------||
||---------------------------------||
||---------------------------------||  x2
||---------------------------------||
||-0-0-0-0-0-0-0-0-0-0-0-0-0-0-0-0-||

|------------|------------|-----------------------------|
|------------|------------|-----------------------------|
|------------|------------|-----------------------7--9--|
|--2---------|------------|--7--9-9--7-9p7-9--9-9-5--7--|
|--2---------|------------|--5--7-7----7---7--7-7-------|
|--0---------|------------|-----------------------------|


|--------------------------|-----------------------------|
|--------------------------|-----------------------------|
|--------------------------|-----------------------7--9--|
|-7--9-9--7-9p7-9--9-9-7---|--7--9-9--7-9p7-9--9-9-5--7--|
|-5--7-7----7---7--7-7-5---|--5--7-7----7---7--7-7-------|
|--------------------------|-----------------------------|

|-------------------------|------------|------------------|
|-------------------------|------------|------------------|
|-------------------------|-2----------|-5------4---------|
|-7--9-9--7-9p7-9--9-9-7--|-2----------|-5------4---5--5--|
|-5--7-7----7---7--7-7-5--|-0----------|-3------2---5--5--|
|-------------------------|------------|------------3--3--|
The leathered.. ..Has never failed
|----------------------------|---------------------------|
|----------------------------|---------------------------|
|----------------------7--9--|---------------------------|
|-7--9-9--7-9p7-9--9-9-5--7--|-7--9-9--7-9p7-9--9-9-7----|
|-5--7-7----7---7--7-7-------|-5--7-7----7---7--7-7-5----|
|----------------------------|---------------------------|

|--------------------------------------------------|-------|
|--------------------------------------------------|-------|
|---------------------7--9-------------------------|--2----|
|7--9-9--7-9p7-9--9-9-5--7--7--9-9--7-9p7-9--9-9-7-|--2----|
|5--7-7----7---7--7-7-------5--7-7----7---7--7-7-5-|--0----|
|--------------------------------------------------|-------|
Smoke is..
|----------------------|-----------------------------|
|----------------------|-----------------------------|
|--5--------4----------|-----------------------7--9--|
|--5--------4---5--5---|--7--9-9--7-9p7-9--9-9-5--7--|
|--3--------2---5--5---|--5--7-7----7---7--7-7-------|
|---------------3--3---|-----------------------------|
..volume metal sound
|---------------------------|----------------------------|
|---------------------------|----------------------------|
|---------------------------|----------------------7--9--|
|-7--9-9--7-9p7-9--9-9-7----|-7--9-9--7-9p7-9--9-9-5--7--|
|-5--7-7----7---7--7-7-5----|-5--7-7----7---7--7-7-------|
|---------------------------|----------------------------|

---------------------------------------------------------|
---------------------------------------------------------|
---------------------------------------------------------|
7-9-9--7-9p7-9--9-9-7-----7--5--7--4--5-----7--5--7--4--5|
5-7-7----7---7--7-7-5-----7--5--7--4--5-----7--5--7--4--5|
-----------------------0--5--3--5--2--3--0--5--3--5--2--3|

|----------------|----------------|----------------|
|----------------|----------------|----------------|
|----------------|----------------|----------------|
|--7--5--7--4--5-|--7--5--4--5--4-|--7--5--7--4--5-|
|--7--5--7--4--5-|--7--5--4--5--4-|--7--5--7--4--5-|
|0-5--3--5--2--3-|0-5--3--2--3--2-|0-5--3--5--2--3-|


|----------------|----------------|----------------|
|----------------|----------------|----------------|
|----------------|----------------|----------------|
|--7--5--7--4--5-|--7--5--7--4--5-|--7--5--4--5--4-|
|--7--5--7--4--5-|--7--5--7--4--5-|--7--5--4--5--4-|
|0-5--3--5--2--3-|0-5--3--5--2--3-|0-5--3--2--3--2-|

|----------------|----------------|----------------|
|----------------|----------------|----------------|
|----------------|----------------|----------------|
|--7--5--7--4--5-|--7--5--7--4--5-|--7--5--7--4--5-|
|--7--5--7--4--5-|--7--5--7--4--5-|--7--5--7--4--5-|
|0-5--3--5--2--3-|0-5--3--5--2--3-|0-5--3--5--2--3-|

|----------------------|
|----------------------|
|----------------------|
|----7---5---4---5---4-|
|----7---5---4---5---4-|
|-0--5---3---2---3---2-|

|-------------|-------------|-----------|------------|
|-------------|-------------|-----------|------------|
|-------------|--4----------|-----------|--7---------|
|--2----------|--4----------|--5--------|--7---------|
|--2----------|--2----------|--5--------|--5---------|
|--0----------|-------------|--3--------|------------|
Fall to your knees and bow to the Phantom
(trem. strum, pick fast up and down)
|-----------------|----------------|
|-----------------|----------------|
|--9--------------|----------------|
|--9--------------|----------------|
|--7--------------|----------------|
|-----------------|----------------|
Lord
|---------------------------|-----------------||
|---------------------------|-----------------||
|---------------------------|-----------------||
|-----7----5----4----5---4--|--2--------------||
|-----7----5----4----5---4--|--2--------------||
|--0-----0----0----0--------|--0--------------||
Solo I
-22p20p17----17-22p20p17----17-22p20p17----17-22p20p17-----|
----------21-------------20-------------20-------------22--|
-----------------------------------------------------------|
-----------------------------------------------------------|
-----------------------------------------------------------|
-----------------------------------------------------------|

-22b--22r----22b--22b--22p19-|
-----------------------------|
-----------------------------|
-----------------------------|
-----------------------------|
-----------------------------|

----19-22p19-----------------------------12|
-22----------22-19----19-22p19--------15---|
-------------------21----------21-19-------|
-------------------------------------------|
-------------------------------------------|
-------------------------------------------|

-15p12----12-15p12-------------------------------|
-------15----------15-12----12-15p12-------------|
-------------------------14b---------14p12----12-|
-------------------------------------------14----|
-------------------------------------------------|
-------------------------------------------------|

-----------------------14-15-|
-15---15---15--15------------|
-14b--14b--14b-14b-----------|
-----------------------------|
-----------------------------|
-----------------------------|

-17p14-15----------------------------------------|
----------17-19p15-17-14-15p14----14-------------|
-------------------------------16----16-14-13-14-|
-------------------------------------------------|
-------------------------------------------------|
-------------------------------------------------|

-------------------------------------------|
-------------------------------------------|
-16p14p13-14p13p11-13--11-9-8h9p8----------|
----------------------------------9--------|
------------------------------------9--9\--|
-------------------------------------------|

--------------------------------|
--------------------------------|
--------------------------7-9p7-|
------------7-7-9p7---7-9-------|
----5-5-7/9---------9-----------|
-7------------------------------|

-------------------12-|
----------------------|
--9r--------7---------|
----------------------|
----------------------|
----------------------|

-19p15p12-19p15p12-19p15p12-19p15p12-|
-------------------------------------|
-------------------------------------|
-------------------------------------|
-------------------------------------|
-------------------------------------|


-20p15p12-20p15p12-20p15p12-20p15p12-|
-------------------------------------|
-------------------------------------|
-------------------------------------|
-------------------------------------|
-------------------------------------|

-22p15p12-22p15p12-22p15p12-22p15p12-|
-------------------------------------|
-------------------------------------|
-------------------------------------|
-------------------------------------|
-------------------------------------|

-20p15p12-20p15p12-20p15p12-20p15p12-|
-------------------------------------|
-------------------------------------|
-------------------------------------|
-------------------------------------|
-------------------------------------|

-18p12-18t19p15p12-20p12-20t20p15p12-|
-------------------------------------|
-------------------------------------|
-------------------------------------|
-------------------------------------|
-------------------------------------|

-22p12-22t22p15p12-20p12-20t20p15p12-|
-------------------------------------|
-------------------------------------|
-------------------------------------|
-------------------------------------|
-------------------------------------|

-19p15p12-20p15p12-19p15p12-20p15p12--|
--------------------------------------|
--------------------------------------|
--------------------------------------|
--------------------------------------|
--------------------------------------|

-19p15p12-20p15p12-19p15p12--|
-----------------------------|
-----------------------------|
-----------------------------|
-----------------------------|
-----------------------------|

----12--15p12----12-15p12--------------------------|
-15b----------15b---------15-12----12-15p12--------|
--------------------------------14----------14--12-|
---------------------------------------------------|
---------------------------------------------------|
---------------------------------------------------|

-------------------------------------------------|
-------------------------------------------------|
-12-12-14p12-------------------------------------|
-------------14-12----12-14p12-------------------|
-------------------14----------14-12-10----------|
----------------------------------------12-12-12-|

---------------------------------|
---------------------------------|
---------------------------7-9p7-|
-------------7-7-9p7---7-9-------|
-----5-7-7/9---------9-----------|
-5/7-----------------------------|

|---------------------------------|
|--------7-10-7-------------------|
|--x-7-9b-------9-7---7-9p7-9r--7-|
|-------------------9-------------|
|---------------------------------|
|---------------------------------|
8x                      4x
|------------------------||--------------------|
|------------------------||--------------------|
|------------------------||*------------------*|
|--9----7----2----1------||*------------------*|
|------------------------||--------------------|
|--------------------3-2-||--------------------|
Solo II:
|----------------|-------------------12-|
|----------------|----------------15----|
|----------------|----------------------|
|----------------|----------------------|
|----------------|----------------------|
|----------------|----------------------|

|--15p12-12-15p12-12-12----------------------------|
|-----------------------15----12-15p12----12-15p12-|
|--------------------------14b---------14b---------|
|--------------------------------------------------|
|--------------------------------------------------|
|--------------------------------------------------|

|--15-12---------------------------------------|---------|
|--------15b15----12-12-15---------------------|---------|
|--------------14b---------14-12----12-14-12\--|--9------|
|--------------------------------14------------|---------|
|----------------------------------------------|---------|
|----------------------------------------------|---------|

|-----------------|--22----22----22----22\-15h17p15-|
|-----------------|---------------------------------|
|-----------------|---------------------------------|
|-----------------|---------------------------------|
|-----------------|---------------------------------|
|-----------------|---------------------------------|


|---22------12--7-8p7p5----|------------------|
|--------------------------|------------------|
|--------------------------|------------------|
|--------------------------|------------------|
|--------------------------|------------------|
|--------------------------|------------------|

|------12-12-----12--12--15-12-------15-12-------|
|--15--------15----------------15-12-------15-12-|
|------------------------------------------------|
|------------------------------------------------|
|------------------------------------------------|
|------------------------------------------------|

|------------------------------------|---------------|
|--12-12-15p12-----------------------|---------------|
|--------------14-12----12-14r-------|---------------|
|--------------------14--------------|---------------|
|------------------------------------|---------------|
|------------------------------------|---------------|

|--------------------------------------------------|
|-----12-15p12-17p12----12-15p12-17p12----12-15p12-|
|--14b---------------14----------------14b---------|
|--------------------------------------------------|
|--------------------------------------------------|
|--------------------------------------------------|

|--------------------------------------------------|
|--17p12----12-15p12-17p12----12-15p12-17p12-12-12-|
|--------14b---------------14b---------------------|
|--------------------------------------------------|
|--------------------------------------------------|
|--------------------------------------------------|

|--15p12----12-15p12-------------------------------|
|--------15----------15p12----12-15p12-------------|
|--------------------------14b---------14-12----14-|
|--------------------------------------------14----|
|--------------------------------------------------|
|--------------------------------------------------|

|-------------------------------------------------------|
|-------------------------------------------------------|
|--12-12-14p12------------------------------------------|
|--------------14p12----12-14p12------------------------|
|--------------------14----------14-12-10--12p10--------|
|--------------------------------------------------12---|
comments
print report bad tab
6 comments total. Showing first comments. show 1 bad comment
+1 reply
andrew10134 wrote on November 5 2009, 09:40 am

please rate

-2 reply
Denkigan wrote on November 20 2009, 10:38 pm

SUCKS
all the guitar solos on here r the same from Kill 'Em All
No Life 'Til Leather solos are completely different than Kill 'Em All solos

I want to post or [tab]
guest
You may want to rate the tab now too:
select rating
Please do not post tabs as comments. Select "correction" instead!