Oops, an error
Loading. Please wait.

One Tab

ver5
125,793 views 129 this week
17 commentsread comments
1 2 3 4 5
excellent!
x 37
Autoscroll
+/-
esc
set tempo
stop
Contributor
Difficulty
advanced
Hey! There's an official Ultimate Guitar app which is ideal
for learning songs when you're away from computer. Get the app
WARNING: You are trying to view
                                    content from Ultimate-Guitar.com
                                    in an unauthorized application,
                                    which is prohibited.

                                    Please use an official Ultimate
                                    Guitar Tabs application for iPhone,
                                    iPad or Android to access legitimate
                                    chords, guitar, bass, and drum tabs
                                    from Ultimate-Guitar.com database.

                                    Type "ultimate guitar tabs" in Apple
                                    App Store's or Android Market's
                                    search to find the application.
Metallica – One
Black (1993)
By - Nx

[Begins with gun fires and battlefield sound for a few seconds...]
================================================================================
Intro Riff: (3X)							  [0:18]

Gtr - 1 (Clean)
  Bm             Gmaj7(no3rd)   Bm             Gmaj7(no3rd)
|--------------|--------------|--------------|--------------|
|--------------|--------------|--------------|--------------|
|--------------|--------------|--------------|-----------0--|
|-----4-----0--|-----4-----0--|-----4-----0--|---4---0------|
|--2-----2-----|--------------|--2-----2-----|--------------|
|--------------|--3-----3-----|--------------|-3---3--------|

  Bm             D/A            Gmaj7(no3rd)   Em
|--------------|--------------|--------------|--------------|
|--------------|--------------|--------------|--------------|
|--------------|--------------|--------------|--------------|
|-----4-----0--|-----4-----0--|-----4-----0--|--------------|
|--2-----2-----|--0-----0-----|--------------|-----2-----2--|
|--------------|--------------|--3-----3-----|--0-----2-----|

[Skip the last Em the 4th time & instead Play Fill - 1]
================================================================================
Initial solo:								  [0:36]
(Begins at the second repetition of the intro riff)

Gtr - 2 (wah)
|---------------------------------------|--------------------------------------|
|--------------------3p2---3p2---3-3p2--|--7p5\3--5p3\2--3p2p0--2p0------------|
|-----2--4b6r4----------4-----2-------4-|----------------------------0h2--2/4~-|
|-2h4-----------------------------------|--------------------------------------|
|---------------------------------------|--------------------------------------|
|---------------------------------------|--------------------------------------|

|---------------------------------------|--------------------------------------|
|---------2h3p2--------2--3p2-----------|--------------------------------------|
|----2/4----------2/4---------2--2/4----|-----------[Drumming begins]----------|
|---------------------------------------|--------------------------------------|
|---------------------------------------|--------------------------------------|
|---------------------------------------|--------------------------------------|

|-------------19-----17-15-14-15--------|--------------------------------------|
|--------19----------------------15-----|--------------------------------------|
|-------{19}----------------------------|-7p6/7--9p7/9--11p9/11---9/12-12--11--|
|-------{19}----------------------------|--------------------------------------|
|-------{19}----------------------------|--------------------------------------|
|---------------------------------------|--------------------------------------|
	N.H.

|------------------------------------------------------------------------------|
|-----------------------12-------12--14--15--15/17--15\14--12\14--14--14h15p12-|
|-----11-12-14----11-12-------11-----------------------------------------------|
|---12----------12----------12-------------------------------------------------|
|-14----------14----------14---------------------------------------------------|
|------------------------------------------------------------------------------|

================================================================================
Fill – 1:								  [1:11]
(Ends up the Intro Riff)

Gtr - 1 (Clean)
Gtr - 2 (Clean)
   Em
|-------------------------|
|-------------------------|
|-------------------------|
|-------------------------|
|----2----2----2--2/4--2--|
|--0----2----0------------|

================================================================================
Verse Riff: (1X)							  [1:13]
(Bass Starts)

Gtr – 1 (Clean)
  Bm		    Gmaj7(no3rd)      Bm		Gmaj7(no3rd)
|-----------------|-----------------|-----------------|-----------------|
|-----------------|-----------------|-----------------|-----------------|
|-----------------|-----------------|-----------------|-----------------|
|---4---0-0--4--0-|---4---0--4-4--0-|---4---0-0--4--0-|---4---0--4-4--0-|
|-2---2-----------|-----------------|-2---2-----------|-----------------|
|-----------------|-3---3-----------|-----------------|-3---3-----------|

  Bm		    D/A		      Gamj7(no3rd)	Em
|-----------------|-----------------|-----------------|-----------------|
|-----------------|-----------------|-----------------|-----------------|
|-----------------|-----------------|-----------------|-----------------|
|---4---0-0--4--0-|---4---0--4-4--0-|---4---0-0--4--0-|---2/4--2--------|
|-2---2-----------|-0---0-----------|-----------------|-------------4---|
|-----------------|-----------------|-3---3-----------|-0---------2-----|

Gtr – 2 (Clean)
(Play the intro riff, without striking the 3rd string open in the 2nd Gmaj7)
================================================================================
Fill – 2:								  [1:28]

Gtr – 1 (Clean)
Gtr – 2 (Clean)
   G5	       A5
|-------------------|
|-------------------|
|-------------------|
|------0------------|
|----5-----------7--|
|--3------3--3/5----|

================================================================================
Interlude 1:								  [1:29]

................................................................................
Gtr – 1 (Clean)
[Part 1]
  D		  G			F		     Em
|--------------|----------------------|-----------1--------|--------------0----|
|--------------|--5--0h3-------0h3----|-----1--------1-----|-----0-----0-----0-|
|-----0-7------|---------4---4--------|--------0--------0--|--------0----------|
|---7-----7-5--|-------------------5--|--3-----------------|--2----------------|
|-5------------|----------------------|--------------------|-------------------|
|--------------|----------------------|--------------------|-------------------|

[Part 2]
|--------------|----------------------|-----------1--------|-------------------|
|--------------|--5--0h3-------0h3----|-----1--------1-----|-----0-----0-------|
|-----0-7------|---------4---4--------|--------0--------0--|--------0----------|
|---7-----7-5--|-------------------5--|--3-----------------|--2----------------|
|-5------------|----------------------|--------------------|---------------/3--|
|--------------|----------------------|--------------------|-------------------|

................................................................................
Gtr – 2 (Clean)
[Part 1]
|--------------|----------------------|--------------------|-------------------|
|---3----3--3--|--5--3h5p3\1--1/3--0--|--------------------|-------------------|
|------2-------|--5--4h5p4\2--2/4--0--|--2---2--4/5---4----|--0---4---0--------|
|-0------------|----------------------|--3---3--5/7---5----|--2---5---2--------|
|--------------|----------------------|--------------------|-------------------|
|--------------|----------------------|--------------------|-------------------|

[Part 2]
|--------------|----------------------|--------------------|-------------------|
|---3----3--3--|--5--3h5p3\1--1/3--0--|--------------------|-------------------|
|------2-------|--5--4h5p4\2--2/4--0--|--2---2--4/5---4----|--2--4/5--4--------|
|-0------------|----------------------|--3---3--5/7---5----|--3--5/7--5--------|
|--------------|----------------------|--------------------|-------------------|
|--------------|----------------------|--------------------|-------------------|

================================================================================
Verse Riff: (2X) 							  [1:43]

Gtr – 1 (Clean)
  Bm		    Gmaj7(no3rd)      Bm		Gmaj7(no3rd)
|-----------------|-----------------|-----------------|-----------------|
|-----------------|-----------------|-----------------|-----------------|
|-----------------|-----------------|-----------------|-----------------|
|---4---0-0--4--0-|---4---0--4-4--0-|---4---0-0--4--0-|---4---0--0------|
|-2---2-----------|-----------------|-2---2-----------|-----------------|
|-----------------|-3---3-----------|-----------------|-3---3-----------|

  Bm		    D/A		      Gamj7(no3rd)	 Em
|-----------------|-----------------|-----------------|-----------------|
|-----------------|-----------------|-----------------|-----------------|
|-----------------|-----------------|-----------------|-----------------|
|---4---0-0--4--0-|---4---0--4-4--0-|---4---0-0--4--0-|-----------------|
|-2---2-----------|-0---0-----------|-----------------|---2------2------|
|-----------------|-----------------|-3---3-----------|-0------2--------|

Gtr – 2 (Clean)
(Play the intro riff, without striking the 3rd string open in the 2nd Gmaj7)

I can’t remember anything, can't tell if this is true or dream 
deep down Inside I feel to scream, this terrible silence stops me! 
Now that the war is through with me, I'm waking up I can not see 
that there is not much left of me, nothing is real but pain now!

================================================================================
Chorus 1: 								  [2:10]

Gtr – 1 (Distortion)
Gtr – 2 (Distortion)
  G5   A5 B5      A5 G5 F#5   B5 A5    B5 C#5 B5 A5
|--------------------------------------------------------------------|
|--------------------------------------------------------------------|
|-------2--4------2-----------4--2-----4--6--4--2--------------------|
|--5----2--4------2--5--4-----4--2-----4--6--4--2--------------------|
|--5----0--2------0--5--4-----2--0-----2--4--2--0------3~--4~---5~---|
|--3-----------------3--2--------------------------------------------|
   Hold my breath as I  wish for death       Oh please God wake me!

================================================================================
Interlude 1: 								  [2:17]
(Begins as the chorus slowly fades out on guitar2)
================================================================================
Verse Riff: (2X) 							  [2:32]

Back in the womb it’s much too real, in pumps life that I must feel 
but can't look forward to reveal, look to the time when I'll live!
Fed through the tube that sticks in me, just like a wartime novelty 
tied to machines that make me be, cut this life off from me!
================================================================================
Chorus 1: 								  [2:59]

   Hold my breath as I  wish for death       Oh please God wake me!
================================================================================
Interlude 1 [Part 1]: (4X) 						  [3:06]
(Play only Gtr – 1 [Part 1] four times)
================================================================================
Classical solo: 							  [3:12]

Gtr – 2 (Wah)
|--------------------------------------------------------------|
|--10p7---7--10--10--8--7--7h8p7-----/15-13-12----12-13p12-----|
|-------7-----------------9------7-------------14----------12--|
|--------------------------------------------------------------|
|--------------------------------------------------------------|
|--------------------------------------------------------------|

|--17p14------14--17---17--15--14---15p14--------------15--17--|
|---------15------------------------------15----15--19---------|
|--------------------------------------------------------------|
|--------------------------------------------------------------|
|--------------------------------------------------------------|
|--------------------------------------------------------------|

|----19p17p15---19p17p15---19p17p15----14--15------14----------|
|----------------------------------------------17------15------|
|--------------------------------------------------------------|
|--------------------------------------------------------------|
|--------------------------------------------------------------|
|--------------------------------------------------------------|

|--------------------------------------------------------------|
|-----/8---8--8\7---------------/13----13---13---13---12-------|
|-----/7---7--7----7------------/12----12---12---12---12-------|
|--------------------------------------------------------------|
|--------------------------------------------------------------|
|--------------------------------------------------------------|

   T         T         T         T         T         T
|--20p17p13--20p17p13--20p17p13--20p17p13--20p17p13--20p17p13--|
|--------------------------------------------------------------|
|--------------------------------------------------------------|
|--------------------------------------------------------------|
|--------------------------------------------------------------|
|--------------------------------------------------------------|

   T            T
|--20p12h13p12--20p12h13p12--|
|----------------------------|
|----------------------------|
|----------------------------|
|----------------------------|
|----------------------------|

================================================================================
Chorus 2: (2X) 								  [3:34]

Gtr – 1 (Distortion)
Gtr – 2 (Distortion)
  G5   A5 B5     A5 G5   F#5 B5   A5  B5 C#5 B5 A5    B5   C#5
|-------------------------------------------------------------|
|-------------------------------------------------------------|
|------2---4-----2-----------4----2----4--6--4--2-----4----6--|
|--5---2---4-----2--5----4---4----2----4--6--4--2-----4----6--|
|--5---0---2-----0--5----4---2----0----2--4--2--0-----2----4--|
|--3----------------3----2------------------------------------|
   Now the world is gone I'm just one        Oh God   help me!
   Hold my breath as I   wish for death Oh please God help me!

================================================================================
Fill – 3: 								  [3:48]

Gtr – 1 (Distortion)
Gtr – 2 (Distortion)
  G5   A5 B5     A5 G5   F#5 B5
|-------------------------------|
|-------------------------------|
|------2---4-----2-----------4--|
|--5---2---4-----2--5----4---4--|
|--5---0---2-----0--5----4---2--|
|--3----------------3----2------|

================================================================================
Interlude 2:

................................................................................
[Part 1]: (2X) 								  [3:51]
Gtr – 1 (Soft distortion)
|-------------|-------------|-------------|-------------|
|-------------|-------------|-------------|-------------|
|-------------|-------------|-4-----4-----|-5-----5-----|
|--2--0--2--0-|-----5--5--5-|-4-----4-----|-5-----5-----|
|--3--2--3--0-|--2--5--5--5-|-2-----2-----|-3-----3-----|
|-------------|--3--3--3--3-|----2-----2--|----3-----3--|

|-------------|-------------|-------------|-------------|
|-------------|-------------|-------------|-------------|
|-------------|-------------|-4-----4-----|-5-----5-----|
|--2--0--2--0-|-----5--5--5-|-4-----4-----|-5-----5-----|
|--3--2--3--0-|--2--5--5--5-|-2-----2-----|-3-----3-----|
|-------------|--3--3--3--3-|----2-----2--|----3-----3--|

Gtr - 2 (Soft distortion)
|-------------|-------------|-------------|-------------|
|--5--3--5/8--|--(8)-~~~----|-------------|-------------|
|--5--4--5/7--|--(7)-~~~----|-------------|-------------|
|-------------|-------------|-4--x--4--x--|-5--x--5--x--|
|-------------|-------------|-2--x--2--x--|-3--x--3--x--|
|-------------|-------------|-------------|-------------|

|-------------|-------------|-------------|-------------|
|--5--3--5/8~-|--(8)-~~~----|-7--7--7--x--|-8--8--8--x--|
|--5--4--5/7~-|--(7)-~~~----|-8--8--8--x--|-9--9--9--x--|
|-------------|-------------|-9--9--9--x--|-10-10-10-x--|
|-------------|-------------|-------------|-------------|
|-------------|-------------|-------------|-------------|

................................................................................
[Part 2]: (2X) 								  [4:18]
Gtr – 1 (Soft distortion)
|------------------|------------------|------------------|------------------|
|------------------|------------------|------------------|------------------|
|------------------|------------------|----4-----4-------|-5--5-5------5----|
|--4/5--5-7--5--4--|--4--4--4--5--4---|----4-----4-------|-5--5-5--5---5----|
|--5/7--7-7--7--5--|--5--5--5--5--5---|----2-----2-------|-3--3-3--3---3----|
|------------------|------------------|-------2-----2----|-----------3---3--|

Gtr - 2 (Soft distortion)
|------------------|------------------|------------------|------------------|
|------------------|------------------|------------------|------------------|
|------------------|------------------|------------------|------------------|
|--9--9--9--9--9---|--7--7--7--7--7\--|----4--x--4--x----|-5--5-5--5-x-5-x--|
|--7--7--7--7--7---|--5--5--5--5--5\--|----2--x--2--x----|-3--3-3--3-x-3-x--|
|------------------|------------------|------------------|------------------|
 PM...................................|

................................................................................
[Part 3] 								  [4:30]
(End the Interlude fading into the double bass bangs)

Gtr – 1 (Distortion)
Gtr – 2 (Distortion)
|------------------|
|------------------|
|------------------|
|----/5------------|
|----/7------------|
|----0-------------|

================================================================================
Trill Thunder >>>>>>>>>>>>>>>>>>>>>>>>>>>>>>>>>>>>>>>>>>>>>>>>>>>>>>>>>>>>>>>>>>
================================================================================
Trill Riff 1: 								  [4:35]

Gtr – 1 (Distortion)
Gtr – 2 (Distortion)
|-----------------|-----------------|-----------------|-----------------|
|-----------------|-----------------|-----------------|-----------------|
|-----------------|-----------------|-----------------|-----------------|
|--------------2--|--------------2--|--------------2--|--------------2--|
|--------------2--|--------------2--|--------------2--|--------------2--|
|--0-0-0-0-0-0-0--|--0-0-0-0-0-0-0--|--0-0-0-0-0-0-0--|--0-0-0-0-0-0-0--|

|-----------------------------------------------------------------------|
|-----------------------------------------------------------------------|
|-----------------------------------------------------------------------|
|--------------2-(2)-------------2---------------2-(2)-------------2-3--|
|--------------2-(2)-------------2---------------2-(2)-------------2-3--|
|--0-0-0-0-0-0-------0-0-0-0-0-0-----0-0-0-0-0-0-------0-0-0-0-0-0------|

================================================================================
Trill Riff 2: (4X) 							  [4:43]

Gtr – 1 (Distortion)
Gtr – 2 (Distortion)
|-------------------------------------|
|-------------------------------------|
|-------------------------------------|
|--------------2-(2)-------------2-3--|
|--------------2-(2)-------------2-3--|
|--0-0-0-0-0-0-------0-0-0-0-0-0------|

================================================================================
Trill Riff 3: (2X) 							  [4:52]

Gtr – 1 (Distortion)
Gtr – 2 (Distortion)
|-----------------------------------|-----------------------------------|
|-----------------------------------|-----------------------------------|
|-----------------------------------|-----------------------------------|
|-----------------------------------|------------------------------2-3--|
|---------------2---------------2---|--------------2---------------2-3--|
|---0-0-0-0-0-0-0---0-0-0-0-0-0-0---|--0-0-0-0-0-0-0---0-0-0-0-0-0------|
    Dark-ness      imprisoning me     all that I see   absolute  horror
   I can-not live   I can-not die  trapped in myself body my holding cell!

================================================================================
Trill Riff 4:								  [5:00]

Gtr – 1 (Distortion)
Gtr – 2 (Distortion)
|-----------------------------------|-----------------------------------|
|-----------------------------------|-----------------------------------|
|-----------------------------------|-----------------------------------|
|-----------------------------------|-----------------------------------|
|-------------/7-(7)------------7/8-|------------/5-(5)-------------5/8-|
|--0-0-0-0-0-0------0-0-0-0-0-0-----|-0-0-0-0-0-0-------0-0-0-0-0-0-----|

|-----------------------------------|-----------------------------------|
|-----------------------------------|-----------------------------------|
|-----------------------------------|-----------------------------------|
|-----------------------------------|-----------------------------------|
|-------------/7-(7)------------7/8-|------------/5-(5)-------------5\2-|
|--0-0-0-0-0-0------0-0-0-0-0-0-----|-0-0-0-0-0-0-------0-0-0-0-0-0-----|

================================================================================
Trill Riff 3: (2X) 							  [5:09]

    Land-mine   has taken my sight   taken my speech   taken my hearing
    Taken my arms   taken my legs     taken my soul   left me with life in hell!
================================================================================
Trill Riff 5: (4X) 							  [5:18]

Gtr – 1 (Distortion)
Gtr – 2 (Distortion)
|-----------------------------------|
|-----------------------------------|
|-----------------------------------|
|-------------2------------2------3-|
|-------------2------------2------3-|
|-0-0-0-0-0-0---0-0-0-0-0-0--0-0-0--|

================================================================================
Trill Riff 6: (2X) 							  [5:26]

Gtr – 1 (Distortion)
Gtr – 2 (Distortion)
|-----------------------------------------|
|-----------------------------------------|
|-----------------------------------------|
|-----------------------------------------|
|-----------------------------------------|
|-0-0-0-0-0-0-0---0-0-0-0-0-0-0---0-0-0-0-|

================================================================================
Trill Riff 5: (4X) 							  [5:31]
================================================================================
Trill Riff 6: (2X) 							  [5:39]
================================================================================
Trill Riff 5: (4X) 							  [5:44]

Gtr – 1 (Distortion)
(Gtr – 2 starts with the Speed solo)
================================================================================
Trill Riff 6: (1X) 							  [5:52]

Gtr – 1 (Distortion)
================================================================================
Trill Riff 7: (2X) 							  [5:55]

Gtr – 1 (Distortion)
|-----------------------------------|-----------------------------------|
|-----------------------------------|-----------------------------------|
|-----------------------------------|-----------------------------------|
|---------------2---------------2---|---------------2---------------5---|
|---------------2---------------2---|---------------2---------------5---|
|---0-0-0-0-0-0-0---0-0-0-0-0-0-0---|---0-0-0-0-0-0-0---3-3-3-3-3-3-3---|

================================================================================
Trill Riff 8: (2X) 							  [6:03]

Gtr – 1 (Distortion)
|-----------------------------------|-----------------------------------|
|-----------------------------------|-----------------------------------|
|-----------------------------------|-----------------------------------|
|---------------5---------------5---|---------------5---------------3---|
|---------------5---------------5---|---------------5---------------3---|
|---3-3-3-3-3-3-3---3-3-3-3-3-3-3---|---3-3-3-3-3-3-3---1-1-1-1-1-1-1---|

================================================================================
Trill Riff 9: (2X) 							  [6:12]

Gtr – 1 (Distortion)
|-----------------------------------------------------------------------|
|-----------------------------------------------------------------------|
|-----------------------------------------------------------------------|
|--------5--------5--------5--------5-----------------------------------|
|--------5--------5--------5--------5---------------3---------------3---|
|---3-3--3---3-3--3---3-3--3---3-3--3---1-1-1-1-1-1-1---1-1-1-1-1-1-1---|

================================================================================
Trill Riff 10								  [6:20]

Gtr – 1 (Distortion)
|-------------------------------------------------|
|-------------------------------------------------|
|-------------------------------------------------|
|-------------------------------------------------|
|----------------5-5-5-5-5-5--4-4-4--3-3-3--2-2-2-|
|-3-3-3-3-3-3-3-----------------------------------|

================================================================================
Trill Riff 5: (4X) 							  [6:23]

Gtr – 1 (Distortion)
================================================================================
Trill Riff 10								  [6:31]
================================================================================
Trill Riff 5: (13X) 							  [6:33]
(Solo ends after the 9th time)

Gtr – 1 (Distortion)
================================================================================
Trill Riff 11: 								  [7:01] 
(Outro)

Gtr – 1 (Distortion)
Gtr – 2 (Distortion)
|-----------------------------------------------------------------------|
|-----------------------------------------------------------------------|
|-----------------------------------------------------------------------|
|------5--------5--------5--------5---------------2------------2------3-|
|------5--------5--------5--------5---------------2------------2------3-|
|-3-3--3---3-3--3---3-3--3---3-3--3---0-0-0-0-0-0---0-0-0-0-0-0--0-0-0--|

|-----------------------------------------------------------------------|
|-----------------------------------------------------------------------|
|-----------------------------------------------------------------------|
|------5--------5--------5--------5---------------2---------3--------3--|
|------5--------5--------5--------5---------------2---------3--------3--|
|-3-3--3---3-3--3---3-3--3---3-3--3---0-0-0-0-0-0------1-1--1---1-1--1--|

|-----------------------------------------------------------------------|
|-----------------------------------------------------------------------|
|-----------------------------------------------------------------------|
|------------2------3-------3-------------2------3------3-------------2-|
|------------2------3-------3-------------2------3------3-------------2-|
|-0-0-0-0-0-0---1-1-1---1-1-1--0-0-0-0-0-0---1-1-1--1-1-1--0-0-0-0-0-0--|

|-----------------------------------------------------------------------|
|-----------------------------------------------------------------------|
|-----------------------------------------------------------------------|
|------5--------5--------5--------5---------------2------------2------3-|
|------5--------5--------5--------5---------------2------------2------3-|
|-3-3--3---3-3--3---3-3--3---3-3--3---0-0-0-0-0-0---0-0-0-0-0-0--0-0-0--|

|-----------------------------------------------------------------------|
|-----------------------------------------------------------------------|
|-----------------------------------------------------------------------|
|---2--2--2----2--2--2----2----------2--2--2----2--2--2----2------------|
|---2--2--2----2--2--2----2----------2--2--2----2--2--2----2------------|
|---0--0--0----0--0--0----0----------0--0--0----0--0--0----0------------|

================================================================================
Speed Solo:

................................................................................
[Part 1] 								  [5:44]
Gtr – 2 (Compression)
  T         T        T        T		 T         T        T        T
|-19p15p12--19p15p12-19p15p12-19p15p12-|-20p15p12--20p15p12-20p15p12-20p15p12-|
|--------------------------------------|--------------------------------------|
|--------------------------------------|--------------------------------------|
|--------------------------------------|--------------------------------------|
|--------------------------------------|--------------------------------------|
|--------------------------------------|--------------------------------------|

  T         T        T        T		 T         T        T        T
|--------------------------------------|--------------------------------------|
|-19p15p12--19p15p12-19p15p12-19p15p12-|-20p15p12--20p15p12-20p15p12-20p15p12-|
|--------------------------------------|--------------------------------------|
|--------------------------------------|--------------------------------------|
|--------------------------------------|--------------------------------------|
|--------------------------------------|--------------------------------------|

  T         T        T        T		 T         T        T        T
|--------------------------------------|--------------------------------------|
|-17p13p10--17p13p10-17p13p10-17p13p10-|-18p13p10--18p13p10-18p13p10-18p13p10-|
|--------------------------------------|--------------------------------------|
|--------------------------------------|--------------------------------------|
|--------------------------------------|--------------------------------------|
|--------------------------------------|--------------------------------------|

|-----------------------------------------------------------------------------|
|----12/14--12--10----10/12--10--8----8/10--8--7----7/8--7--5-------/12~~-----|
|-----------------------------------------------------------------------------|
|-----------------------------------------------------------------------------|
|-----------------------------------------------------------------------------|
|-----------------------------------------------------------------------------|

|--------------------14-14-15-15-17-17-----------17---22^24-----22^24--22^24~-|
|-12-12-12-12-12---------------------------15-15------------------------------|
|-----------------------------------------------------------------------------|
|-----------------------------------------------------------------------------|
|-----------------------------------------------------------------------------|
|-----------------------------------------------------------------------------|

|------------15-17p15------------------15h17p15------------------15h17p15-----|
|------/17---------------17p15h17p19---------------17p15h17p19----------------|
|-----------------------------------------------------------------------------|
|-----------------------------------------------------------------------------|
|-----------------------------------------------------------------------------|
|-----------------------------------------------------------------------------|

|---------------15h17p15--------------15-17p15--------------15-17p15----------|
|-17p15h17p19--------------17-17-19--------------15-17-19--------------15-17--|
|-----------------------------------------------------------------------------|
|-----------------------------------------------------------------------------|
|-----------------------------------------------------------------------------|
|-----------------------------------------------------------------------------|

|-19p17p15---19p17p15---19p17p15---19p17p15---19p17---19p17---19p17--19p17p15-|
|---------15---------15---------15---------15-----15------15------15----------|
|-----------------------------------------------------------------------------|
|-----------------------------------------------------------------------------|
|-----------------------------------------------------------------------------|
|-----------------------------------------------------------------------------|

|-----------15----------15------18^19-15----------15-18^19-15-----------15----|
|----18^20-------18^20--------------------18^20----------------18^20----------|
|-----------------------------------------------------------------------------|
|-----------------------------------------------------------------------------|
|-----------------------------------------------------------------------------|
|-----------------------------------------------------------------------------|

|19p17p15-17-17p15p14-15------------------------------------------------------|
|-----------------------19p17p15-17-15h17p15\13-15-13h15p13\12-13-12h13p12--12|
|-------------------------------------------------------------------------14--|
|-----------------------------------------------------------------------------|
|-----------------------------------------------------------------------------|
|-----------------------------------------------------------------------------|

|-----------------------------------------------------------------------------|
|-----------------------------------------------------------------------------|
|14p12-14p12--12--12-14^-14^-14^-14^16-14^16-14p12--12--12--------------------|
|-----------14--14--------------------------------14--14--14-13-12------------|
|-----------------------------------------------------------------14-13-12-10~|
|-----------------------------------------------------------------------------|

|-----------------------------------------------------------------------------|
|----------15^----------15^-----------15^----------15^-----17^-v-^-v-^-17^v^--|
|----------15^----------15^-----------15^----------15^-----17^-v---v-^-17^v^--|
|--17--17--------17--17-------17--17--------17--17----------------------------|
|-----------------------------------------------------------------------------|
|-----------------------------------------------------------------------------|

|-----------------------------------------------------------------------------|
|--v(17)-^-v---15----15----------15^----------15^-----17-----17-----15^----15-|
|--v(17)-^-v---15----15----------15^----------15^-----17-----17-----15^-------|
|-----------------17------17--17-------17--17---------------------------------|
|-----------------------------------------------------------------------------|
|-----------------------------------------------------------------------------|

|--------15---------15---------15---------15---------15---------15------------|
|--18^20------18^20------18^20------18^20------18^20------18^20------18^20~~~-|
|-----------------------------------------------------------------------------|
|-----------------------------------------------------------------------------|
|-----------------------------------------------------------------------------|
|-----------------------------------------------------------------------------|

................................................................................
[Part 2] 								  [6:33]
Gtr – 2 (Distortion)
|---------------------------------------------------------|
|---------------------------------------------------------|
|--12-12-12--11b12r11---14-14-14--12b14r12---16-16-16-14--|
|--14-14-14--12b14r12---16-16-16--14b16r14---17-17-17-16--|
|---------------------------------------------------------|
|---------------------------------------------------------|

|---------------------------------------------------------|
|---------------------------------------------------------|
|--16-14-12-14---14-12-11-12---12-11--9-11---11--9--7--9--|
|--17-16-14-16---16-14-12-16---14-12-11-12---12-11--9-11--|
|---------------------------------------------------------|
|---------------------------------------------------------|

|---------------------------------------------------------|
|---------------------------------------------------------|
|--12-12-12--11b12r11---14-14-14--12b14r12---16-16-16-14--|
|--14-14-14--12b14r12---16-16-16--14b16r14---17-17-17-16--|
|---------------------------------------------------------|
|---------------------------------------------------------|

|---------------------------------------------------------|
|---------------------------------------------------------|
|--16-14-12-14---14-12-11-12---17-16-14-16---16-14-12-14--|
|--17-16-14-16---16-14-12-16---19-17-16-17---17-16-14-16--|
|---------------------------------------------------------|
|---------------------------------------------------------|

|---------------------------------------------------------|
|---------------------------------------------------------|
|--12-12-12--11b12r11---14-14-14--12b14r12---16-16-16-14--|
|--14-14-14--12b14r12---16-16-16--14b16r14---17-17-17-16--|
|---------------------------------------------------------|
|---------------------------------------------------------|


|---------------------------------------------------------|
|---------------------------------------------------------|
|--16-14-12-14---14-12-11-12---12-11--9-11---11--9--7--9--|
|--17-16-14-16---16-14-12-16---14-12-11-12---12-11--9-11--|
|---------------------------------------------------------|
|---------------------------------------------------------|

|---------------------------------------------------------|
|---------------------------------------------------------|
|--12-12-12--11b12r11---14-14-14--12b14r12---16-16-16-14--|
|--14-14-14--12b14r12---16-16-16--14b16r14---17-17-17-16--|
|---------------------------------------------------------|
|---------------------------------------------------------|

|---------------------------------------------------------|
|---------------------------------------------------------|
|--16-14-12-14---14-12-11-12---12-11--9-11---11--9--7--9--|
|--17-16-14-16---16-14-12-16---14-12-11-12---12-11--9-11--|
|---------------------------------------------------------|
|---------------------------------------------------------|

|---------------------------------------------------------|
|---------------------------------------------------------|
|---9--7--6--7----7--6--4--6----6--4--2--4----4--2--0--2--|
|--11--9--7--9----9--7--5--7----7--5--4--5----4--2--0--2--|
|---------------------------------------------------------|
|---------------------------------------------------------|

================================================================================
comments
print report bad tab
17 comments total. Showing first comments.
+2 reply
passtheapathy wrote on August 16 2005, 12:00 am

Black (1993)

You mean ...And Justice For All?

0 reply
aird wrote on August 16 2005, 12:00 am

Also, the black album came out in 1991. Not very quizzed up on Metallica, are you?

+1 reply
Heid wrote on August 16 2005, 12:00 am

Good tab....can actually follow this one :)

I want to post or [tab]
guest
You may want to rate the tab now too:
select rating
Please do not post tabs as comments. Select "correction" instead!