Oops, an error
Loading. Please wait.

Overkill Tab

ver2
ver2

Whole song

More versions @911Tabs.com
5,219 views 21 this week
no commentswrite comment
1 2 3 4 5
excellent!
x 2
Autoscroll
+/-
esc
set tempo
stop
WARNING: You are trying to view
                                    content from Ultimate-Guitar.com
                                    in an unauthorized application,
                                    which is prohibited.

                                    Please use an official Ultimate
                                    Guitar Tabs application for iPhone,
                                    iPad or Android to access legitimate
                                    chords, guitar, bass, and drum tabs
                                    from Ultimate-Guitar.com database.

                                    Type "ultimate guitar tabs" in Apple
                                    App Store's or Android Market's
                                    search to find the application.
E5
0 7 9 9 x x G5
x 10 12 12 x x A5
x 12 14 14 x x D5
x 5 7 7 x x 
C5
x 3 5 5 x x F#5
2 4 x x x x B5
x 2 4 x x x B5/A
x 0 4 x x x 
A5(type 2)
5 7 7 x x x G5III
3 5 5 x x x G/B
x 2 5 x x x E5(type 2)
0 2 2 x x x 

Gtr I (Eb Ab Db Gb Bb Eb) - 'James Hetfield - Rhythm / Lead  w/dist'
Gtr II (Eb Ab Db Gb Bb Eb) - 'Kirk Hammett - Rhythm / Lead w/dist'

Intro
  Q=260
 4/4
  Gtr II
  Q  H       W             W             W                       W
                                         |                       |
                                         x                       x

  Gtr I
                                                                       TP
  Q  H       Wx7           Wx6           Q   E  E  E  E  E  E    E  E  H.
|---------||------------||------------||----------------------|--------------|
|---------||------------||------------||----------------------|--------------|
|---------||------------||------------||----------------------|--------------|
|---------||------------||------------||----------------------|--------------|
|---------||------------||------------||----14-14-14-14-------|--------------|
|---------||------------||------------||----------------14-14-|-14-17-14\----|


                  1.,2.,3.             4.
                                       E5
                                   Gtr I
    W              W                   Q  E E +E  E  Q
                                       |  | |  |  |  |
                                       /  / /  /  /  /

    Gtrs I, II                     Gtr II
    Q  Q  E E Q    Q  E E +E  E Q      Q  E E +E  E  Q
||---------------|------------------||------------------||
||o--------------|-----------------o||--------------14--||
||--9--9--9-9-9--|-9--9-9-(9)-9-7---||-9--9-9-(9)-9-14--||
||--9--9--9-9-9--|-9--9-9-(9)-9-7---||-9--9-9-(9)-9-14--||
||o-7--7--7-7-7--|-7--7-7-(7)-7-7--o||-7--7-7-(7)-7-----||
||--0--0--0-0-0--|-0--0-0-(0)-0-0---||-0--0-0-(0)-0-----||


 Verses
  Gtrs I, II
  $                      $$
  G5                  A5   G5                  A5
  W          +H.      Q    W          +H.      Q
  |           |       |    |           |       |
  /           /       /    /           /       /
|----------|-------------|----------|-------------|


  G5                  A5   G5                  D5
  W          +H.      Q    W          +H.      Q
  |           |       |    |           |       |
  /           /       /    /           /       /
|----------|-------------|----------|-------------||


   Pre-Chorus
    C5                  D5   C5
    W          +H.      Q    W          +W
    |           |       |    |           |
    /           /       /    /           /

    W           W            W           W
||-----------|-------------|----------|-------|
||o----------|-------------|----------|-------|
||-----------|-------------|----------|-------|
||-----------|-------------|----------|-------|
||o----------|-------------|----------|-------|
||-----------|-------------|----------|-------|


  Gtrs I, II
  PM---|     PM----------|            PM---|     PM----------|
  Q  E E  Q  E E   +E  E Q   Q   Q    Q  E E  Q  E E   +E  E Q   Q   Q
|----------------|------------------|----------------|-------------------||
|----------------|------------------|----------------|------------------o||
|--------12------|----------12--14--|--------12------|----------12--14---||
|--------12------|----------12--14--|--------12------|----------12--14---||
|--------10------|----------10--12--|--------10------|----------10--12--o||
|-0--0-0-----0-0-|-(0)-0-0----------|-0--0-0-----0-0-|-(0)-0-0-----------||


 Chorus
  Gtrs I, II
  F#5                            B5   B5/A  B5            E
  Q  E E +E E Q    Q  Q  Q  Q    Q.   E +Q  Q    +H.      Q
  |  | |  | | |    |  |  |  |    |    |  |  |     |       |
  /  / /  / / /    /  /  /  /    /    /  /  /     /       o
|----------------|-------------|---------------|-------------|


                                         To Coda
                                         To Coda
  F#5                            D5
  Q  E E +E E Q    Q  Q  Q  Q    Q  E E +E E Q    Q  Q  Q  Q
  |  | |  | | |    |  |  |  |    |  | |  | | |    |  |  |  |
  /  / /  / / /    /  /  /  /    /  / /  / / /    /  /  /  /
|----------------|-------------|----------------|-------------||


    Gtr I
    PM-|     PM----------|          PM-|     PM---
    Q  Q  Q  E E   +E  E Q  Q  Q    Q  Q  Q  E E
||---------------|----------------|--------------|
||o--------------|----------------|--------------|
||--------9------|----------9-----|-------9------|
||--------9------|----------9-----|-------9------|
||o-------7------|----------7-----|-------7------|
||--0--0-----0-0-|-(0)-0-0-----0--|-0--0-----0-0-|
|
|   Gtr II
|   PM-|     PM----------|          PM-|     PM---
|   Q  Q  Q  E E   +E  E Q  Q  Q    Q  Q  Q  E E
||---------------|----------------|--------------|
||o--------------|----------------|--------------|
||--------9------|----------9-----|-------9------|
||--------9------|----------9-----|-------9------|
||o-------7------|----------7-----|-------7------|
||--0--0-----0-0-|-(0)-0-0-----0--|-0--0-----0-0-|


 1.                  2.
                            D.S. al Coda
 -------|             PM---|
  +E  E Q  Q  Q       E  E Q  Q   E  E
|-----------------||---------------------||
|----------------o||---------------------||
|----------9--7---||----------9----------||
|----------9--7---||----------9----------||
|----------7--7--o||----------7--10-10---||
|-(0)-0-0---------||-(0)-0-0--0----------||
|
|-------|             PM---|
| +E  E Q  Q  Q       E  E Q  Q   Q
|-----------------||---------------------||
|----------------o||-------------14------||
|----------9--7---||-------------14------||
|----------9--7---||-------------14------||
|----------7--7--o||---------------------||
|-(0)-0-0---------||-(0)-0-0--0----------||


                 Guitar Solo
  Gtrs I, II   Gtr I
  &
               |-Rhy Fig 1                         end Rhy Fig 1-|
  D5              A5(type 2)
  Q  Q  E E Q     Q    Q       Q    E    E    E  E Q   Q     E E
  |  |  | | |     |    |       |    |    |    |  | |   |     | |
  /  /  / / /     /    /       /    /    /    /  / /   /     / /

               Gtr II
                                    ~~~~~~~~~~~~~~~~~~~~~~~
  W               Q.     E    +Q    Q        +H       +E   E E E
|--------------||--------------------------|---------------------|
|--------------||-5------5----(5)---5------|-(5)------(5)--------|
|--------------||-7b9----7b9==(7)r--7b9====|=(7)------(7)r-7p5---|
|--------------||--------------------------|-------------------7-|
|--------------||--------------------------|---------------------|
|--------------||--------------------------|---------------------|


w/Rhy Fig 1 x7
                      ~
  Q  q  Q     +E  E   H      Q    E E
|-------------------|-----------------|
|-------------------|-----------------|
|-5--7--7b10r=(7)p5-|--------5b6------|
|-------------------|-7-----------x-x-|
|-------------------|-----------------|
|-------------------|-----------------|



                    |----3-----|
  E E Q  q  Q       E    +E    E E E E  E Q
|-----------------|---------------------------|
|-----5-----------|-----------------------8---|
|-----5--7--7b9---|-7pb9r(7)p==5---5-7s10-----|
|-5h7-------------|--------------7------------|
|-----------------|---------------------------|
|-----------------|---------------------------|


                      ~~
  Q   Q   Q   E  E    H      Q    E E
|------------------|----------------5-|
|-8S=10--10--10-10-|-10----------/7---|
|------------------|---------9\-------|
|------------------|------------------|
|------------------|------------------|
|------------------|------------------|


   |3-|
  +Q  E E E +E  E E E   E E E E Q     E E
|-(5)-5-8-5-(5)-5-8-5-|-8-5---5-5-----5-5-----|
|---------------------|-----8-5-8b10----8b10==|
|---------------------|-----------------------|
|---------------------|-----------------------|
|---------------------|-----------------------|
|---------------------|-----------------------|


  +E  E E E Q    E E      +E   E E   E Q     Q      Q    Q  +E  Q       +E
|-(5)-5---5-------------|------5------------------|------5--(5)--------------|
|-(8)-5-8-5-5----5-5----|-(5)--5-----5-5-----5----|-5----5--(5)-8b10====(8)r-|
|-----------7b9----7b9==|=(7)r---7b9---7b9===7r---|-7b9----------------------|
|-----------------------|-------------------------|--------------------------|
|-----------------------|-------------------------|--------------------------|
|-----------------------|-------------------------|--------------------------|


         ~~~~~~~~~~~~~~~~~
                      |--3--|
  E E Q  H           +E   E E E E E E E E   E E Q  Q  Q
|-5----------------|----------------------|----------------||
|-5-8-5------------|----------------------|----------------||
|--------7b9=======|=(7)r-7-5---5-7p5-----|----------------||
|------------------|----------7-------7-5-|----------------||
|------------------|----------------------|-7p5------------||
|------------------|----------------------|-----8--5-------||


    Gtrs I, II
              PM------------|           PM-|      PM------------|
    Q  Q   Q  E E   +E  E E E  Q   Q    Q  Q   Q  E E   +E  E E E  Q   Q
||----------------|-------------------|---------------|---------------------||
||o---------------|-------------------|---------------|--------------------o||
||--------12------|-----------12--14--|-------12------|-----------12--14----||
||--------12------|-----------12--14--|-------12------|-----------12--14----||
||o-------10------|-----------10--12--|-------10------|-----------10--12---o||
||--0--0------0-0-|-(0)-0-0-0---------|-0--0------0-0-|-(0)-0-0-0-----------||


Verse 3
  C5                           E        A5
  Gtr I
   W                      +Q   H         Q
   |                       |   |         |
   /                       /   o         /

  Gtr II                                     D.S.S. al Dbl. Coda
   Q  E  E  +E   E  Q     +Q   E E +Q    Q
|----------------------|--------------------||
|----------------------|--------------------||
|------------------12--|-(12)-----------12--||
|-10----12-(12)----12--|-(12)-----------12--||
|-10------------10-10--|-(10)-----------10--||
|-----x----------------|-------7-7-(7)------||


                 Guitar Solo
  &&
  D5              A5(type 2)
  Gtrs I, II   Gtr I
  Q  Q  E E Q      Q   Q               E   E       E       E
  |  |  | | |      |   |               |   |       |       |
  /  /  / / /      /   /               /   /       /       /

               Gtr II
                                                   |-3--|
  W                Q   E       E      +E   E      +E   +Q
|--------------||-------------12-----(12)-12-----(12)-(12)---|
|--------------||-15--15b15.5-15pb17r(15)-15b17==(15)r(15)---|
|--------------||--------------------------------------------|
|--------------||--------------------------------------------|
|--------------||--------------------------------------------|
|--------------||--------------------------------------------|


   Q              E    E  E       E    E      E
   |              |    |  |       |    |      |
   /              /    /  /       /    /      /

   E      E      +E    E  E      +E    E      E
|-12-----12-----(12)--12-12-----(12)--12-----12--|
|-15pb17-15b17==(15)r-15-15b17==(15)r-15b17==15r-|
|------------------------------------------------|
|------------------------------------------------|
|------------------------------------------------|
|------------------------------------------------|


  G5III
   Q          Q       E    E  E  E
   |          |       |    |  |  |
   /          /       /    /  /  /

   E      +Q     +E   Q       E  E
|-12-----(12)---(12)-12------12-15-|
|-15b17==(15)r==(15)-15b17---------|
|----------------------------------|
|----------------------------------|
|----------------------------------|
|----------------------------------|


                                  C5
   E     E  E  E  E     E  E  E    Q        E  E  Q        E  E
   |     |  |  |  |     |  |  |    |        |  |  |        |  |
   /     /  /  /  /     /  /  /    /        /  /  /        /  /

   S  S  E  E  E  S  S  E  E  E    S  E  S  E  E  E  S  S  E  S  S
|-15p12h15-12-15-12h15-15-12-12-|-12h15p12----12-15p12----12-15p12-|
|-------------------------------|----------12----------12----------|
|-------------------------------|----------------------------------|
|-------------------------------|----------------------------------|
|-------------------------------|----------------------------------|
|-------------------------------|----------------------------------|


  +E  E  Q        H
   |  |
   /  /

   E  E  S  S  E  S  E  S  E  S S
|----12-15p12----15p12----12-12-x-|
|-12----------12-------12-15-15-x-|
|---------------------------------|
|---------------------------------|
|---------------------------------|
|---------------------------------|


  C5          G/B           C5              G/B     C5     D5
   Q.          E      +Q     Q         +E    Q.      Q      Q
   |           |       |     |          |    |       |      |
   /           /       /     /          /    /       /      /

   Q      +E   E      +Q     Q         +E    Q.      Q      q
|-----------------------------------|--------------------------|
|-15-----(15)-15-----(15)---15------|-(15)--15------15-----12--|
|-14b16r=(14)-14b16==(14)r--14b16===|=(14)r-14b16---14b16--12--|
|-----------------------------------|--------------------------|
|-----------------------------------|--------------------------|
|-----------------------------------|--------------------------|

|-Rhy Fig 2
  E5
   Q            Q   Q   E  E
   |            |   |   |  |
   /            /   /   /  /

   E      +E    Q   Q   E  E
|----------------------------|
|-------------------------12-|
|-14b16==(14)r-12------------|
|------------------14--12----|
|----------------------------|
|----------------------------|


                           D5
   +E  E  Q     Q    E E    Q   Q     Q    E  E
    |  |  |     |    | |    |   |     |    |  |
    /  /  /     /    / /    /   /     /    /  /

   +Q     E  E  E  Q   E    Q   E  E  E  E E  E
|------------------------|--------------------------|
|-(12)------------12-----|-12-----------12---12b13==|
|-----------------12-----|--------------12---12b13==|
|--------14p12-14--------|-----14p12-14-------------|
|------------------------|--------------------------|
|------------------------|--------------------------|


   +E   E  Q     Q    E  E
    |   |  |     |    |  |
    /   /  /     /    /  /

   +Q      E  E  E  E E  E
|------------------------------|
|-(12)r------------12---12b13==|
|-(12)r------------12---12b13==|
|---------14----14-------------|
|------------12----------------|
|------------------------------|


  C5                                               G/B
    Q     Q     Q    E E   +E     E   Q        Q    Q
    |     |     |    | |    |     |   |        |    |
    /     /     /    / /    /     /   /        /    /

          |3-|
   +Q     Q  E  E  Q   E    Q        +E    E  +Q    Q
|------------------------|-----------------------------|
|-(12)r-----------12-----|-12b13====(12)r----------12--|
|-(12)r-----------12-----|-12b13====(12)r----------12--|
|--------14p12-14--------|----------------14-(14)------|
|------------------------|-----------------------------|
|------------------------|-----------------------------|

                                                end Rhy Fig 2-|
  C5      G/B           C5                     G/B    C5  D5
   Q.      E      +Q     Q         +E            Q.    Q  Q
   |       |       |     |          |            |     |  |
   /       /       /     /          /            /     /  /

   Q.      E      +Q     Q         +E    a      +Q.    Q  Q
|-------------------------------|----------------------------||
|-----------------------14b15===|=(14)r----------------------||
|-14b16---14b16==(14)r--14b16===|=(14)r-14pb15r(14)---14--x--||
|-------------------------------|----------------------------||
|-------------------------------|----------------------------||
|-------------------------------|----------------------------||

w/Rhy Fig 2 x2
                                   |--3--|
    Q  E E +E  E Q      E E E E Q  E E   E   E  E  E  E  E  E  E  E
||-------------------|---------------------|------------------------|
||o------------------|---------------------|------------------------|
||--9--9-9-(9)-9-9---|--9-9-9-9-9--9-9---9-|-9s11-11-11-11-11-11-11-|
||-------------------|---------------------|------------------------|
||o-7--7-7-(7)-7-7---|--7-7-7-7-7--7-7---7-|-7s=9--9--9--9--9--9--9-|
||-------------------|---------------------|------------------------|


                           1.
   E  E  E  E  E  E  E  E    E  E  E  E  E  E  E  E    E  E  E  E  E  E  E  E
|-------------------------|-------------------------|-------------------------|
|-------------------------|-------------------------|-------------------------|
|-11-11-11-11-11-11-11-11-|-11s12-12-12-12-12-12-12-|-12-12-12-12-12-12-12-12-|
|-------------------------|-------------------------|-------------------------|
|--9--9--9--9--9--9--9--9-|--9s10-10-10-10-10-10-10-|-10-10-10-10-10-10-10-10-|
|-------------------------|-------------------------|-------------------------|


                                                      2.
   E  Q   E  +Q    a  Q     +E   Q.    a  Q   Q         E  E  E  E  E  E  E  E
|------------------------|-------------------------||--------------------------|
|------------------------|------------------------o||--------------------------|
|-12s14--12-(12)--12s14--|-(14)-12----12s14--12\---||--11s12-12-12-12-12-12-12-|
|------------------------|-------------------------||--------------------------|
|-10s12--10-(10)--10s12--|-(12)-10----10s12--10\--o||---9s10-10-10-10-10-10-10-|
|------------------------|-------------------------||--------------------------|



   E      +Q      E  +Q    E      +E      Q.    E      +Q     E      +E
|----------------12-(12)--12-----(12)--|-12------------------------------|
|----------------12-(12)--12-----(12)--|-------15b17==(15)r--15b17==(15)-|
|-14b16==(14)r------------14b16==(14)r-|---------------------------------|
|--------------------------------------|---------------------------------|
|--------------------------------------|---------------------------------|
|--------------------------------------|---------------------------------|


   +E    E      +Q     Q      E     E
|-------12-----(12)-----------------------|
|-(15)r-15b17==(15)r--15b17--15b17-15b17==|
|-----------------------------------------|
|-----------------------------------------|
|-----------------------------------------|
|-----------------------------------------|


  Gtr II
          TP
                               |--3--|  |--3--|  |--3--|
   +Q     H.          E     E  E  E  E  E  E  E  E  E  E
|------------------:-------------------------------------:
|-(15)r--15--------:-15b17-15-12-12-15-12-12-12-12-15-12-:
|------------------:-------------------------------------:
|------------------:-------------------------------------:
|------------------:-------------------------------------:
|------------------:-------------------------------------:
|
| Gtr I
|             TP      TP
|   H         H       W
|------------------:-------------------------------------:
|------------------:-------------------------------------:
|------------------:-------------------------------------:
|---2---------2----:--2----------------------------------:
|---2---------2----:--2----------------------------------:
|---0---------0----:--0----------------------------------:


   |--3---|  |--3--|  |--3--|  |--3--|
   E   E  E  E  E  E  E  E  E  E  E  E
|--------------------------------------:
|-12--12-12-12-12-12-12-15-12-12-15-12-:
|--------------------------------------:
|--------------------------------------:
|--------------------------------------:
|--------------------------------------:
|
|  TP
| +W
|--------------------------------------:
|--------------------------------------:
|--------------------------------------:
|-(2)----------------------------------:
|-(2)----------------------------------:
|-(0)----------------------------------:


   |--3--|  |--3--|
   E  E  E  E  E  E  E     +E       +E   +E
|--------------------------------------------:
|-12-15p12----12-----------------------------:
|----------14----14-14b16r(14)b16==(14)r(14)p:
|--------------------------------------------:
|--------------------------------------------:
|--------------------------------------------:
|
|  W
|--------------------------------------------:
|--------------------------------------------:
|--------------------------------------------:
|--2-----------------------------------------:
|--2-----------------------------------------:
|--0-----------------------------------------:


                                                          ~~~~
                                       |-3--|   |--3--|
   E   E  E  E      +Q    +E   +E     +E   +Q   E  E  E  +H
|----------------------------------:----------------------------||
|--------12-14b15==(14)--(14)r(14)-:-(14)-----------------------||
|-12-----12-14b15==(14)--(14)r(14)-:-(14)-(14)p12h14p12-(12)----||
|-----14---------------------------:----------------------------||
|----------------------------------:----------------------------||
|----------------------------------:----------------------------||
|
| +W                                  +W
|----------------------------------:----------------------------||
|----------------------------------:----------------------------||
|----------------------------------:----------------------------||
|-(2)------------------------------:--(2)-----------------------||
|-(2)------------------------------:--(2)-----------------------||
|-(0)------------------------------:--(0)-----------------------||


  A Tempo Q=260
  Gtr II
   +Q    Q   H      W          W          Q  Q  H      Wx3
|-----------------|----------|----------|------------|--------|
|-----------------|----------|----------|------------|--------|
|-(12)--12\-------|----------|----------|------------|--------|
|-------12\-------|----------|----------|------------|--------|
|-------12\-------|----------|----------|-x----------|--------|
|-----------------|----------|----------|-x----------|--------|


  Gtr I                                     Gtr II
  Q  E E E E Q    Q  Q  E Q  E   Wx5          H    H      Q  Q  Q  E E
|---------------|--------------|------------|-----------|--------------||
|---------------|---------8----|------------|-----------|--------------||
|--------x-x-x--|-------x------|------------|-----------|------------x-||
|------x--------|-x------------|------------|-----------|----------x-x-||
|---------------|--------------|------------|-----------|----------x---||
|---------------|--------------|------------|------2s===|=7------------||


w/Rhy Fig 2 x2
  Gtr I
     ~~~~~~~~~~~~~~~~~                               ~
                                            |--3---|
  Q  H.           +H       Q  Q     Q      +E  +E  E H
|---------------|-----------------|-------------------------|
|-5-------------|-----------------|-------------------------|
|-5-------------|----------5--7---|-7pb9===(7)r(7)p5-7------|
|----7----------|-(7)-------------|-------------------------|
|---------------|-----------------|-------------------------|
|---------------|-----------------|-------------------------|


   ~~~
  +H       Q  Q     H        H
|-----------------|---------------------|
|-------------5---|-8b10-----8b10=======|
|-(7)------7------|---------------------|
|-----------------|---------------------|
|-----------------|---------------------|
|-----------------|---------------------|


                                      ~
   a  +E  E Q  q  q    Q.    +E  +Q   Q
|--------------------|-------------------|
|-(8)r(8)p5----5--8--|-8b9r==(8)-(8)--5--|
|-----------7--------|-------------------|
|--------------------|-------------------|
|--------------------|-------------------|
|--------------------|-------------------|


   ~~~~~~                     ~~~~~~~~~~~~~
           |-3-|
  +E  Q.   E E E q    E Q.    H         Q.     +E    Q  Q
|-------------------|----------------|----------------------|
|-(5)-5----5h7p5----|-5--------------|----------------------|
|----------------7--|-5-5------------|--5------(5)\-----5---|
|-------------------|---------7------|--------------/7------|
|-------------------|----------------|----------------------|
|-------------------|----------------|----------------------|


          |---3----|
  H       E    +E  E Q      E Q.    Q  +Q       Q    Q   Q       +Q
|------------------------|--------------------|-------------------------|
|------------------------|--------------------|-------------------------|
|-7b9-----7pb9r(7)p5-----|--5h7-----5--(5)\---|-----12--14b16===(14)r---|
|--------------------7---|--------------------|-5/----------------------|
|------------------------|--------------------|-------------------------|
|------------------------|--------------------|-------------------------|


           ~~~~~~~
   E  Q    E  +H         E   Q.       E  Q       E
|-12------------------|-12-----------12---------12-|
|----12---15-(15)-----|-----15b17-------15b17------|
|---------------------|----------------------------|
|---------------------|----------------------------|
|---------------------|----------------------------|
|---------------------|----------------------------|


   E     E   E     E  Q       Q
|-------12--------12-------------|
|-15b17-----15b17----15b17--/20--|
|--------------------------------|
|--------------------------------|
|--------------------------------|
|--------------------------------|


  Gtr II
   Q   Q   H             a   +E   E  E  E  Q       E  E
|-17--20--20b22======|=(20)r(20)-17----17---------17--------|
|--------------------|--------------20----20b22------20b22==|
|--------------------|--------------------------------------|
|--------------------|--------------------------------------|
|--------------------|--------------------------------------|
|--------------------|--------------------------------------|
|
| Gtr I
|  Q   Q   Q      Q           E   E  E  E  E    E  Q
|--------------------|--------------------------------------|
|--------------------|--------------------------------------|
|--9---9---9------9--|--------9---9--9--9--9----9--9--------|
|--9---9---9------9--|--------9---9--9--9-------------------|
|--7---7---7------7--|--------7---7--7--7--7----7--7--------|
|--0---0---0------0--|--------0---0--0--0-------------------|


   +E    E  E     E  E  E  E  E
|-------17-------17-20-19-17----|
|-(20)r----20b22-------------20-|
|-------------------------------|
|-------------------------------|
|-------------------------------|
|-------------------------------|
|
|   E    E  E     E  E  E  E  E
|-------------------------------|
|-------------------------------|
|---9s==11-11----11-11-11-11-11-|
|-------------------------------|
|---7s===9--9-----9--9--9--9--9-|
|-------------------------------|


   |---3----|
   E  E     E  E  E  E  E  E  E
|-17h19p===17----17-----------------|
|-------------20----17-20----20b22==|
|-----------------------------------|
|-----------------------------------|
|-----------------------------------|
|-----------------------------------|
|
|  E     E     E  E  E  E  Q
|-----------------------------------|
|-----------------------------------|
|-11----11----11-11-11-11-11--------|
|-----------------------------------|
|--9-----9-----9--9--9--9--9--------|
|-----------------------------------|


    ~~~~~
               |------3-------|
   +H          E      +E      E  E  E    E  E  E  E   H
|-------------------------------------|----------------------------|
|-(20)r-------20pb22r(20)p===17-------|----------------------------|
|-------------------------------19-17-|----17-19-----19pb21--------|
|-------------------------------------|-19-------------------------|
|-------------------------------------|----------------------------|
|-------------------------------------|----------------------------|
|
|   Q     Q   +E           E     Q       Q     E  E  +E      E  Q
|-------------------------------------|----------------------------|
|-------------------------------------|----------------------------|
|--12----12--(12)---------12----12----|-12----12-12-(12)----12-12--|
|-------------------------------------|----------------------------|
|--10----10--(10)---------10----10----|-10----10-10-(10)----10-10--|
|-------------------------------------|----------------------------|


   E      +E   E  E   E      +E    Q      q       E  E  +E  E  e  S  S
|-------------------------------------|--17----------------------------|
|---------------------------------17--|----------20-17-(17)---17-19p17-|
|-19pb21r(19)p17-----17b19==(17)r-----|--------------------19----------|
|----------------19-------------------|--------------------------------|
|-------------------------------------|--------------------------------|
|-------------------------------------|--------------------------------|
|
|  Q.             E  +Q            Q     +E   Q.         E  E  Q
|-------------------------------------|--------------------------------|
|-------------------------------------|--------------------------------|
|-14-------------12-(12)----------14--|-(14)-12---------14s12--9-------|
|-------------------------------------|--------------------------------|
|-12-------------10-(10)----------12--|-(12)-10---------12s10--7-------|
|-------------------------------------|--------------------------------|


w/Rhy Fig 2
  Gtr II
             ~~                     ~~~~~~~
                                             |---3---|
   E  E  q   Q   +Q         Q    E  E  +Q    E  E    E
|-----------------------|------------------------------|
|-----------------------|------------------------------|
|----17-----17--(17)\---|-------12-14-(14)--12h14p==12-|
|-19----19--------------|-/14--------------------------|
|-----------------------|------------------------------|
|-----------------------|------------------------------|


   E  E  E  E  E  E  Q
|-------------------------|
|-------------15----------|
|----12-14s16----16s14----|
|-14----------------------|
|-------------------------|
|-------------------------|


   ~~
   H       Q   Q      E      +Q      E  +E   Q.        H           +Q     Q
|------------------|----------------12-(12)---------|--------------------12--|
|------------------|----------------12-(12)-12------|-15b17=======(15)r------|
|-12----------12---|-14b15==(14)r-------------------|------------------------|
|---------14-------|--------------------------------|------------------------|
|------------------|--------------------------------|------------------------|
|------------------|--------------------------------|------------------------|


   Q      E  E      +E    E  Q        E  Q.      S     S  S     S  S  S  S  S
|-12-----12-12-----(12)--12-12-----|-12-12------------12-------12-15p12----12-|
|-15b17-----15b17==(15)r----15b17--|----15b17---15b17----15b17----------15----|
|----------------------------------|------------------------------------------|
|----------------------------------|------------------------------------------|
|----------------------------------|------------------------------------------|
|----------------------------------|------------------------------------------|


  Gtr II
   ~~~~~~~~~~~TP~~~~~~~~~TP~~~~~~~~~~~~~~
   H.         Q         +W
|-12---------12------:-(12)-------------:
|-15b17------15b17===:=(15)-------------:
|--------------------:------------------:
|--------------------:------------------:
|--------------------:------------------:
|--------------------:------------------:
|
| Gtr I
|  TP         TP         TP
|  H.         Q          Q.   E H
|--------------------:------------------:
|--------------------:------------------:
|--9----------7------:---9----7-9tr7----:
|--9----------7------:---9----7---------:
|--7----------7------:---7----7---------:
|--0----------0------:---0--------------:


 ~~~TP~~~~~~~~~~~~~~~~~~~~~~~TP~~~~~~~~~~~
   +W                       +H       H
|-(12)-------------------:-(12)-----12-------*|
|-(15)-------------------:-(15)r----15b17----*|
|------------------------:-------------------*|
|------------------------:-------------------*|
|------------------------:-------------------*|
|------------------------:-------------------*|
|
|   |-3--| |-3-|
|   E  E E E E E E E E E    +W
|------------------------:-------------------*|
|------------------------:-------------------*|
|---9--7-9-9-7-9-9-7-9-7-:--(7)--------------*|
|---9--7-9-9-7-9-9-7-9-7-:--(7)--------------*|
|---7--7-7-7-7-7-7-7-7-7-:--(7)--------------*|
|---0--0-0-0-0-0-0-0-0-0-:--(0)--------------*|
comments
We did not receive enough feedback on this tab! Please rate:
1 2 3 4 5
I want to post or [tab]
guest
You may want to rate the tab now too:
select rating
Please do not post tabs as comments. Select "correction" instead!