Oops, an error
Loading. Please wait.

Phantom Lord Bass Tab

ver2
ver2

Whole song

More versions @911Tabs.com
6,073 views 12 this week
2 commentsread comments
1 2 3 4 5
accurate
x 7
Autoscroll
+/-
esc
set tempo
stop
Contributor
Hey! There's an official Ultimate Guitar app which is ideal
for learning songs when you're away from computer. Get the app
WARNING: You are trying to view
                                    content from Ultimate-Guitar.com
                                    in an unauthorized application,
                                    which is prohibited.

                                    Please use an official Ultimate
                                    Guitar Tabs application for iPhone,
                                    iPad or Android to access legitimate
                                    chords, guitar, bass, and drum tabs
                                    from Ultimate-Guitar.com database.

                                    Type "ultimate guitar tabs" in Apple
                                    App Store's or Android Market's
                                    search to find the application.
G||------||---------------------|----------------------||---------------|
D||------||*--------------------|---------------------*||---------------|
A||------||*--0------------0----|--0------------0--0--*||--0------------|
E||------||---------------------|----------------------||---------------|


                                                                          
|---------------------|----------------------||-------------------|------|
|*--------------------|---------------------*||-------------------|------|
|*--2------------2----|--2------------2--2--*||--2----------------|------|
|---------------------|----------------------||-------------------|------|


                                                    
------|------|------||--------9----9---------------|
------|------|------||*----------------------------|
------|------|------||*-----7----7----7------------|
------|------|------||---0---------------0-0-3--5--|


                           3x                             
-------9----9--------------||-------9----9---------------|
--------------------------*||----------------------------|
-----7----7----7--7--5/---*||-----7----7----7------------|
--0------------------------||--0---------------0-0-3--5--|


                                                        
-------9----9-------------|----------------------------|
--------------------------|----------------------------|
-----7----7----7--7--5/---|--0--0--0-0-0--0--0--0-0-0--|
--0-----------------------|----------------------------|


                                                        
--------------------------|-------9----9---------------|
--------------------------|----------------------------|
--3--3--3-3-3--2----------|-----7----7----7------------|
------------------3---3---|--0---------------0-0-3--5--|


                                                        
-------9----9-------------|-------9----9---------------|
--------------------------|----------------------------|
-----7----7----7--7--5/---|-----7----7----7------------|
--0-----------------------|--0---------------0-0-3--5--|


                                                        
-------9----9-------------|----------------------------|
--------------------------|----------------------------|
-----7----7----7--7--5/---|--0--0--0-0-0--0--0--0-0-0--|
--0-----------------------|----------------------------|


                                                        
--------------------------|-------9----9---------------|
--------------------------|----------------------------|
--3--3--3-3-3--2----------|-----7----7----7------------|
------------------3---3---|--0---------------0-0-3--5--|


                                                        
-------9----9-------------|-------9----9---------------|
--------------------------|----------------------------|
-----7----7----7--7--5/---|-----7----7----7------------|
--0-----------------------|--0---------------0-0-3--5--|


                                                                             
-------9----9-------------|------------------------|------------------------|
--------------------------|------------------------|------------------------|
-----7----7----7--7--5/---|------------------------|------------------------|
--0-----------------------|--0--5---3---5---2---3--|--0--5---3---5---2---3--|


                                                                           
------------------------|------------------------|------------------------|
------------------------|------------------------|------------------------|
------------------------|------------------------|------------------------|
--0--5---3---5---2---3--|--0--5---3---2---3---2--|--0--5---3---5---2---3--|


                                                                           
------------------------|------------------------|------------------------|
------------------------|------------------------|------------------------|
------------------------|------------------------|------------------------|
--0--5---3---5---2---3--|--0--5---3---5---2---3--|--0--5---3---2---3---2--|


                                                              
------|------|------|------|----|-------9----9---------------|
------|------|------|------|----|----------------------------|
------|------|------|------|----|-----7----7----7------------|
------|------|------|------|----|--0---------------0-0-3--5--|


                                                        
-------9----9-------------|-------9----9---------------|
--------------------------|----------------------------|
-----7----7----7--7--5/---|-----7----7----7------------|
--0-----------------------|--0---------------0-0-3--5--|


                                                        
-------9----9-------------|----------------------------|
--------------------------|----------------------------|
-----7----7----7--7--5/---|--0--0--0-0-0--0--0--0-0-0--|
--0-----------------------|----------------------------|


                                                        
--------------------------|-------9----9---------------|
--------------------------|----------------------------|
--3--3--3-3-3--2----------|-----7----7----7------------|
------------------3---3---|--0---------------0-0-3--5--|


                                                        
-------9----9-------------|-------9----9---------------|
--------------------------|----------------------------|
-----7----7----7--7--5/---|-----7----7----7------------|
--0-----------------------|--0---------------0-0-3--5--|


                                                        
-------9----9-------------|----------------------------|
--------------------------|----------------------------|
-----7----7----7--7--5/---|--0--0--0-0-0--0--0--0-0-0--|
--0-----------------------|----------------------------|


                                                        
--------------------------|-------9----9---------------|
--------------------------|----------------------------|
--3--3--3-3-3--2----------|-----7----7----7------------|
------------------3---3---|--0---------------0-0-3--5--|


                                                        
-------9----9-------------|-------9----9---------------|
--------------------------|----------------------------|
-----7----7----7--7--5/---|-----7----7----7------------|
--0-----------------------|--0---------------0-0-3--5--|


                                                                             
-------9----9-------------|------------------------|------------------------|
--------------------------|------------------------|------------------------|
-----7----7----7--7--5/---|------------------------|------------------------|
--0-----------------------|--0--5---3---5---2---3--|--0--5---3---5---2---3--|


                                                                           
------------------------|------------------------|------------------------|
------------------------|------------------------|------------------------|
------------------------|------------------------|------------------------|
--0--5---3---5---2---3--|--0--5---3---2---3---2--|--0--5---3---5---2---3--|


                                                                           
------------------------|------------------------|------------------------|
------------------------|------------------------|------------------------|
------------------------|------------------------|------------------------|
--0--5---3---5---2---3--|--0--5---3---5---2---3--|--0--5---3---2---3---2--|


                                                                      
-------------------|------------------------|------------------------|
-------------------|------------------------|------------------------|
-------------------|-----3---2---3----------|-----3---2---3----------|
--0----------------|--0--------------2---3--|--0--------------2---3--|


                                                                           
------------------------|------------------------|------------------------|
------------------------|------------------------|------------------------|
-----3---2---3----------|-----3---2---3----------|-----3---2---3---3---2--|
--0--------------2---3--|--0--------------2---3--|--0---------------------|


                                                                           
------------------------|------------------------|------------------------|
------------------------|------------------------|------------------------|
-----3---2---3----------|-----3---2---3----------|-----3---2---3----------|
--0--------------2---3--|--0--------------2---3--|--0--------------2---3--|


                                                                           
------------------------|------------------------|------------------------|
------------------------|------------------------|------------------------|
-----3---2---3----------|-----3---2---3----------|-----3---2---3----------|
--0--------------2---3--|--0--------------2---3--|--0--------------2---3--|


                                                                           
------------------------|------------------------|------------------------|
------------------------|------------------------|------------------------|
-----3---2---3----------|-----3---2---3---3---2--|-----3---2---3---3---2--|
--0--------------2---3--|--0---------------------|--0---------------------|


                                                                           
------------------------|------------------------|------------------------|
------------------------|------------------------|--2----0----------------|
-----3---2---3---3---2--|-----3---2---3---3---2--|------------3----2------|
--0---------------------|--0---------------------|--------------------3-2-|


                                                                   
------|----------------------------|------------------------------|
------|----------------------------|------------------------------|
------|--------------------5-3-5-3-|--------------5-3-2-0-2-0-----|
------|--0---0-3---3-2---2---------|--0---0-3---3-------------2-3-|


                                                       
---------------------------|--------------------------|
---------------------------|--------------------------|
---------------------------|--------------------------|
--0---0-3---3-2---2-1-1--1-|--0---0-3---3-2---2-1---1-|


                                                              
------------------------------|------------------------------|
------------------------------|------------------------------|
-----2------2------2------3---|-----2------2------2------3---|
--0----0-3----3-2----2-1----1-|--0----0-3----3-2----2-1----1-|


                                                              
------------------------------|------------------------------|
------------------------------|------------------------------|
-----2------2------2------3---|-----2------2------2------3---|
--0----0-3----3-2----2-1----1-|--0----0-3----3-2----2-1----1-|


                                     4x                       
|------------------------------------||----------------------|
|*----------------------------------*||----------------------|
|*----------------------------------*||----------------------|
|---0-0-0-0-3-3-3-3-2-2-2-2-1-1-1-1--||--0----0----0----0----|


                                                    
------------------------|--------------------------|
------------------------|--------------------------|
------------------------|--0--0--0--0--0--0--0--0--|
--12----12/---0----0----|--------------------------|


                                                                 
-----------------------------|----------------------------------|
-----------------------------|----------------------------------|
--3--3--3--3--2--------------|----------------------------------|
-------------------3----3----|--0-0-0-0-0-0-0-0-0-0-0-0-0-0-0-0-|


                                                             
---------------------------------|--------------------------|
---------------------12-13-14----|--------------------------|
---------------------------------|--0--0--0--0--0--0--0--0--|
--0-0-0-0-0-0-0-0-0--------------|--------------------------|


                                                                 
-----------------------------|----------------------------------|
-----------------------------|----------------------------------|
--3--3--3--3--2--------------|----------------------------------|
-------------------3----3----|--0-0-0-0-0-0-0-0-0-0-0-0-0-0-0-0-|


                                                             
---------------------12-13-14----|--------------------------|
---------------------------------|--------------------------|
---------------------------------|--0--0--0--0--0--0--0--0--|
--0-0-0-0-0-0-0-0-0--------------|--------------------------|


                                                                 
-----------------------------|----------------------------------|
-----------------------------|----------------------------------|
--3--3--3--3--2--------------|----------------------------------|
-------------------3----3----|--0-0-0-0-0-0-0-0-0-0-0-0-0-0-0-0-|


                                                             
---------------------------------|--------------------------|
---------------------------14----|--------------------------|
---------------------12h14-------|--0--0--0--0--0--0--0--0--|
--0-0-0-0-0-0-0-0-0--------------|--------------------------|


                                                                 
-----------------------------|----------------------------------|
-----------------------------|----------------------------------|
--3--3--3--3--2--------------|----------------------------------|
-------------------3----3----|--0-0-0-0-0-0-0-0-0-0-0-0-0-0-0-0-|


                                                                          
----------------------------------|-------------------|------------------|
----------------------------------|-------------------|------------------|
----------------------------------|-------------------|------------------|
--0-0-0-0-0-0-0-0-0-0-0-0-0-0-0-0-|--0----------------|------------------|


                                                        
-------9----9---------------|-------9----9-------------|
----------------------------|--------------------------|
-----7----7----7------------|-----7----7----7--7--5/---|
--0---------------0-0-3--5--|--0-----------------------|


                                                        
-------9----9---------------|-------9----9-------------|
----------------------------|--------------------------|
-----7----7----7------------|-----7----7----7--7--5/---|
--0---------------0-0-3--5--|--0-----------------------|


                                                        
----------------------------|--------------------------|
----------------------------|--------------------------|
--0--0--0-0-0--0--0--0-0-0--|--3--3--3-3-3--2----------|
----------------------------|------------------3---3---|


                                                        
-------9----9---------------|-------9----9-------------|
----------------------------|--------------------------|
-----7----7----7------------|-----7----7----7--7--5/---|
--0---------------0-0-3--5--|--0-----------------------|


                                                        
-------9----9---------------|-------9----9-------------|
----------------------------|--------------------------|
-----7----7----7------------|-----7----7----7--7--5/---|
--0---------------0-0-3--5--|--0-----------------------|


                                                        
----------------------------|--------------------------|
----------------------------|--------------------------|
--0--0--0-0-0--0--0--0-0-0--|--3--3--3-3-3--2----------|
----------------------------|------------------3---3---|


                                                        
-------9----9---------------|-------9----9-------------|
----------------------------|--------------------------|
-----7----7----7------------|-----7----7----7--7--5/---|
--0---------------0-0-3--5--|--0-----------------------|


                                                        
-------9----9---------------|-------9----9-------------|
----------------------------|--------------------------|
-----7----7----7------------|-----7----7----7--7--5/---|
--0---------------0-0-3--5--|--0-----------------------|


                                                                           
------------------------|------------------------|------------------------|
------------------------|------------------------|------------------------|
------------------------|------------------------|------------------------|
--0--5---3---5---2---3--|--0--5---3---5---2---3--|--0--5---3---5---2---3--|


                                                                           
------------------------|------------------------|------------------------|
------------------------|------------------------|------------------------|
------------------------|------------------------|------------------------|
--0--5---3---2---3---2--|--0--5---3---5---2---3--|--0--5---3---5---2---3--|


                                                                           
------------------------|------------------------|------------------------|
------------------------|------------------------|------------------------|
------------------------|------------------------|------------------------|
--0--5---3---5---2---3--|--0--5---3---2---3---2--|--0--5---3---5---2---3--|


                                                                           
------------------------|------------------------|------------------------|
------------------------|------------------------|------------------------|
------------------------|------------------------|------------------------|
--0--5---3---5---2---3--|--0--5---3---5---2---3--|--0--5---3---2---3---2--|


                                                                              
-------------------|------------------|-------------------|------------------|
-------------------|------------------|-------------------|------------------|
-------------------|------------------|--2----------------|------------------|
--0----------------|------------------|-------------------|------------------|


                                                                       
---------------------|----|----|-------------------|------------------|
---------------------|----|----|-------------------|------------------|
------------2--3--4--|----|----|--5----------------|------------------|
--3------3-----------|----|----|-------------------|------------------|


                                                                              
------------------|-------------------|------------------|-------------------|
------------------|-------------------|------------------|-------------------|
------------------|--7----------------|------------------|--7----------------|
------------------|--0----------------|------------------|--0----------------|


                                                   
------------------|-------------------|----------||
------------------|-------------------|----------||
------------------|-------------------|----------||
------------------|--0----------------|----------||
comments
print report bad tab
2 comments total.
0 reply
horazonblade wrote on March 21 2004, 12:00 am

great Btabs for a great song, good job man \,,/

0 reply
r_lightning wrote on September 15 2004, 12:00 am

good job.. but even though, I think you should tabbed it with better order.. like for example write whats intro, verse, chorus and so on.. but good job

I want to post or [tab]
guest
You may want to rate the tab now too:
select rating
Please do not post tabs as comments. Select "correction" instead!