Oops, an error
Loading. Please wait.

Poor Twisted Me Tab

ver2
ver2

Whole song

Interactive

More versions @911Tabs.com
1,180 views 1 this week
no commentswrite comment
1 2 3 4 5
please rate
Autoscroll
+/-
esc
set tempo
stop
Contributor
WARNING: You are trying to view
                                    content from Ultimate-Guitar.com
                                    in an unauthorized application,
                                    which is prohibited.

                                    Please use an official Ultimate
                                    Guitar Tabs application for iPhone,
                                    iPad or Android to access legitimate
                                    chords, guitar, bass, and drum tabs
                                    from Ultimate-Guitar.com database.

                                    Type "ultimate guitar tabs" in Apple
                                    App Store's or Android Market's
                                    search to find the application.
Band- Metallica
Song- Poor Twisted Me

Gtr I (Eb Ab Db Gb Bb Eb) - 'James Hetfield - Rhythm w/dist and delay'
Gtr II (Eb Ab Db Gb Bb Eb) - 'Kirk Hammett - Rhythm w/dist'
Gtr III (Eb Ab Db Gb Bb Eb) - 'Kirk Hammett - Lead w/dist & slide'

Intro
  Q=120(8=s8)
 4/4
  Gtr I
   E E Q  H      Q  E E Q  E E    E E Q  H
|--------------|---------------|--------------|
|--------------|-----------5-0-|--------------|
|--------------|-----------5---|--------------|
|----7---------|------x----5---|----7---------|
|--------------|------x--------|--------------|
|-/5-----------|------x--------|-/5-----------|


  Q  a    +E  +E  +Q.   +E      E E Q  H      Q  E E E E E E
|----------------------------|--------------|-----------------|
|----------------------------|--------------|------------5-0--|
|----7b8==(7)r(7)-(7)---(7)\-|--------------|------------5----|
|----7b9==(7)r(7)-(7)---(7)\-|----7---------|----x-x---x-5----|
|----------------------------|--------------|----x-x---x------|
|----------------------------|-/5-----------|----x-x---x------|


                        |-3-|
   E E Q  H      E Q.   E E E E +E      E E E E Q  E E
|--------------|---------------------|------------------|
|--------------|---5-----------------|------------------|
|--------------|---5-----------------|------------------|
|----7---------|---5----7p5----------|----7---7----x-7--|
|--------------|------------7-5-(5)\-|------------------|
|-/5-----------|---------------------|-/5---5-----------|


                                                |-3-|
  Q  E E E E Q     E E E E Q  E E   Q  E E +Q   E E E   E E E E Q  E E
|---------------|-----------------|-------------------|-----------------|
|------------5--|-----------------|------7-(7)--------|-----------------|
|------7-----5--|-----------------|------7-(7)--7p5---|-----------------|
|----x-7---x-5--|----7---7----x-7-|----x-7-(7)------7-|---7---7----x-7--|
|---------------|-----------------|-------------------|-----------------|
|---------------|-/5---5----------|-------------------|-5---5-----------|


  Q  E E E E E E    E E E E E E  E E   +Q    E E +Q   E E
|----------------|-------------------|--------------------||
|------------5-0-|-------------------|--------------------||
|------7-----5---|--------------/7-7-|-(7)--/5-5-(5)--3-2-||
|----x-7---x-5---|----7---7---x-/7-7-|-(7)--/5-5-(5)--3-2-||
|----------------|-------------------|--------------------||
|----------------|-/5---5------------|--------------------||


  Gtr II
   Q   E E Q  E E   E E Q   Q   E E    Q   E E Q  E E
|-----------------|-----------------|-----------------|
|-----------------|---5-------------|-----------------|
|-----------------|---5-------------|-----------------|
|--7---7-5-7--7-5-|-7-------------5-|--7---7-5-7--7-5-|
|--0---0---0--0---|-0---------------|--0---0---0--0---|
|-----------------|-----------------|-----------------|
|-Rhy Fig 1A
|
| Gtr I
|  E E E E Q  E E   Q   E E E E Q      E E E E Q  E E
|-----------------|-----------------|-----------------|
|-----------------|-----------------|-----------------|
|-----------------|-------7---x-5---|-----------------|
|----7---7------7-|-------7---x-5---|----7---7------7-|
|-----------------|-----------------|-----------------|
|-/5---5------5---|-----5-----------|-/5---5------5---|
|-Rhy Fig 1

  E E Q   Q   E   E      Q   E E Q  E E    E E Q   Q   E E
|---------------------|------------------|-----------------|
|---------------------|------------------|---5-------------|
|---------------------|------------------|---5-------------|
|-7-------------------|--7---7-5-7--7-5--|-7---------------|
|-0-5-------------5---|--0---0---0--0----|-0-------------5-|
|---------------------|------------------|-----------------|
|
|             |--3--|
| Q   E E E E E E   E    E E E E Q  E E    Q   E E E E Q
|---------------------|------------------|-----------------|
|---------------------|------------------|-------------5---|
|-------7---x-5h7p==5-|------------------|-------7---x-5---|
|-------7---x---------|----7---7------7--|-------7---x-5---|
|---------------------|------------------|-----------------|
|-----5---------------|-/5---5------5----|-----5-----------|


   Q   E E Q    E E    E  Q.       +H
|-------------------|-----------------------||
|-------------------|-----------------------||
|-------------------|-----5--------(5)------||
|--7---7-5-7----7-5-|--7--5--------(5)------||
|--0---0---0----0---|--0--------------------||
|-------------------|-----------------------||
|                            end Rhy Fig 1A-|
|
|  E E E E E E  E E   +Q     E E    Q   Q
|-------------------|-----------------------||
|-----------------5-|-(5)-------------------||
|--------------/5-5-|-(5)----7-7b9--7---5\--||
|----7---7---x-/5-5-|-(5)----7-7b9--7---5\--||
|-------------------|-----------------------||
|-/5---5------------|-----------------------||
                             end Rhy Fig 1A-|

   Verses 1 + 2
    Gtrs I, II
    E E E E H      W          E E E E H      E E E E H
||---------------|----------|--------------|--------------|
||o--------------|----------|--------------|--------------|
||---------------|----------|--------------|--------------|
||----7---7------|----------|---7---7------|---7---7------|
||o--------------|----------|--------------|--------------|
||--5---5--------|----------|-5---5--------|-5---5--------|


  Gtr III
  H    Q   Q     W                  +H        H
|--------------|------------------|------------------|
|--------------|------------------|------------------|
|--------------|------------------|-----------2/-----|
|------7---7s==|=5----------------|-(5)-------2/-----|
|------7---7s==|=5----------------|-(5)--------------|
|--------------|------------------|------------------|
|
| Gtr I
| H    E E Q     E E E E +Q   E E   +Q   E E +Q   Q
|--------------|------------------|------------------|
|--------------|------------------|------------------|
|--------------|--------------3-3-|-(3)--5-5-(5)--3--|
|--------------|---5---5-(5)--3-3-|-(3)--5-5-(5)--3--|
|--------------|------------------|------------------|
|--------x-5\--|-3---3------------|------------------|

                                      |-w/Rhy Fig 1A (last 4 bars)
                                        >
  W                  +H        Q   Q    W
|------------------|------------------|----------------|
|------------------|------------------|----------------|
|------------------|------------------|----------------|
|-5----------------|-(5)-------5---5s=|=7--------------|
|-5----------------|-(5)-------5---5s=|=7--------------|
|------------------|------------------|----------------|
|
| E E E E +Q   E E   +Q   E E +Q   Q    E E E E H
|------------------|------------------|----------------|
|------------------|------------------|----------------|
|--------------3-3-|-(3)--5-5-(5)--3--|----------------|
|---5---5-(5)--3-3-|-(3)--5-5-(5)--3--|---7---7--------|
|------------------|------------------|----------------|
|-3---3------------|------------------|-5---5----------|


  W               W                H         H
|---------------|----------------|--------------------|
|---------------|----------------|--------------------|
|---------------|----------------|-----------2s=======|
|---------------|----------------|-----------2s=======|
|---------------|----------------|--------------------|
|---------------|----------------|--------------------|
|                                |-Fill 1           --|
|
| H      Q  Q     E E E E Q  E E   E E  E E  E  E E E
|---------------|----------------|--------------------|
|---------------|----------------|--------------------|
|---------------|----------------|---5--5-5--5--5-5-5-|
|---------------|---7---7-7--7-7-|-7-5--5-5--5--5-5-5-|
|---------------|----------------|--------------------|
|-----------1S==|=5---5---5--5-5-|-5------------------|


  Gtr I
|-Rhy Fig 2A
  D              C
  Q   Q  Q  Q    Q  Q  Q  Q
  |   |  |  |    |  |  |  |
  /   /  /  /    /  /  /  /

  Gtr III
  H.        Q    W
|--------------|-------------|
|-----------7s=|=5-----------|
|-7------------|-------------|
|-7------------|-------------|
|--------------|-------------|
|--------------|-------------|
|-Rhy Fig 2

                                     end Rhy Fig 2A-|
  G5                      E
                           |-3-| |-3-| |-3-| |-3--|
    Q   Q      Q    Q      E E E E E E E E E E  E E
    |   |      |    |      | | | | | | | | | |  | |
    /   /      /    /      / / / / / / / / / /  / /

                           |-3-| |-3-| |-3-|
    Q   E  E  +Q    Q      E E E E E E E E E Q
|-----------------------|---------------------------|
|------12---------------|---------------------------|
|---------12-(12)--12\--|-/9-9-9-9-9-9-9-9-9-9\-----|
|-/12--------------12\--|-/9-9-9-9-9-9-9-9-9-9\-----|
|-----------------------|---------------------------|
|-----------------------|---------------------------|
                                      end Rhy Fig 2-|

  1.
w/Rhy Fig 1A
  Gtr I
   E E E E Q  E E   Q   E E E E Q
|-----------------|-----------------|
|-----------------|-------------5---|
|-----------------|-------7---x-5---|
|----7---7------7-|-------7---x-5---|
|-----------------|-----------------|
|-/5---5------5---|-----5-----------|


               |--3--|   |--3--| |-3-| |-3-|
   E E E E E E E E   E   E E   E E E E E E E E E
|----------------------|-------------------------|
|------------5-------5-|-------5-----5-x-7-5-7-5-|
|------------5-------5-|-------5-----5-x-7-5-7-5-|
|----7---7-----7-5-----|-7-5-----7-5-------------|
|----------------------|-------------------------|
|-/5---5---------------|-------------------------|


   E E E E Q  E E   Q   E E E E Q      E E E E Q   E E   +Q     E E +Q   E E
|-----------------|-----------------|------------------|----------------------||
|-----------------|-------------5---|------------------|---------------------o||
|-----------------|-------7---x-5---|-------------/7-7-|-(7)----5-5-(5)--3-3--||
|----7---7------7-|-------7---x-5---|----7---7----/7-7-|-(7)----5-5-(5)--3-3--||
|-----------------|-----------------|------------------|---------------------o||
|-/5---5------5---|-----5-----------|-/5---5-----------|----------------------||


  2.
w/Rhy Fig 1A (last 4 bars)
                          |----3-----|
   E E E E E E    +Q      q   q   E  E  E   Q.
|-----------------------|--------------------------|
|------------8----(8)---|-8---8---8-(8)-----8------|
|------------7pb9r(7)---|-7---7---7p=5--7b9-5------|
|----7---7--------------|--------------------------|
|-----------------------|--------------------------|
|-/5---5----------------|--------------------------|


              |--3--|          |-3-|
  E E E E E E E E   E   +Q     E E E +E  E E E
|---------------------|--------------------------||
|-------------------5-|-(5)--------5-(5)---------||
|-----------x-5-----5-|-(5)--------5-(5)-5-------||
|---7---7-------7-----|--------5h7---------7-7\--||
|---------------------|--------------------------||
|-5---5---------------|--------------------------||


 Bridge
  Gtr I
|-Rhy Fig 3
  G5
         |--3---|             |--3--|               |--3--|             |--3--|
    E  E E E    E  E    E     E  E  E    E    E     E  E  E  E    E     E  E  E
    |  | | |    |  |    |     |  |  |    |    |     |  |  |  |    |     |  |  |
    /  / / /    /  /    /     /  /  /    /    /     /  /  /  /    /     /  /  /

  Gtr II
                   |---3---|  |--3--|    |---3---|  |--3--|  |---3---|  |--3--|
    Q.        E    E  E    E  E  E  E    E  E    E  E  E  E  E  E    E  E  E  E
|-------------------------------------|-----------------------------------------|
|-------------------------------------|-----------------------------------------|
|-/12--------12---11s12---12-12-12-12-|-11s12---12-12-12-12-11s12---12-12-12-12-|
|-------------------------------------|-----------------------------------------|
|-/10--------10----9s10---10-10-10-10-|--9s10---10-10-10-10--9s10---10-10-10-10-|
|-------------------------------------|-----------------------------------------|
|-Riff A

              |--3--|             |--3--|
   E    E     E  E  E  E    E     E  E  E
   |    |     |  |  |  |    |     |  |  |
   /    /     /  /  /  /    /     /  /  /

   |---3---|  |--3--|  |---3---|  |--3--|
   E  E    E  E  E  E  E  E    E  E  E  E
|------------------------------------------|
|------------------------------------------|
|-11s12---12-12-12-12-11s12---12-12-12-12--|
|------------------------------------------|
|--9s10---10-10-10-10--9s10---10-10-10-10--|
|------------------------------------------|


  G5                     F#5F5
              |--3--|  |--3--|
   E    E     E  E  E  Q  Q  Q
   |    |     |  |  |  |  |  |
   /    /     /  /  /  /  /  /

   |---3---|  |--3--|  |--3--|
   E  E    E  E  E  E  Q  Q  Q
|------------------------------|
|------------------------------|
|-11s12---12-12-12-12-12-11-10-|
|------------------------------|
|--9s10---10-10-10-10-10--9--8-|
|------------------------------|

                                       end Rhy Fig 3-|
  E5                                      G   E   G
      |-3-|         |-3-|           |-3-| |---3---|
  E E E E E E   E   E E E   E   E   E E E Q   Q   Q
  | | | | | |   |   | | |   |   |   | | | |   |   |
  / / / / / /   /   / / /   /   /   / / / o   o   o

      |-3-| |--3--| |-3-|   |--3--| |-3-| |-3-| |-3-|
  E E E E E E E   E E E E   E E   E E E E E E E E E E
|-------------------------|---------------------------||
|-------------------------|---------------------------||
|-9-9-9-9-9-8s9---9-9-9-9-|-8s9---9-9-9-9-8s9-9-9-9-9-||
|-------------------------|---------------------------||
|-7-7-7-7-7-6s7---7-7-7-7-|-6s7---7-7-7-7-6s7-7-7-7-7-||
|-------------------------|---------------------------||
                                           end Riff A-|

 Guitar Solo
w/Rhy Fig 1 (1st 6 bars only)
  Gtr III
   H       +Q       E E   E E E E E E Q      H       +Q       E E
|-----------------------|-----------5-5\--|-----------------------|
|--5-------(5)b5.5------|-------5---5-5\--|--5-------(5)b5.5------|
|--5-------(5)b5.5------|---5---5---------|--5-------(5)b5.5------|
|-------------------7-5-|-7---------------|-------------------7-5-|
|-----------------------|-----------------|-----------------------|
|-----------------------|-----------------|-----------------------|


                                      ~~~~         ~~~
                   |-3-|    |---3---|        |-3-|
  E E E   E  +Q    E E E    E   E   E Q      E E E Q
|----------------------x-|-------------------------------|
|-------/10-(10)S==3S5-x-|------5---5----------5-5-------|
|---7--------------------|--7b9-------7pb9---7-----7b9---|
|-7----------------------|-------------------------------|
|------------------------|-------------------------------|
|------------------------|-------------------------------|


                         ~~~~
  |--3---|
  E    E E E    E E    E Q
|------5-5------5-5----5-5------|
|-8b10-----8b10---8b10---8b10---|
|-------------------------------|
|-------------------------------|
|-------------------------------|
|-------------------------------|


   |---3----| |---3----| |--3--|   |---3---|
   E    E   E E E      E E   E E   E E     E
|-------5-----5----------------------------5-|
|--8b10-----8---8b10---5-----5-----5-------5-|
|------------------------7b9---7b9---7b9-----|
|--------------------------------------------|
|--------------------------------------------|
|--------------------------------------------|
|
|  E      E   E      E   Q         E     E
|--------------------------------------------|
|--------------------------------------------|
|--------------------------------------------|
|---------7----------7-------------------7---|
|--------------------------------------------|
|-/5----------5--------------------5---------|


                                ~
  |----3----|      |----3-----|
  q   q     q     +E  +S   S  E Q      E  E  E  E +Q       Q
|----------------------------------|------------8-(8)\--------------|
|----------------------------------|------8-----8-(8)\--------------|
|-7b9-7b9---7b9r==(7)-(7)--5-------|------8-----8-(8)\--------------|
|-----------------------------7-7--|-/10----10----------------------|
|----------------------------------|--------------------------------|
|----------------------------------|--------------------------------|
|
|                                                  |--3--| |--3--|
| Q       E     Q         +E    Q      E  E  E  E  E   E E E  E  E
|----------------------------------|--------------------------8--8--|
|----------------------------------|-------------------8-8-8--8--8--|
|---------------5---------(5)------|-------------------8-8-8-10-10--|
|---------------5---------(5)------|-----10----10-------------------|
|----------------------------------|--------------------------------|
|---------5---------------------0--|--/8-----8----------------------|


                                                  |-3--|
   W                            E  E  E  E +E  E  E E  E
|---------------------------|----------------------------|
|---------------------------|------8-----8-(8)-8-10p8----|
|---------------------------|------8-----8-(8)-8-10p8----|
|---------------------------|-/10----10---------------10-|
|---------------------------|----------------------------|
|---------------------------|----------------------------|
|
|  |-3-| |--3--|  |-3-|
|  E E E E  E  E  E E E E E     E  E  E  E  H
|--8--------8--8--8---------|----------------------------|
|--8-8-8-8--8--8--8-8-8-8---|----------------------------|
|-10-8-8-8-10-10-10-8-8-8---|----------------------------|
|---------------------------|-----10----10---------------|
|---------------------------|----------------------------|
|---------------------------|--/8-----8------------------|


   |-3--|  |-3--|       |--3--|
   E E  E  E E  E Q     E E   E
|-------------------------------|
|-10p8----10p8----8-------------|
|-10p8----10p8----8-------------|
|------10------10-------7p5-----|
|-----------------------------7-|
|-------------------------------|
|
|                 |-3-|
|  H              E E E E   E
|-------------------------------|
|-------------------------------|
|-------------------------------|
|-----------------x-x-x---------|
|-----------------x-x-x---------|
|-----------------x-x-x-1---0---|

w/Rhy Fig 1 (last 4 bars)
                     |--3--|                     |-3-|
   E E E E +E      E E E   E   E E E E +E      E E E E
|----------------------------|-------------------------|
|------7-5-(5)b5.5-----------|-----7-5-(5)b5.5---------|
|--5---7-5-(5)b5.5-----------|-5---7-5-(5)b5.5---------|
|----7-------------7-7p5-----|---7-------------7-7p5---|
|--------------------------7-|-----------------------7-|
|----------------------------|-------------------------|


                            |---3---|  |-3--| |--3--|
   Q   E E E E  E E    E  E E   E   E  E  E E E E   E
|-------------------|---------------5-----5------------||
|--5-----5---5----5-|--5--5-----5------8----8-5--------||
|--5-----5---5----5-|--5--5-7b9-----------------7---5--||
|-------------------|----------------------------------||
|-------------------|----------------------------------||
|-------------------|----------------------------------||


 Bridge
Rhy Fig 3 + Riff A w/Fill 1 on last bar

Verse 3
Rhy Fig 2 + 2A (1st 3 bars)


     A5
      |---3----|   |----3-----|
      Q      Q Q   Q  Q       Q
      |      | |   |  |       |
      /      / /   /  /       /

   a  E   Q.      +Q     +Q
|--------------------------------|
|--------14------(14)---(14)\----|
|--------------------------------|
|--------------------------------|
|-12-14-(14)-----(14)---(14)\----|
|--------------------------------|


Rhy Fig 2 + 2A


w/Rhy Fig 1A
  Gtr I
  E E E E Q  E E   Q   E E E E Q     E E E E E E a E E
|----------------|-----------------|--------------------|
|----------------|-------------5---|-----------5---5-5--|
|----------------|-------7---x-5---|-----------5-5h7----|
|---7---7------7-|-------7---x-5---|---7---7------------|
|----------------|-----------------|--------------------|
|-5---5------5---|-----5-----------|-5---5--------------|


           |---3---|
  a E E Q  Q Q   a Q     E E E E Q  E E   Q   E E E E E E
|---5-7-5--5-5---------|----------------|-----------------|
|---5---5--5-5---------|----------------|-------------5-0-|
|-5h7---7--7-7---5h7---|----------------|-------7---x-5---|
|----------------------|---7---7------7-|-------7---x-5---|
|----------------------|----------------|-----------------|
|----------------------|-5---5------5---|-----5-----------|


          |-3-|                                              |-Gtrs I + II
  E E E E E E E a    +E  +E    +Q     a    +E  +E  +E  E E E   E E E E H
|----------------------------|-------------------------------|--------------*|
|---------------7b8==(7)r(7)-|-(7)----7b8==(7)r(7)-(7)-------|--------------*|
|---------x-x-x-7b9==(7)r(7)-|-(7)----7b9==(7)r(7)-(7)-5-----|--------------*|
|---7---7-x-x-x--------------|---------------------------7p5-|---7---7------*|
|----------------------------|-------------------------------|--------------*|
|-5---5----------------------|-------------------------------|-5---5--------*|
comments
We did not receive enough feedback on this tab! Please rate:
print report bad tab
1 2 3 4 5
I want to post or [tab]
guest
You may want to rate the tab now too:
select rating
Please do not post tabs as comments. Select "correction" instead!