Oops, an error
Loading. Please wait.

Rebel Of Babylon Bass Tab

437 views 1 this week
no commentswrite comment
1 2 3 4 5
excellent!
x 2
Autoscroll
+/-
esc
set tempo
stop
Contributor
Difficulty
advanced
WARNING: You are trying to view
                                    content from Ultimate-Guitar.com
                                    in an unauthorized application,
                                    which is prohibited.

                                    Please use an official Ultimate
                                    Guitar Tabs application for iPhone,
                                    iPad or Android to access legitimate
                                    chords, guitar, bass, and drum tabs
                                    from Ultimate-Guitar.com database.

                                    Type "ultimate guitar tabs" in Apple
                                    App Store's or Android Market's
                                    search to find the application.
-------------------------------------------------------------------------------
                             Rebel of Babylon - Metallica
-------------------------------------------------------------------------------

Note:Another 5string song if u have 4 tune down 2 BEAD, and this intro is extremely 
quiet but i went off from what i saw live so deal with it, its close to 100% right so here 
it is rebel of babylon

Tabbed by: MetallicaDMRTL

Tuning: BEADG

Trujillo starts playing at the first long guitar strum

G|------------------------------|
D|-5h7-7-7--7-7-7--7-7-7--7-7-7-|
A|------------------------------| x2
E|------------------------------|
B|------------------------------|

G|-------------------------------------------|
D|-5h7-7-7--5h7-7-7--5h7-7-7--5h7-7-7--7-7-7-|
A|-------------------------------------------| x3
E|-------------------------------------------|
B|-------------------------------------------|

G|----------------------------------------------------------------------|
D|-5h7-7-7--5h7-7-7--5h7-7-7--5h7-7-7-----------------------------------|
A|----------------------------------------------------------------------|
E|-------------------------------------3h5-5-5--5-5-5--3h5-5-5--3h5-5-5-|
B|----------------------------------------------------------------------|

G|-----------------------------|
D|-----------------------------|
A|---------------5-5-----------| x3
E|-0-0-0-0-0--6------4--3-3-2/-|
B|-----------------------------|

G|-------------------------------|
D|-------------------------------|
A|-------------------------------|
E|-0-0-0-0-0--6--3p0-0-0-0-0-0-0-|
B|-------------------------------|

G|-----------------------------|
D|-----------------------------|
A|---------------5-5-----------| x3
E|-0-0-0-0-0--6------4--3-3-2/-|
B|-----------------------------|

G|-------------------------------|
D|-------------------------------|
A|-------------------------------|
E|-0-0-0-0-0--6--3p0-0-0-0-0-0-0-|
B|-------------------------------|

G|----------------------|---------------------|---------------------|
D|*---------------------|---------------------|---------------------|
A|----------------------|------1--------------|-1----4--------------|
E|*-0--0-3--0-0-0-0-0-0-|-3--0----0-0-0-0-0-0-|----0----0-0-0-0-0-0-|
B|----------------------|---------------------|---------------------|

G|------------------|
D|-----------------*|
A|-1-2-1-0-1-0------| x2
E|-------------3-2-*|
B|------------------|

G|---------------------|---------------------------------|
D|---------------------|---------------------------------|
A|---------------------|---------------------------------| x3
E|-0--0-3--0-0-0-0-0-0-|-0-0-0-0-0-0-0-0-0-0-0-0-0-0-0-0-|
B|---------------------|---------------------------------|

G|---------------------|---------------------------------|   pick the slide
D|---------------------|---------------------------------|   like the 0's
A|---------------------|---------------------------------|      before
E|-0--0-3--0-0-0-0-0-0-|-0-0-0-0-0-0-0-0-12\\\\\\\\\\\\5-|
B|---------------------|---------------------------------|

G|---------------------|---------------------|
D|---------------------|---------------------|
A|---------------------|------1--------------| x3
E|-0--0-3--0-0-0-0-0-0-|-3--0----0-0-0-0-0-0-|
B|---------------------|---------------------|

G|---------------------|-----------------|
D|---------------------|-----------------|
A|-1----4--------------|-1-2-1-0-1-0-----|
E|----0----0-0-0-0-0-0-|-------------3-2-|
B|---------------------|-----------------|

G|-----------------|-----------------|-----------------|-----------------|
D|-----------------|-----------------|-----------------|-----------------|
A|-----------------|-----------------|-----------------|-----------------| x2
E|-1-1-1-1-1-1-1-1-|-----------------|-----------------|-5-5-5-5-5-5-5-5-|
B|-----------------|-1-1-1-1-1-1-1-1-|-3-3-3-3-3-3-3-3-|-----------------|

G|----------------|-----------------|-------|------|---------|
D|----------------|-----------------|-------|------|---------|
A|----------------|-----------------|-------|------|-(0)-----|
E|-0--0-0-0-0-0-0-|-0-0-0-0-0-0-0-0-|-1-----|------|---------|
B|----------------|-----------------|-------|-3----|---------|

G|--------|-------------|-----------|-------------|------------|
D|--------|-------------|-----------|-------------|------------|
A|----3-2-|-------------|-3h5-5-----|-------------|--------3-2-|
E|--------|-5-5-5-5-5-3-|-------3h5-|-3-0-0-3-0-0-|-3h5-5------|
B|--------|-------------|-----------|-------------|------------|

G|-------------|-----------|-------------|-----------|
D|-------------|-----------|-------------|-----------|
A|-------------|-3h5-5-----|-------------|-------3-2-| x2
E|-5-5-5-5-5-3-|-------3h5-|-3-0-0-3-0-0-|-3h5-5-----|
B|-------------|-----------|-------------|-----------|

G|-------------|-----------|-------------|---------|
D|-------------|-----------|-------------|---------|
A|-------------|-3h5-5-----|-------------|---------|
E|-5-5-5-5-5-3-|-------3h5-|-3-r---------|-*-------|
B|-------------|-----------|-----1-------|-3-r-r-r-|

G|----------------------|---------------------|---------------------|
D|*---------------------|---------------------|---------------------|
A|----------------------|------1--------------|-1----4--------------|
E|*-0--0-3--0-0-0-0-0-0-|-3--0----0-0-0-0-0-0-|----0----0-0-0-0-0-0-|
B|----------------------|---------------------|---------------------|

G|------------------|
D|-----------------*|
A|-1-2-1-0-1-0------| x2
E|-------------3-2-*|
B|------------------|

G|---------------------|---------------------------------|
D|---------------------|---------------------------------|
A|---------------------|---------------------------------| x3
E|-0--0-3--0-0-0-0-0-0-|-0-0-0-0-0-0-0-0-0-0-0-0-0-0-0-0-|
B|---------------------|---------------------------------|

G|---------------------|---------------------------------|   pick the slide
D|---------------------|---------------------------------|   like the 0's
A|---------------------|---------------------------------|      before
E|-0--0-3--0-0-0-0-0-0-|-0-0-0-0-0-0-0-0-12\\\\\\\\\\\\5-|
B|---------------------|---------------------------------|

G|---------------------|---------------------|
D|---------------------|---------------------|
A|---------------------|------1--------------| x3
E|-0--0-3--0-0-0-0-0-0-|-3--0----0-0-0-0-0-0-|
B|---------------------|---------------------|

G|---------------------|-----------------|
D|---------------------|-----------------|
A|-1----4--------------|-1-2-1-0-1-0-----|
E|----0----0-0-0-0-0-0-|-------------3-2-|
B|---------------------|-----------------|

G|-----------------|-----------------|-----------------|-----------------|
D|-----------------|-----------------|-----------------|-----------------|
A|-----------------|-----------------|-----------------|-----------------| x2
E|-1-1-1-1-1-1-1-1-|-----------------|-----------------|-5-5-5-5-5-5-5-5-|
B|-----------------|-1-1-1-1-1-1-1-1-|-3-3-3-3-3-3-3-3-|-----------------|

G|----------------|-----------------|-------|------|---------|
D|----------------|-----------------|-------|------|---------|
A|----------------|-----------------|-------|------|-(0)-----|
E|-0--0-0-0-0-0-0-|-0-0-0-0-0-0-0-0-|-1-----|------|---------|
B|----------------|-----------------|-------|-3----|---------|

G|--------|-------------|-----------|-------------|------------|
D|--------|-------------|-----------|-------------|------------|
A|----3-2-|-------------|-3h5-5-----|-------------|--------3-2-|
E|--------|-5-5-5-5-5-3-|-------3h5-|-3-0-0-3-0-0-|-3h5-5------|
B|--------|-------------|-----------|-------------|------------|

G|-------------|-----------|-------------|-----------|
D|-------------|-----------|-------------|-----------|
A|-------------|-3h5-5-----|-------------|-------3-2-| x2
E|-5-5-5-5-5-3-|-------3h5-|-3-0-0-3-0-0-|-3h5-5-----|
B|-------------|-----------|-------------|-----------|

G|-------------|-----------|-------------|---------|
D|-------------|-----------|-------------|---------|
A|-------------|-3h5-5-----|-------------|---------|
E|-5-5-5-5-5-3-|-------3h5-|-3-r---------|-*-------|
B|-------------|-----------|-----1-------|-3-r-r-r-|

G|----------------------|---------------------|---------------------|
D|*---------------------|---------------------|---------------------|
A|----------------------|------1--------------|-1----4--------------|
E|*-0--0-3--0-0-0-0-0-0-|-3--0----0-0-0-0-0-0-|----0----0-0-0-0-0-0-|
B|----------------------|---------------------|---------------------|

G|------------------|
D|-----------------*|
A|-1-2-1-0-1-0------| x2
E|-------------3-2-*|
B|------------------|

G|-----------------------------|
D|-----------------------------|
A|---------------5-5-----------| x3
E|-0-0-0-0-0--6------4--3-3-2/-|
B|-----------------------------|

G|-------------------------------|
D|-------------------------------|
A|-------------------------------|
E|-0-0-0-0-0--6--3p0-0-0-0-0-0-0-|
B|-------------------------------|

G|-----------------------------|
D|-----------------------------|
A|---------------5-5-----------| x3
E|-0-0-0-0-0--6------4--3-3-2/-|
B|-----------------------------|

G|-------------------------------|
D|-------------------------------|
A|-------------------------------|
E|-0-0-0-0-0--6--3p0-0-0-0-0-0-0-|
B|-------------------------------|

G|---------------|    |---------|
D|---------------|    |---------|
A|---1-1-1---1-1-| x4 |---------|
E|-0-------0-----|    |---------|
B|---------------|    |-15///12-|

G|---------------|
D|---------------|
A|---1-1-1---1-1-| x4
E|-0-------0-----|
B|---------------|

G|------|-------|
D|------|-------|
A|------|-------| x2
E|-3--2-|-0-----|
B|------|-------|

G|---------------|
D|---------------|
A|---1-1-1---1-1-|
E|-0-------0-----|
B|---------------|

G|------|------|-------|
D|------|------|-------|
A|------|------|-------|
E|-0----|-3--2-|-0-----|
B|------|------|-------|

G|---------------|
D|---------------|
A|---1-1-1---1-1-| x2
E|-0-------0-----|
B|---------------|

G|-----------------------------|
D|-----------------------------|
A|---------------5-5-----------| x3
E|-0-0-0-0-0--6------4--3-3-2/-|
B|-----------------------------|

G|-------------------------------|
D|-------------------------------|
A|-------------------------------|
E|-0-0-0-0-0--6--3p0-0-0-0-0-0-0-|
B|-------------------------------|

G|-----------------------------|
D|-----------------------------|
A|---------------5-5-----------| x3
E|-0-0-0-0-0--6------4--3-3-2/-|
B|-----------------------------|

G|-------------------------------|
D|-------------------------------|
A|-------------------------------|
E|-0-0-0-0-0--6--3p0-0-0-0-0-0-0-|
B|-------------------------------|

G|----------------------|
D|----------------------|
A|------------3-2-3-0-3-| x2
E|-2-2-2-2-2------------|
B|----------------------|

G|----------------------|
D|----------------------|
A|------------3-2-3-2-0-|
E|-2-2-2-2-2------------|
B|----------------------|

G|----------------------|
D|----------------------|
A|------------3-2-0-----|
E|-2-2-2-2-2--------3-2-|
B|----------------------|

G|--------|---------|---------|-----------|
D|--------|---------|---------|-----------|
A|--------|---------|---------|-----------| x2
E|--------|---------|---------|-----------|
B|-5------|-(5)-----|-4-------|-(4)-------|

G|---------|---------|
D|---------|---------|
A|---------|---------| x2
E|---------|---------|
B|-5-5-5---|-5-5-4---|

G|--------------|----------|--------------|------------|
D|--------------|----------|--------------|------------|
A|--------------|----------|--------------|------------|
E|-0-0-0-0-3--3-|----------|--------------|------------|
B|--------------|-5h6h7h8\-|-4-4-4-4-7--7-|-4h5h6h7h8\-|

G|---------------|
D|---------------|
A|---------------| x5
E|---------------|
B|-5-5--5-5--5-5-|

G|---------------|
D|---------------|
A|---------------|
E|---------------|
B|-5-5--5-5------|

G|---------------------------|
D|---------------------------|        Bend the 2 also (everytime)
A|-------1--0-------1--0-----| x3
E|-0-0-0------3---0------3-2-|
B|---------------------------|

G|-------------------|
D|-------------------|
A|-------------------|
E|-0-0-0--0-0-0--0-0-|
B|-------------------|

G|---------------------------|
D|---------------------------|        Bend the 2 also (everytime)
A|-------1--0-------1--0-----| x3
E|-0-0-0------3---0------3-2-|
B|---------------------------|

G|-------------------|
D|-------------------|
A|-------------------|
E|-0-0-0--0-0-0--0-0-|
B|-------------------|

G|----------------------|---------------------------------|
D|*---------------------|---------------------------------|
A|----------------------|---------------------------------|
E|*-0--0-3--0-0-0-0-0-0-|-0-0-0-0-0-0-0-0-0-0-0-0-0-0-0-0-|
B|----------------------|---------------------------------|

G|---------------------|------------------------------|
D|---------------------|-----------------------------*|
A|---------------------|------------------------------| x2
E|-0--0-3--0-0-0-0-0-0-|-0-0-0-0-0-0-0-0---0---0---0-*|
B|---------------------|------------------------------|

G|---------------------|---------------------|
D|---------------------|---------------------|
A|---------------------|------1--------------| x3
E|-0--0-3--0-0-0-0-0-0-|-3--0----0-0-0-0-0-0-|
B|---------------------|---------------------|

G|---------------------|-----------------|
D|---------------------|-----------------|
A|-1----4--------------|-1-2-1-0-1-0-----|
E|----0----0-0-0-0-0-0-|-------------3-2-|
B|---------------------|-----------------|

G|-----------------|-----------------|-----------------|-----------------|
D|-----------------|-----------------|-----------------|-----------------|
A|-----------------|-----------------|-----------------|-----------------| x2
E|-1-1-1-1-1-1-1-1-|-----------------|-----------------|-5-5-5-5-5-5-5-5-|
B|-----------------|-1-1-1-1-1-1-1-1-|-3-3-3-3-3-3-3-3-|-----------------|

G|----------------|-----------------|-------|------|
D|----------------|-----------------|-------|------|
A|----------------|-----------------|-------|------|
E|-0--0-0-0-0-0-0-|-0-0-0-0-0-0-0-0-|-1-----|------|
B|----------------|-----------------|-------|-3----|

G|-------------|-----------|-------------|------------|
D|-------------|-----------|-------------|------------|
A|-------------|-3h5-5-----|-------------|--------3-2-|
E|-5-5-5-5-5-3-|-------3h5-|-3-0-0-3-0-0-|-3h5-5------|
B|-------------|-----------|-------------|------------|

G|-------------|-----------|-------------|-----------|
D|-------------|-----------|-------------|-----------|
A|-------------|-3h5-5-----|-------------|-------3-2-| x2
E|-5-5-5-5-5-3-|-------3h5-|-3-0-0-3-0-0-|-3h5-5-----|
B|-------------|-----------|-------------|-----------|

G|-------------|-----------|-------------|---------|
D|-------------|-----------|-------------|---------|
A|-------------|-3h5-5-----|-------------|---------|
E|-5-5-5-5-5-3-|-------3h5-|-3-r---------|-*-------|
B|-------------|-----------|-----1-------|-3-r-r-r-|

G|----------------------|---------------------|---------------------|
D|*---------------------|---------------------|---------------------|
A|----------------------|------1--------------|-1----4--------------|
E|*-0--0-3--0-0-0-0-0-0-|-3--0----0-0-0-0-0-0-|----0----0-0-0-0-0-0-|
B|----------------------|---------------------|---------------------|

G|------------------|
D|-----------------*|
A|-1-2-1-0-1-0------| x2
E|-------------3-2-*|
B|------------------|

G|-----------------|
D|-----------------|
A|-0---------------|
E|---3-2-1-3-2-1-0-|
B|-----------------|

G|--------------|---------------|
D|--------------|---------------|
A|--------------|-5-5-----------| x3
E|-0-0-0-0-0--6-|-----4--3-3-2\-|
B|--------------|---------------|

G|--------------|-------------|
D|--------------|-------------|
A|--------------|-1-1-1---1-1-|
E|-0-0-0-0-0--6-|-------0-----|
B|--------------|-------------|

G|--------------|---------------|
D|--------------|---------------|
A|--------------|-5-5-----------| x3
E|-0-0-0-0-0--6-|-----4--3-3-2\-|
B|--------------|---------------|

G|---------------|
D|---------------|
A|---1-1-1---1-1-| x3
E|-0-------0-----|
B|---------------|

And there it is Rebel of Babylon, a little complicated but fun none the less enjoi btw 
the last part u can do this (optional)

G|---------------|
D|---------------|
A|---1-1-1---1-1-| x2
E|-0-------0-----|
B|---------------|

G|---------------|
D|---8-8-8---8-8-|
A|-7-------7-----|
E|---------------|
B|---------------|

or u could even do a 3 octave jump just sayin so the last bars:

G|---------------|
D|---------------|
A|---1-1-1---1-1-|
E|-0-------0-----|
B|---------------|

G|---------------|
D|---8-8-8---8-8-|
A|-7-------7-----|
E|---------------|
B|---------------|

G|----15-15-15----15-15-|
D|-14----------14-------|
A|----------------------|
E|----------------------|
B|----------------------|

sounds cooler in my opinion and so u know if u follow me through ultimateguitar.com i 
will be working on redo's of shitty songs in the future from metallica's list, so 
keep on rocking!!!

    MetallicaDMRTL

                         \m/Metallica\m/
comments
We did not receive enough feedback on this tab! Please rate:
1 2 3 4 5
I want to post or [tab]
guest
You may want to rate the tab now too:
select rating
Please do not post tabs as comments. Select "correction" instead!