Oops, an error
Loading. Please wait.

Reload Bass Tab

4,162 views 3 this week
no commentswrite comment
1 2 3 4 5
accurate
x 4
Autoscroll
+/-
esc
set tempo
stop
Hey! There's an official Ultimate Guitar app which is ideal
for learning songs when you're away from computer. Get the app
WARNING: You are trying to view
                                    content from Ultimate-Guitar.com
                                    in an unauthorized application,
                                    which is prohibited.

                                    Please use an official Ultimate
                                    Guitar Tabs application for iPhone,
                                    iPad or Android to access legitimate
                                    chords, guitar, bass, and drum tabs
                                    from Ultimate-Guitar.com database.

                                    Type "ultimate guitar tabs" in Apple
                                    App Store's or Android Market's
                                    search to find the application.
Metallica
Re-load

Tune bass down ½ step

Fuel

Time 4/4
beat 208

Gimme Fuel, Gimme Fire, gimme that wich I desire, ohoo. Eb:-0-

Fig.1
                                                     1.
Gb:-------------------------------------------------|-----------------:
Db:-------------------------------------------------|-----------------:
Ab:-------------------------------------------------|-----------------:
Eb:-3p0-0-3p0-0-3p0-3p0-0-3p0-0-3p0-3p0-0-3p0-0-3p0-|-3/5-5-5-5-3-3h5-:

						     2.
						    |-----------------:
						    |-----------------:
						    |-----------------:
						    |-3/5-5-5-5-3-0-3-:
                                                              end Fig.1

Fig.2:
:--------------------------------------------------------:
:--------------------------------------------------------:
:--------------------------------------------------------:
:-5-5--5-5-5--5-5-5--5-5-5--5-5-5--5-5-5--5-5-5--5-5-5-3-: end Fig.2

Riff.1:
:---------------------------------:
:---------------------------------:
:---------------------------------:
:-3p0-0-3p0-0-3p0-3p0-0-3p0-0-3p0-: end Riff.1
             Yeah...

1° and 3° Verses:
:--------------------------------|--------------------------------|
:--------------------------------|--------------------------------|
:--------------------------------|--------------------------------|
:-0------------------------------|-3--------------------------(3)/|

|--------------------------------|----------------------------------|
|--------------------------------|----------------------------------|
|---------------------7---5------|(5)-------------------------------|
|-0---------------0--------------|-------------6--5-------3---------|

|--------------------------------|--------------------------------|
|--------------------------------|--------------------------------|
|--------------------------------|---------------------5----------|
|-0---------------------------3-/|-7---------------7-------7---7--|

|--------------------------------|--------------------------------|
|--------------------------------|--------------------------------|
|---------------------4----------|--------------------------------|
|-6---------------6-------6---6--|-5---5-------5---5---0---3---0--|

|--------------------------------|--------------------------------|
|--------------------------------|--------------------------------|
|--------------------------------|--------------------------------|
|-5---5-------5---5---5-------5--|-5---5-------5---5---5-------5--|

|--------------------------------|--------------------------------|
|--------------------------------|--------------------------------|
|--------------------------------|--------------------------------|
|-5---5-------5---5---5-------5--|-5-------5-------5---5---3---0--|

|--------------------------------|--------------------------------:
|--------------------------------|--------------------------------:
|--------------------------------|--------------------------------:
|-3-p-0---0---3-p-0---0---3-p-0--|-3-p-0---0---3-p-0---0---3-p-0--:

2° and 4° Verses:
:--------------------------------|----------------------------------|
:--------------------------------|----------------------------------|
:--------------------------------|----------------------------------|
:-0------------------------------|-3--------------------------(3----|

|--------------------------------|--------------------------------|
|--------------------------------|--------------------------------|
|--------------------------------|--------------------------------|
|-0-----------------------0---0--|-0---0-------0-------0---5-h-7--|

|--------------------------------|--------------------------------|
|--------------------------------|--------------------------------|
|--------------------------------|---------------------5----------|
|-0---------------------------3-/|-7---------------7-------7---7--|

|--------------------------------|--------------------------------|
|--------------------------------|--------------------------------|
|---------------------4----------|--------------------------------|
|-6---------------6-------6---6--|-5---5-------5---5---0---3---0--|

|--------------------------------|--------------------------------|
|--------------------------------|--------------------------------|
|--------------------------------|--------------------------------|
|-5---5-------5---5---5-------5--|-5---5-------5---5---5-------5--|

|--------------------------------|--------------------------------|
|--------------------------------|--------------------------------|
|--------------------------------|--------------------------------|
|-5---5-------5---5---5-------5--|-5---5-------5---5---5-------5--|

|--------------------------------|--------------------------------|
|--------------------------------|--------------------------------|
|--------------------------------|--------------------------------|
|-3-p-0---0---3-p-0---0---3-p-0--|-3-p-0---0---3-p-0---0---3-p-0--|

|--------------------------------|--------------------------------:
|--------------------------------|--------------------------------:
|--------------------------------|--------------------------------:
|-3-p-0---0---3-p-0---0---3-p-0--|-3---4---5---6---7---7---7---7--:

Chorus (Start Fig.3):
:--------------------------------|--------------------------------|
:--------------------------------|--------------------------------|
:--------------------------------|--------------------------------|
:-0---0---0---0---0---0---0---0--|-0---0---0---0---0---0---3---4--|

|--------------------------------|--------------------------------|
|--------------------------------|--------------------------------|
|--------------------------------|--------------------------------|
|-5---5---5---5---5---5---5---5--|-5---5---5---5---5---5---5---0--|

|--------------------------------|--------------------------------|
|--------------------------------|--------------------------------|
|--------------------------------|--------------------------------|
|-3---3---3---3---3---3---3---3--|-3---3---3---3---3---3---3---4--|

|--------------------------------|--------------------------------|
|--------------------------------|--------------------------------|
|--------------------------------|--------------------------------|
|-5---5---5---5---5---5---5---5--|-5---5---5---5---5---5---3---3--|

|--------------------------------|--------------------------------|
|--------------------------------|--------------------------------|
|--------------------------------|--------------------------------|
|-0---0---0---0---0---0---0---0--|-0---0---0---0---0---0---3---4--|

|--------------------------------|--------------------------------|
|--------------------------------|--------------------------------|
|--------------------------------|--------------------------------|
|-5---5---5---5---5---5---5---5--|-5---5---5---5---5---5---6---7--|

|--------------------------------|--------------------------------|
|--------------------------------|--------------------------------|
|--------------------------------|--------------------------------|
|-8---8---8---8---8---8---7---7--|-8---8---8---8---8---8---7---7--|

                      (end Fig.3)
|--------------------------------|--------------------------------|
|--------------------------------|--------------------------------|
|-5---5---5---5---5---5---5---5--|-5---5---5---5---5---5---5---5--|
|--------------------------------|--------------------------------|

|--------------------------------|--------------------------------|
|--------------------------------|--------------------------------|
|--------------------------------|--------------------------------|
|-3-p-0---0---3-p-0---0---3-p-0--|-3-p-0---0---3-p-0---0---3-p-0--|
                                                           So gimme

|--------------------------------|--------------------------------:
|--------------------------------|--------------------------------:
|--------------------------------|--------------------------------:
|-0------------------------------|--------------------------------:
 fuel,     gimme    fire,   gimme that wich I desire.

Coda 1:
:--------------------------------|--------------------------------|
:--------------------------------|--------------------------------|
:--------------------------------|--------------------------------|
:-0------------------------------|--------------------------------|

 Repeat Fig.1
 Repeat Fig.2
 Repeat Riff.1     End Coda 1


Verse 3
Verse 4
Repeat Chorus until Coda 1 (excluded)

Substitute Coda 1 with:

Coda 2:
:--------------------------------|--------------------------------|
:--------------------------------|--------------------------------|
:--------------------------------|--------------------------------|
:--------------------------------|--------------------------------|
 Ooh,                             Yeah.

|--------------------------------|--------------------------------|
|*-------------------------------|--------------------------------|
|*-------------------------------|--------------------------------|
|-0---0---0---3-----------0------|-0-------0-------0-------0------|

                                                           4 times
|--------------------------------|--------------------------------|
|--------------------------------|-------------------------------*|
|--------------------------------|----------------->-------------*|
|-0---0---0---3-----------0------|-0-------0-------3--------------|

|--------------------------------|--------------------------------|
|*-------------------------------|--------------------------------|
|*-------------------------------|--------------------------------|
|-5---5---5---3-----------0---0--|-3-------0---0---0-------0------|

                                  1.2.3.
|--------------------------------|--------------------------------|
|--------------------------------|-------------------------------*|
|--------------------------------|-------------------------------*|
|-5---5---5---3-----------0---0--|-3-----------3---3-------0------|

                                  4.
                                 |--------------------------------|
                                 |--------------------------------|
                                 |--------------------------------|
                                 |-3-----------------------0---0--|

|--------------------------------|--------------------------------|
|--------------------------------|--------------------------------|
|--------------------------------|--------------------------------|
|-5---5-------5---5---5-------5--|-5---5-------5---5---5-------5--|

                                                               (4)
|--------------------------------|--------------------------------|
|--------------------------------|-------------------------------*|
|--------------------------------|-------------------------------*|
|-5---5-------5---5---5-------5--|-5---5---5---5---5---5---3---3--|

|--------------------------------|--------------------------------|
|*-------------------------------|--------------------------------|
|*-------------------------------|--------------------------------|
|-3-p-0---0---3-p-0---0---3-p-0--|-3-p-0---0---3-p-0---0---3-p-0--|

|--------------------------------|--------------------------------|
|--------------------------------|-------------------------------*|
|--------------------------------|-------------------------------*|
|-3-p-0---0---3-p-0---0---3-p-0--|-3-/-5---5---5---5---3---3-h-5--|

|--------------------------------|--------------------------------|
|*-------------------------------|--------------------------------|
|*-------------------------------|--------------------------------|
|-0---0---0---3-----------3---3--|-0---0---0---3-----------3---3--|

                                  1.
|--------------------------------|--------------------------------|
|--------------------------------|-------------------------------*|
|--------------------------------|-------------------------------*|
|-0---0---0---3-------3---3---3--|-3-/-5---5---5---5---3---3-h-5--|

                                  2.
                                 |--------------------------------|
                                 |--------------------------------|
                                 |--------------------------------|
                                 |-3-----------2-----------1------|

|--------------------------------|--------------------------------|
|--------------------------------|--------------------------------|
|--------------------------------|--------------------------------|
|-3-p-0---0---3-p-0---0---3-p-0--|-3-p-0---0---3-p-0---0---3-p-0--|

|--------------------------------|--------------------------------|
|--------------------------------|-------------------------------*|
|--------------------------------|-------------------------------*|
|-3-p-0---0---3-p-0---0---3-p-0--|-3-/-5---5---5---5---3---3-h-5--|

Repeat Fig.3
Repeat Fig.3 (first 12 bars) then:

|--------------------------------|--------------------------------|
|--------------------------------|--------------------------------|
|--------------------------------|--------------------------------|
|-8---8---8---8---8---8---7---7--|-8---8---7---7---8-------7-h-8--|

|--------------------------------|--------------------------------|
|--------------------------------|--------------------------------|
|-5---5---5---5---7-p-5---5---7-p|-5---7-p-5---5---5---5---5---5--|
|--------------------------------|--------------------------------|

|--------------------------------|--------------------------------|
|--------------------------------|--------------------------------|
|--------------------------------|--------------------------------|
|-3-p-0---0---3-p-0---0---3-p-0--|-3-p-0---0---3-p-0---0---3-p-0--|

|--------------------------------|--------------------------------|
|--------------------------------|--------------------------------|
|--------------------------------|--------------------------------|
|-0------------------------------|--------------------------------|

|--------------------------------|--------------------------------|
|--------------------------------|--------------------------------|
|--------------------------------|--------------------------------|
|-3-p-0---0---3-p-0---0---3-p-0--|-3-p-0---0---3-p-0---0---3-p-0--|

|--------------------------------|--------------------------------|
|--------------------------------|--------------------------------|
|--------------------------------|--------------------------------|
|-3-p-0---0---3-p-0---0---3-p-0--|-3-/-5---5---5---5---3---3-h-5--|

|--------------------------------|--------------------------------|
|--------------------------------|--------------------------------|
|--------------------------------|--------------------------------|
|-5---5-------5---5---5-------5--|-5---5-------5---5---5-------5--|

|--------------------------------|--------------------------------|
|--------------------------------|--------------------------------|
|--------------------------------|--------------------------------|
|-5---5-------5---5---5-------5--|-5---5-------5---5---5-------3--|

|--------------------------------:
|--------------------------------:
|--------------------------------:
|-0------------------------------: End.


The memory remains

|-----------------|-----------------|-----------------|-----------------|
|------REST-------|------REST-------|------REST-------|-----------------|
|-----------------|-----------------|-----------------|-----------------|
|-----------------|-----------------|-----------------|-1---------------|


|-----------------|-----------------|-----------------|-----------------|
|-----------------|-----------------|-----------------|-----------------|
|---------7-------|------------/7---|---------7-------|------------/5---|
|-0---0---0-------|-0-----0-3-0-----|-0---0---0-------|-0-----0-3-0-----|


|-----------------|-----------------|-----------------|-----------------|
|-----------------|-----------------|-----------------|-----------------|
|---------7-------|------------/7---|---------2---2-2-|-7-------------7-|
|-0---0---0-------|-0-----0-3-0-----|-3---3-3---------|-0---------------|


|-----------------|
|-----------------|
|---7-5-4-5-7-5---|
|---------------7-|


|-----------------|-----------------|-----------------|-----------------|
|-----------------|-----------------|-----------------|-----------------|
|---------7-------|------------/7---|--------7--------|------------/5---|
|-0---0---0-------|-0-----0-3-0-----|-0---0--0--------|-0-----0-3-0-----|


|-----------------|-----------------|-----------------|-----------------|
|-----------------|-----------------|-----------------|-----------------|
|---------7-------|------------/7---|---------2---2-2-|---------7-------|
|-0---0---0-------|-0-----0-3-0-----|-3---3-3---------|-0---0---0-------|


|-----------------|-----------------|-----------------|-----------------|
|-----------------|-----------------|-----------------|-----------------|
|------------/7---|---------7-------|------------/5---|---------7-------|
|-0-----0-3-0-----|-0---0---0-------|-0-----0-3-0-----|-0---0---0-------|


|-----------------|-----------------|-----------------|-----------------|
|-----------------|-----------------|-----------------|-----------------|
|------------/7---|---------2---2-5-|-7---------------|-5-7-5-4-5-7-5---|
|-0-----0-3-0-----|-3---3-3---------|-0---------------|---------------7-|


|-----------------|-----------------|-----------------|-----------------|
|-----------------|-----------------|-----------------|-----------------|
|-5-7-----7-------|-5-7-----7-------|-5-7-----7-------|-5-------5-------|
|-----0-0-----0-0-|-----0-0-----0-0-|-----0-0-----0-0-|---3---3---3---3-|


|-----------------|-----------------|-----------------|-----------------|
|-----------------|-----------------|-----------------|-----------------|
|-5-7-----7-------|-5-7-----7-------|-5-7-----7---5---|-----------------|
|-----0-0-----0-0-|-----0-0-----0-0-|-----0-0---------|-1---------------|


|-----------------|-----------------|-----------------|-----------------|
|-----------------|-----------------|-----------------|-----------------|
|---------7-------|------------/7---|---------7-------|------------/5---|
|-0---0---0-------|-0-----0-3-0-----|-0---0---0-------|-0-----0-3-0-----|


|-----------------|-----------------|-----------------|-----------------|
|-----------------|-----------------|-----------------|-----------------|
|---------7-------|------------/7---|---------2---2-5-|-7-------------7-|
|-0---0---0-------|-0-----0-3-0-----|-3---3-3---------|-0---------------|


|-----------------|
|-----------------|
|-5-7-5-4-5-7-5---|
|---------------7-|


|-----------------|-----------------|-----------------|-----------------|
|-----------------|-----------------|-----------------|-----------------|
|---------7-------|------------/7---|---------7-------|------------/5---|
|-0---0---0-------|-0-----0-3-0-----|-0---0---0-------|-0-----0-3-0-----|


|-----------------|-----------------|-----------------|-----------------|
|-----------------|-----------------|-----------------|-----------------|
|---------7-------|------------/7---|---------2---2-2-|---------7-------|
|-0---0---0-------|-0-----0-3-0-----|-3---3-3---------|-0---0---0-------|


|-----------------|-----------------|-----------------|-----------------|
|-----------------|-----------------|-----------------|-----------------|
|------------/7---|---------7-------|------------/5---|---------7-------|
|-0-----0-3-0-----|-0---0---0-------|-0-----0-3-0-----|-0---0---0-------|


|-----------------|-----------------|-----------------|-----------------|
|-----------------|-----------------|-----------------|-----------------|
|------------/7---|---------2---2-5-|-7---------------|-5-7-5-4-5-7-5---|
|-0-----0-3-0-----|-3---3-3---------|-0---------------|---------------7-|


|-----------------|-----------------|-----------------|-----------------|
|-----------------|-----------------|-----------------|-----------------|
|-5-7-----7-------|-5-7-----7-------|-5-7-----7-------|-5-------5-------|
|-----0-0-----0-0-|-----0-0-----0-0-|-----0-0-----0-0-|---3---3---3---3-|


|-----------------|-----------------|-----------------|--------10-------|
|-----------------|-----------------|-----------------|----10------10---|
|-5-7-----7-------|-5-7-----7-------|-5-7-----7---5/--|-8---------------|
|-----0-0-----0-0-|-----0-0-----0-0-|-----0-0---------|-----------------|


|---------12------|-----------------|-----------------|-----------------|
|-----12------12--|-----------------|-----------------|---------5-------|
|-10--------------|---------7-------|-2---2---2h3-2---|-------------2h3-|
|-----------------|-0---0-------0---|-----------------|-3---3-----------|


|-----------------|-----------------|-----------------|-----------------|
|-----7-------4---|-----------------|-----------------|---------5-------|
|-5-------2-------|---------7-------|-2---2---2h3-2---|-------------2h3-|
|-----------------|-0---0-------0---|-----------------|-3---3-----------|


|-----------------|-----------------|-----------------|-----------------|
|-----7-------4---|-----------------|-----------------|---------5-------|
|-5-------2-------|---------7-------|-2---2---2h3-2---|-------------2h3-|
|-----------------|-0---0-------0---|-----------------|-3---3-----------|


|-----------------|-----------------|-----------------|-----------------|
|-----7-------4---|-----------------|-----------------|---------5-------|
|-5-------2-------|---------7-------|-2---2---2h3-2---|-------------2h3-|
|-----------------|-0---0-------0---|-----------------|-3---3-----------|


|-----------------|
|-----7-------4---|
|-5-------2-------|
|-----------------|

                                                                        3x
|------------------|-----------------|-----------------|------------------|
|o-----------------|-----------------|-----------------|-----------------o|
|o-5-7-----7-------|-5-7-----7-------|-5-7-----7-------|-5-------5-------o|
|------0-0-----0-0-|-----0-0-----0-0-|-----0-0-----0-0-|---3---3---3---3--|


|-----------------|-----------------|-----------------|-----------------|
|-----------------|-----------------|-----------------|-----------------|
|-5-7-----7-------|-5-7-----7-------|-5-7-----7---5---|-----------------|
|-----0-0-----0-0-|-----0-0-----0-0-|-----0-0---------|-1---------------|


                  |-----------------|-----------------|
                  |------REST-------|------REST-------|
                  |-----------------|-----------------|
                  |-----------------|-----------------|


|-----------------|-----------------|-----------------|------------------|
|-----------------|-----------------|-----------------|------------------|
|-----------------|-----------------|-----------------|------------------|
|-3-3-3-3-3-3-3-3-|-3-3-3-3-3-3-3-3-|-3-3-3-3-3-3-3-3-|-3-3-3-3-3-3-3-3--|
 p.m.--------------------------------------------------------------------|gradually release the palm mute

|-----------------|-----------------|-----------------|-----------------|
|-----------------|-----------------|-----------------|-----------------|
|---------7-------|------------/7---|---------7-------|------------/5---|
|-0---0---0-------|-0-----0-3-0-----|-0---0---0-------|-0-----0-3-0-----|


|-----------------|-----------------|-----------------|-----------------|
|-----------------|-----------------|-----------------|------REST-------|
|---------7-------|------------/7---|---------7-------|-----------------|
|-0---0---0-------|-0-----0-3-0-----|-0---0---0---1-1-|-----------------|


|-----------------|-----------------|-----------------|-----------------|
|-----------------|-----------------|-----------------|-----------------|
|---------7-------|------------/7---|---------7-------|------------/5---|
|-0---0---0-------|-0-----0-3-0-----|-0---0---0-------|-0-----0-3-0-----|


|-----------------|--------10-------|---------12------|
|-----------------|----10------10---|-----12------12--|
|---------7-------|-8---------------|-10--------------|
|-0---0---0-------|-----------------|-----------------|


                                                                        4x
|------------------|-----------------|-----------------|------------------|
|o-----------------|-----------------|---------5-------|-----7-------4---o|
|o---------7-------|-2---2---2h3-2---|-------------2h3-|-5-------2-------o|
|--0---0-------0---|-----------------|-3---3-----------|------------------|


|-----------------|
|-9---------------|
|-7---------------|
|-0---------------|

devil's dance

Time 4/4
beat 96

Intro:
:--------------------------------|----------------------------------|
:*-------------------------------|----------------------------------|
:*-------------------------------|----------------------------------|
:-6------0-------0-------0---3--|-0-------0---5---3---0---3---5-----|

                                                            4 times
|--------------------------------|--------------------------------|
|--------------------------------|-------------------------------*|
|--------------------------------|-------------------------------*|
|-0-------0-------0-------0---3--|-0-------0---5---3---0---3---5--|

|--------------------------------|----------------------------------|
|--------------------------------|----------------------------------|
|--------------------------------|----------------------------------|
|-6------0-------0-------0---3--|-0-------0-------0-------0---3-----|

|--------------------------------|----------------------------------|
|--------------------------------|*---------------------------------|
|--------------------------------|*---------------------------------|
|-0-------0---5---3---0---3---5--|-6------0-------0-------0---3-----|

                           2 times
|--------------------------------|--------------------------------|
|-------------------------------*|--------------------------------|
|-------------------------------*|--------------------------------|
|-0-------0---5---3---0---3---5--|-0-------0-------0-------0---3--|

|--------------------------------|----------------------------------|
|--------------------------------|----------------------------------|
|--------------------------------|----------------------------------|
|-0-------0---5---3---0---3---5--|-6------0-------0-------0---3-----|

|--------------------------------|--------------------------------|
|--------------------------------|--------------------------------|
|--------------------------------|--------------------------------|
|-0-------0---5---3---0---3---5--|-0-------0-------0-------0---3--|

|--------------------------------:
|--------------------------------:
|--------------------------------:
|-0-------0---5--b3---0--b3---0--: end Intro

Verse 1, 2, 3:
                           3 times
:--------------------------------|--------------------------------|
:*------------------------------*|--------------------------------|
:*------------------------------*|--------------------------------|
:-0-0-0-0----0-0-0-0-0--0--0--0--|-0-0-0-0----0-0-0-0-0-b5-----3--|

|--------------------------------|--------------------------------|
|--------------------------------|--------------------------------|
|--------------------------------|--------------------------------|
|-3-3-3-3------3-3-3-3--3--3--3--|-3-3-3-3------3-3-3-3--3--3--3--|

|--------------------------------|--------------------------------|
|--------------------------------|--------------------------------|
|--------------------------------|--------------------------------|
|-0-0-0-0----0-0-0-0-0--0--0--0--|-0-0-0-0----0-0-0-0-0-00--0--0--|

|--------------------------------|--------------------------------|
|--------------------------------|--------------------------------|
|--------------------------------|--------------------------------|
|-3-3-3-3------3-3-3-3--3--3--3--|-2-2-2-2------2-2-2-2-2--2-2-2--|

|--------------------------------|----------------------------------| end
|--------------------------------|----------------------------------|
|--------------------------------|----------------------------------| V.
|-6------0-------0-------0---3--|-0-------0---5--b3---0--b3---0-----|

3rd time substitute 6°bar with:  |--------------------------------|
                                 |--------------------------------|
    You must consider the first  |--------------------------------|
    bar is repeats for 3 bars    |-3-3-3-3------3-3-3-3-b5-----3--|

    and substitute 10°bar with:  |--------------------------------|
                                 |-----------------------/-7---7--|
                                 |---------------------4---0---0--|
                                 |-2---2---2---2---2--------------|

Chorus 1:
                                                            2 times
:--------------------------------|--------------------------------|
:*-------------------------------|-------------------------------*|
:*-------------------------------|-------------------------------*|
:-6-6---6-6----6-6-6-6--6--5--3--|-0---0---3-------3-------0---3--|

|--------------------------------|--------------------------------|
|--------------------------------|--------------------------------|
|--------------------------------|--------------------------------|
|-6-6---6-6----6-6-6-6--6--5--3--|-0---0---3-------3-------0---3--|

|--------------------------------|----------------------------------|
|--------------------------------|----------------------------------|
|--------------------------------|----------------------------------|
|-6------------------------------|-6------0-------0-------0---3-----|

|--------------------------------|--------------------------------|
|--------------------------------|--------------------------------|
|--------------------------------|--------------------------------|
|-0-------0---5---3---0---3---5--|-0-------0-------0-------0---3--|

|--------------------------------:
|--------------------------------:
|--------------------------------:
|-0-------0---5--b3---0--b3---0--: end Chorus 1

Play Verse 2

Chorus 2:
                                                            2 times
:--------------------------------|--------------------------------|
:*-------------------------------|-------------------------------*|
:*-------------------------------|-------------------------------*|
:-6-6---6-6----6-6-6-6--6--5--3--|-0---0---3-------3-------0---3--|

|--------------------------------|--------------------------------|
|--------------------------------|--------------------------------|
|--------------------------------|--------------------------------|
|-6-6---6-6----6-6-6-6--6--5--3--|-0---0---3-------3-------0---3--|

|--------------------------------|--------------------------------|
|--------------------------------|*-------------------------------|
|--------------------------------|*-------------------------------|
|-6------------------------------|-0-0-0-0-0------0-0----0-0------|

                           2 times
|--------------------------------:
|-------------------------------*:
|-------------------------------*:
|-0-0-0-0-0------0-0----0-0----0-: end Chorus 2

Guitar Solo:
                           4 times                          4 times
:--------------------------------|--------------------------------:
:*------------------------------*|*------------------------------*:
:*------------------------------*|*------------------------------*:
:-3-3-3-3------3-3-3-3--3--3--3--|-0-0-0-0----0-3------0---0---0--:

Chorus:
                                                            2 times
:--------------------------------|--------------------------------|
:*-------------------------------|-------------------------------*|
:*-------------------------------|-------------------------------*|
:-6-6---6-6----6-6-6-6--6--5--3--|-0---0---3-------3-------0---3--|

|--------------------------------|--------------------------------|
|--------------------------------|--------------------------------|
|--------------------------------|--------------------------------|
|-6-6---6-6----6-6-6-6--6--5--3--|-0---0---3-------3-------0---3--|

|--------------------------------:
|--------------------------------:
|--------------------------------:
|-5------------------------------: end Chorus

Fill 1:
                                                            3 times
:--------------------------------|----------------------------------|
:*-------------------------------|----------------------------------|
:*-------------------------------|----------------------------------|
:-6------0-------0-------0---3--|-0-------0---5---3---0---3---5-----|

|--------------------------------|----------------------------------|
|--------------------------------|----------------------------------|end
|--------------------------------|----------------------------------|
|-6------0-------0-------0---3--|-6---------------5---5-------------|Fill

Play Verse 3

Last Chorus:
                                                            2 times
:--------------------------------|--------------------------------|
:*-------------------------------|-------------------------------*|
:*-------------------------------|-------------------------------*|
:-6-6---6-6----6-6-6-6--6--5--3--|-0---0---3-------3-------0---3--|

|--------------------------------|--------------------------------|
|--------------------------------|--------------------------------|
|--------------------------------|--------------------------------|
|-6-6---6-6----6-6-6-6--6--5--3--|-0---0---3-------3-------0---3--|

|--------------------------------|----------------------------------|
|--------------------------------|----------------------------------|
|--------------------------------|----------------------------------|
|-6------------------------------|-6------0-------0-------0---3-----|

|--------------------------------|--------------------------------|
|--------------------------------|--------------------------------|
|--------------------------------|--------------------------------|
|-0-------0---5--b3---0--b3---0--|-6-6---6-6----6-6-6-6--6--5--3--|

|--------------------------------|--------------------------------:
|--------------------------------|--------------------------------:
|--------------------------------|--------------------------------:
|-0---0---3-------3-------0---3--|-6------------------------------: end

the unforgiven II

Intro:

Gb:-------------------------------------------------------------|
Db:--------------------------------------------------5----------|
Ab:-------------------------------------------------------------|
Eb:--5--5-5-5/8-8-8--3--3-3-0--0-0--5--5-5/8-8-8-83---0--0-0----|

Guitar part

Fig.1: (words only for 1st verse)

Gb:------------------------------------- -------------------------------|
Db:------------------------------------- ----------------------5--5-5---|
Ab:--------------------------------7---- ------------------5-7----------|
Eb:--5--5-5-7-8---8--75-3--3-0--0----0- -5--5-5-7-8-8-8-----------------|
  Lay beside me...                       And speak the words...

Gb:----------------- ------------------------------------ --------------|
Db:-7-5------------- ------------------------------------ --------------|
Ab:-----7--7-7--5--- -------------------------------7---- --------------|
Eb:---------------7- -5--5-5-7-8---8--75-3--3-0--0----0- 5--5-5-7-8-8---|
                     The door is locked now...            If you can...
Gb:--------:
Db:--------:
Ab:---5--7-:
Eb:-8------: end Fig.1
  the me...

Variation 1: (for 1st verse only)

Gb:---------------------------- ------------------------------------ --|
Db:-5--5-5--5h7p5-------------- ------------------------------------ --|
Ab:---------------7--7---7-5--- ------------------------------------ --|
Eb:--------------------------7- -5--5-5-7-8-8-83--3-3-0-0-0-00-0-3- ---|
  then I can understand the you...

Gb:-------------------------------------------------------|
Db:-----7-7---------5----5--------------------------------|
Ab:--------------------------7-7-7-7----------------------|
Eb:-5-5-----8-8-83--3-3---0---------0-3-: end Variation 1-|

Repeat Fig.1 x 1 (for 2nd verse)
Variation 2:

Gb:-------------------------- ------------------------------ -----------|
Db:-5--5-5--5h7p5------------ ------------------------------ -----------|
Ab:---------------7--7--7--6- -5-5-5-5--------------------- ------------|
Eb:-------------------------- ---------0--1-0--1--1--1--1-1- -3-3-3-3---|
            but there's no...

Gb:--------------------:
Db:--------------------:
Ab:--------------------:
Eb:-1-1-1-1-1-1-3-3--5-: end Variation 2

Chorus:

Gb:---------------------------------------------------------------------|
Db:---------------------------------------------------------------------|
Ab:---------------------------------------------------------------------|
Eb:-5--5-5-5--5-5-5-5-5--5-5-7--7-7-7-8-8-8-8-8-8-8-8-8-8-8-8-8-8-8-7-7-|
   What I've felt_ what I've know...

Gb:------------------------------------------------------------------|
Db:------------------------------------------------------------------|
Ab:--------------------------------------------------/10-7-7-/10-7-7-|
Eb:-5--5-5-5--5-5-5-5-5--5-5-3-3-3-3/8-8-8-8-8-8-8-8-----------------|
  Behind the door...

Gb:---------------------------------------------------------------------|
Db:---------------------------------------------------------------------|
Ab:---------------------------------------------------------------------|
Eb:-5--5-5-5--5-5-5-5-5--5-5-7--7-7-7-8-8-8-8-8-8-8-8-8-8-8-8-8-8-8-7-7-|
   What I've felt_ what I've know...

Gb:------------------------------------------------------------------:
Db:------------------------------------------------------------------:
Ab:------------------------------------------------------------------:
Eb:-5--5-5-5--5-5-5-5-5--5-5-3-3-3-3/8-8-8-8-8-8-8-8-8-8-8-8-8-7-0-3-:
  Could you be there?...                          ...unforgiven too?...

Coda 1:

Gb:---------------------------------------------------------------------|
Db:----------------------------------------------------------------5----|
Ab:---------------------------7-7---------------------------------------|
Eb:-5--5-5-7-8--8--83--3-3-0-----0-3-5-5--5-5-7-8-8--8--75-3-3-3--3-3---|

Gb:---------------------:
Db:---------------------:
Ab:-------------5/7-5---:
Eb:-0-0-0-0-0-0-------7-:

Repeat Fig.1 x 1
Repeat Variation 2 x 1
Repeat Chorus x 1

Guitar solo:

Gb:---------------------------------------------------------------------|
Db:---------------------------------------------------------------------|
Ab:---------------------------------------------------------------------|
Eb:-5--5-5-7-8--8--83--3-3-3-0-0-0-0-0-3-5-5--5-5-5-7-8-8--8-8-75-3-3---|

Gb:------------------------ -------------------------------------------|
Db:------------------------ -------------------------------------------|
Ab:------------------------ -------------------------------------------|
Eb:-3-3-3-5-0--0-0-0-0-0-3- 5-5-5-5-5-5-5-5-5-5-5-7-7-7-7-8-8--8-8-8-8-|

Gb:---------------------------------------------------------------------|
Db:---------------------------------------------------------------------|
Ab:---------------------------------------------------------------------|
Eb:-8-8-8-8-8-8-8-8-8-7-7--5--5-5-5-5-5-5-5-5-5-5-3-3-3-3/8-8-8-8-8-8-8-|

Gb:--------------------: :----------------------------------------------|
Db:--------------------: :-----------------------5-5--------------------|
Ab:----/10-7-7-/10-7-7-: :----------------------------------7-7---------|
Eb:-8------------------: :-5-5-5-5-7-8-8-8-8-83-----53-0------0-3-5-5---|

Gb:-------------------------------------------------------|
Db:-------------------------5-5---------------------------|
Ab:-----------------------------------/7-----7------------|
Eb:-5-5-5-7-8-8--8-8--83-3-----53-0------0----: End Solo--|

3th Verse without bass
Repeat Chorus x 1, until "'cause I'm one who waits..."
   where the bassline is:

Ending part:

Gb:---------------------------------------------------------------------|
Db:---------------------------------------------------------------------|
Ab:---------------------------------------------------------------------|
Eb:-8--8-8-8--8--8-8--8-8-8-8-8-8-8-8-8-8-8-8-5--5-5-5--5-5-5-5-5-5-5-7-|
...the one who waits for you...               What I've felt...

Gb:---------------------------------------------------------------------|
Db:---------------------------------------------------------------------|
Ab:---------------------------------------------------------------------|
Eb:-7-7-7-8-8--8-8-8-8-8-8-8--8-8-8-8--8-8-7-7--5--5-5-5--5-5-5-5-5-5-5-|

Gb:----------------------------------------------- --------------------|
Db:----------------------------------------------- --------------------|
Ab:------------------------------------7---------- --------------------|
Eb:-3-3-3-3/8--8-8-8-8--8-8-8--8-8-8-8---8-8--8-8- 5--5-5-5--5-5-5-5-5-|
						   What I've felt...

Gb:---------------------------------------------------------------------|
Db:---------------------------------------------------------------------|
Ab:--------------------------------7-------7----------------------------|
Eb:-5-5-7--7-7-7-8-8-8-8-8-8-8-8-8---8-7-8---8-7--5-5-5-5-5-5-5-5-5-5-5-|
						 I take this Key...

Gb:---------------------------------------------------------------------|
Db:---------------------------------------------------------------------|
Ab:---------------------------------------------------------------------|
Eb:-3-3-3-3/8-8-8-8-8--8--8-8-8-8-8--75-5--5-5-5--7-7-7-7-7--5-5-5-5-5--|

Gb:----------------------------------:
Db:----------------------------------:
Ab:-5-5---5--5-5---------------------:
Eb:---------------5-5----3-3-------3-: End
                     Oh, ho  oh....

Better than you

|-----------------|-----------------|-----------------|-----------------|
|------REST-------|------REST-------|------REST-------|------REST-------|
|-----------------|-----------------|-----------------|-----------------|
|-----------------|-----------------|-----------------|-----------------|

                                    3x
|------------------|------------------|-----------------|-----------------|
|o-------REST------|--------REST-----o|-----------------|-----------------|
|o-----------------|-----------------o|-----------------|-----------------|
|------------------|------------------|-0-0-0-0-0-0-0-0-|-0-0-0-0-0-0-0-0-|

                       1.2.3.___________ 4._______________
|---------------------|-----------------|--------------------|
|o--------------------|-----------------|--------------------|
|o-10----(10)7-------|-7-------5-6-7---|-7-------7-5---------|
|--0--0-0-0---0-0-0-0-|-0-0-0-0-0-0-0-0-|-0-0-0-0-----7-5----|


|------------------|-----------------|-----------------|-----------------|
|o-----------------|-----------------|-----------------|-----------------|
|o-----------------|-----------------|-----------------|-7---------------|
|--3-----3---3---3-|-5-----5---5---0-|-3-------0-0-0-0-|-0-0-0-0-3-4-5-0-|


|-----------------|-----------------|-----------------|-----------------|
|-----------------|-----------------|-----------------|-----------------|
|-----------------|-----------------|-----------------|-7---------------|
|-3-----3---3---3-|-5-----5---5---0-|-3-------0-0-0-0-|-0-0-0-0-3-4-5-0-|


|-----------------|-----------------|-----------------|-----------------|
|-----------------|-----------------|-----------------|-----------------|
|-----------------|-----------------|-3-----3---3-3-3-|-5-5-5-5-5-5-5-2-|
|-3-----3---3---3-|-5-----5---5---0-|-----------------|-----------------|


|-----------------|-----------------|-----------------|-------------------|
|-----------------|-----------------|-----------------|-------------------|
|-----------------|-----------------|-----------------|-------------------|
|-3---3-3---3-3-3-|-5-5-5-5---5-5-3|-1---1-1-1---1---|-3------------------|


|-----------------|-----------------|-----------------|-------------------|
|-----------------|-----------------|-----------------|-------------------|
|---------7-------|-7-------5-6-7---|---------7-------|-7-------5-6-7-----|
|-3------0-0-0-0-|-0-0-0-0-0-0-0-0-|-3------0-0-0-0-|-0-0-0-0-0-0-0-0-----|

                                                       1.________________ 2._______________
|-----------------|-----------------|-----------------|------------------|----------------|
|-----------------|-----------------|-----------------|-----------------o|----------------|
|---------7-------|-7-------5-6-7---|---------7-------|-5-------5-------o|-7-------7------|
|-3------0-0-0-0-|-0-0-0-0-0-0-0-0-|-3------0-0-0-0-|---7-5-0---7-5-0--|-0-0-0-0-0-0-0-0--|


|-----------------|-----------------|-----------------|-----------------|
|-----------------|-----------------|-----------------|-----------------|
|-0---------------|-----------------|-0---------------|-----------------|
|---2-----0-2-----|-2-2---2-2-2-2-2-|---2-----0-2-----|-0-------1-------|


|-----------------|-----------------|-----------------|-----------------|
|-----------------|-----------------|-----------------|-----------------|
|-0---------------|-----------------|-0---------------|-----------------|
|---2-----0-2-----|-2-2---2-2-2-2-2-|---2-----0-2-----|-0-------1-------|


|-----------------|-----------------|-----------------|-----------------|
|-----------------|-----------------|-----------------|-----------------|
|-2---------------|-----------------|-2---------------|-----------------|
|---4-4-4-4-4---4-|-4-4-4-4-4-4-4-4-|---4-4-4-4-4---4-|-2-------3-------|


|-----------------|-----------------|-------------------------|--------------------|
|-----------------|-----------------|-------------------------|--------------------|
|-2---------------|-----------------|-------------------------|--------------------|
|---4-4-4-4-4---4|-3--2--1-1-1-1/|-16-16-16-16-16-16-16-16-|-16------3-4-5---------|


|-----------------|-----------------|-----------------|-------------------|
|-----------------|-----------------|-----------------|-------------------|
|-----------------|-----------------|-----------------|-------------------|
|-3------0-0-0-0-|-0-0-0-0-3-4-5-0-|-3------0-0-0-0-|-0-0-0-0-3-4-5-0-----|


|-----------------|-----------------|-----------------|-------------------|
|-----------------|-----------------|-----------------|-------------------|
|-----------------|-----------------|-----------------|-------------------|
|-3------0-0-0-0-|-0-0-0-0-3-4-5-0-|-3------0-0-0-0-|-0-0-0-0-0-5-7-5-----|

                                                        1.________________
|------------------|-----------------|-----------------|--------------------|
|o-----------------|-----------------|-----------------|-----------------o--|
|o-----------------|-----------------|-----------------|-----------------o--|
|--3-----3---3---3-|-5-----5---5---0-|-3------0-0-0-0-|-0-0-0-0-0-5-7-5-----|

 2._______________
|-----------------|-----------------|-----------------|-----------------|
|-----------------|-----------------|-----------------|-----------------|
|-----------------|-----------------|-----------------|-3-----3---3-3-3-|
|-0-0-0-0-0-3-5-0-|-3-----3---3-3-3-|-5-----5---5-5-5-|-----------------|


|-----------------|-----------------|-----------------|-----------------|-----------------|
|-----------------|-----------------|-----------------|-----------------|-----------------|
|-5-5-5-5-5-5-5-2-|-----------------|-----------------|-----------------|-----------------|
|-----------------|-3-3-3-3-3-3-3-3-|-5-5-5-5-5-5-5-0-|-1-1-1---1-1-1-2-|-3---------------|


|-----------------|-----------------|-----------------|-----------------|
|-----------------|-----------------|-----------------|-----------------|
|-0---------------|-----------------|-0---------------|-----------------|
|---2-----0-2-----|-2-2---2-2-2-2-2-|---2-----0-2-----|-0-------1-------|


|-----------------|-----------------|-----------------|-----------------|
|-----------------|-----------------|-----------------|-----------------|
|-0---------------|-----------------|-0---------------|-----------------|
|---2-----0-2-----|-2-2---2-2-2-2-2-|---2-----0-2-----|-0-------1-------|


|-----------------|-----------------|-----------------|-----------------|
|-----------------|-----------------|-----------------|-----------------|
|-2---------------|-----------------|-2---------------|-----------------|
|---4-4-4-4-4---4-|-4-4-4-4-4-4-4-4-|---4-4-4-4-4---4-|-2-------3-------|


|-----------------|-----------------|-------------------------|----------------------|
|-----------------|-----------------|-------------------------|----------------------|
|-2---------------|-----------------|-------------------------|----------------------|
|---4-4--2-4----|-3--2--1-1-1-1/|-16-16-16-16-16-16-16-16-|-16-16-14--3-4-5----------|

                                                                        4x
|------------------|-----------------|-----------------|--------------------|
|o-----------------|-----------------|-----------------|-----------------o--|
|o---------7-------|-7-------5-6-7---|---------7-------|-7-------5-6-7---o--|
|--3------0-0-0-0-|-0-0-0-0-0-0-0-0-|-3------0-0-0-0-|-0-0-0-0-0-0-0-0------|


|-----------------|-----------------|-----------------|-----------------|
|-----------------|-----------------|-----------------|-----------------|
|-----------------|-----------------|-----------------|-----------------|
|-3---------------|-(3)-------------|-(3)-------------|-(3)-----3-4-5---|

                                                                        7x
|------------------|-----------------|-----------------|--------------------|
|o-----------------|-----------------|-----------------|-----------------o--|
|o---------7-------|-7-------5-6-7---|---------7-------|-7-------5-6-7---o--|
|--3------0-0-0-0-|-0-0-0-0-0-0-0-0-|-3------0-0-0-0-|-0-0-0-0-0-0-0-0------|

slither

Intro
|----------------|
|----------------|
|----------------|
|-7-6-4~--6-5-3~-|

|-----------------------|
|-----------------------|
|-----------------------|
|-7-6-4~--6-5-3~-3-3-0R-|

|-----------|
|-----------|
|-----------|
|-0~~-7-6-5-|

Riff 1
|----------------------------------|
|----------------------------------|
|-6-66----6-66----6-66-------------|
|------p5------p5-------p5-7-6-5-4-|

Riff 2
|-------------------------------------------------|
|-------------------------------------------------|
|--1------------1------------1------------1-------|
|-0--0-3-5-3-5-0--0-3-5-3-5-0--0-3-5-3-5-0--0-3-1-|

Riff 3
|---------------------|
|---------------------|
|---------------------|
|-0-1-00-1-0-1-00-0-1-|

|-----------------------------|
|-----------------------------|
|-2-3-22-3-2-3-22-2-3---------|
|---------------------7-6-5-4-|

Riff 4
|-----------------------------------------------------|
|-----------------------------------------------------|
|-----------------------------------------------------|
|-4-4-4-4-4-4-4-6-5-3-3-3-3-3-3-3-7-6-5-5-5-5-5-5-5-5-|

|---------------------------------|
|---------------------------------|
|---------------------------------|
|-5-4-3-3-3-3-3-3-XX-3-XX-3-XX-2~-|

Riff 5
|------------------------------------|
|------------------------------------|
|-6-66-----6-66-----6-66-------------|
|------5^0------5^0------5^0-7-6-5-4-|

Riff 6
|--------------------------------------------------------------------|
|--------------------------------------------------------------------|
|--------------------------------------------------------------------|
|-4-4-4-4-4-4-4-4-4-4-4-4-4-4-4-4-4-4-4-4-4-4-4-4-4-4-4-4-4-4-4-/16\-|

Riff 7
|----------------------------------------------------|
|----------------------------------------------------|
|-------1-3-1-3-------1-3-1-3-------1-3-1-3------3-1-|
|-0-3-0---------0-3-0---------0-3-0---------0-3-0----|

Riff 8
|----------------------|
|----------------------|
|-1-3-------1-3--------|
|-----0-00-1---0-00-1--| x2

Riff 9
|---------------------------------------------|
|---------------------------------------------|
|---------------------------------------------|
|-3-3-3-3-3-3-4-4-4-4-4-4-5-5-5-5-5-7-7-7-7-7-|

|---------------------------------------------|
|---------------------------------------------|
|-3-3-3-3-3-3-5-5-5-5-5-5-7-7-7-7-7-9-9-9-9-9-|
|---------------------------------------------|

carpe diem baby

Intro (bass entrance 00:19):

Gb:--------------------------------------------------------------------|
Db:--------------------------------------------------------------------|
Ab:----5----5---5-----7------5----5------------------------5---5---5---|
Eb:-/7---5----3---0-0-0--0/7---5----3-0-b(3)--0-0-0--0-0/7---5---3---0-|

Gb:-------------------------------------------------:
Db:-------------------------------------------------:
Ab:-----7-----5----5------------------------------7-:
Eb:-0-0-0--/7---5----3-0-b(3)--0-0-0---0----0-------: end Intro
                                              Yeah
Verse:

Gb:--------------------------------------------------------------------|
Db:----------------------7-------------------------------------------7-|
Ab:-5h7------5h7------5-----5--5-7-8--3--3--3---5h7------5h7------5----|
Eb:----0-0-0----0-0-0------------------------------0-0-0----0-0-0------|

Gb:----------------------------------------------------------------:
Db:-----------------------------------------7----------------------:
Ab:-5--5-7-8--3--3--3---5h7------5h7------5----5-5------3-3-3-3-3/-:
Eb:------------------------0-0-0----0-0-0----------0-1-------------:E.V

Prechorus:

Gb:--------------------------------------------------------------------|
Db:--------------------------------------------------------------------|
Ab:--------------------------------------------------------------------|
Eb:-7-7--7-6-6--6-3-3--3-2-2-2--0--0--0--0--0--0--0--0--0--7-7--7-6-6--|

Gb:---------------------------------------------------------------------|
Db:--------------------------------------------7--7-------5-5-----------|
Ab:------------------------------5/7-7-7-7-7-7-5--5-5-7-8-3-3-3-3-3-3-3-|
Eb:-6-3-3--3-2-0-2h3-0--0--0--0--0---0-0-0-0-0--------------------------|

Gb:---------------------------------:
Db:---------------------------------:
Ab:-7-7-----7-7-----7-7-----7-7-----:
Eb:-0-0-0-0-0-0-0-0-0-0-0-0-0-0-0-0-: end Prechorus

Chorus:

Gb:--------------------------------------------------------------|
Db:--------------------------------------------------------------|
Ab:------------------------------7-7-----7-7-----7-7-----7-7-----|
Eb:-0--0-0-2--2-2/5-5--5-5-5-5-5-0-0-0-0-0-0-0-0-0-0-0-0-0-0-0-0-|  x2

Gb:------------------------------------------------------------:
Db:------------------------------------------------------------:
Ab:------------------------------------------------------------: end
Eb:-0--0-0-2--2-2/5-5-5-5-5-5-5-5-5--5-----5----5--5-5-5-5---7-: Chorus

Coda 1:

Gb:--------------------------------------------------------------------|
Db:--------------------------------------------------------------------|
Ab:---------------7----5---5---5------7------5---5---------------------|
Eb:-8--8-8-8\0--0-0/7----5---3----0-0-0--0/7---5---3-0-b(3)-0-0-0-0-0--|

Gb:----------------------------------------------------------:
Db:----------------------------------------------------------:
Ab:-----5---5---5------7------5---5------------------------7-: end
Eb:-/7----5---3----0-0-0--0/7---5---3-0-b(3)-0-0-0--0---0----: Coda 1

Repeat Verse for 2nd verse
Repeat Prechorus
Repeat Chorus

Coda 2:

Gb:-------------------------------------------------------------------|
Db:-------------------------------------------------------------------|
Ab:-------------------------------------7--7-------7--7-------7--7----|
Eb:-8---8--8--8-8-8-8-8-8-8-8-8-8-8-7-5-0--0-------0--0-------0--0----|

Gb:------------------ -------------------------------------------------|
Db:------------------ -------------------------------------------------|
Ab:-7--7--7-6-5------ -------/7----------/7---------/7----5------3-----|
Eb:-0--0-------7-6-5- -0--0-0---0-0---0-0---0-0--0-0--0-0---5--5---3-2-|

Gb:----------------------------------------------:
Db:----------------------------------------------:
Ab:------/7--------/7--------/7----5-----3-------:
Eb:-0-3-0--0-0--0-0--0-0--0-0--0-0---5-5---3-2-0-: end Coda 2

Guitar Solo:

Gb:----------------------------------------------------|
Db:----------------------------------------------------|
Ab:--------/7----------/7----------/7-----5------3-----|
Eb:-0-3-0-0---0-0---0-0---0-0---0-0---0-0---5--5---3-2-|   x4

Gb:---------------------------------------------------------|
Db:---------------------------------------------------------|
Ab:-------------------------------------------5-----3-3-----|
Eb:-7--7-7-8--7-7-0--0-0-8--7-7-0--0-0-8--7-7---5-------3-2-|   x2

Gb:------------------------------------------- ------------------------|
Db:------------------------------------------- ------------------------|
Ab:------10---------11---------10---------7\0- ------10p7-10p7---------|
Eb:-0--0-------0--0-------0--0-------0--0---0- ----------------(0)-----|

Gb:--------------------------------------------------------------------|
Db:---------------------------12/14-14-14\-----------------------------|
Ab:---5/7-7-10/12-12-12/14-14----------------7-------5----5---5--------|
Eb:---------------------------------------0--0---/7----5----3----0--0--|

Gb:--------------------------------------------------------------------|
Db:--------------------------------------------------------------------|
Ab:-7-------5----5-------------------------5----5---5---------7--------|
Eb:-0--0/7----5----3-0-b(3)--0-0-0--0-0/7----5----3----0--0-0-0---/7---|

Gb:------------------------------------:
Db:------------------------------------:
Ab:-5----5---------------------------7-:
Eb:---5----3-0-b(3)--0-0-0--0----0-----: end Solo

For 3rd verse play this:

Gb:--------------------------------------------------------------------|
Db:------------------7-------------------------------------------------|
Ab:------------------5---5---5-7-8--3--3-3-3-3--5h7-----5p2-5/7--------|
Eb:-0----------------------------------------------0-0----------0-0-00-|

Gb:---------------------------------------------------------------------|
Db:-7-------------------------------------------------7-----------------|
Ab:-5---5---5-7-8--3--3-3-3-3--5h7-----5p2-5/7--------5--5-5-----3-3-3--|
Eb:-------------------------------0-0----------0-0-00--------0-1--------|
                                                     -  end 3rd verse -

Repeat prechorus

Then the last chorus is:

Gb:--------------------------------------------------------------|
Db:--------------------------------------------------------------|
Ab:------------------------------7-7-----7-7-----7-7-----7-7-----|
Eb:-0--0-0-2--2-2/5-5--5-5-5-5-5-0-0-0-0-0-0-0-0-0-0-0-0-0-0-0-0-|  x2

Gb:--------------------------------------------------------------------|
Db:-------------------------------------------------------------5--5---|
Ab:-------------------------------------------------------------3--3---|
Eb:-0--0-0-2--2-2/5-5-5-5-5-5-5-5-5--5-----5--3h4-5-5-5-5-5-5-7--------|

Gb:--------------------------- ----------------------------------------|
Db:-----5--------------------- ----------------------------------------|
Ab:-3-3-3-3-3-3-3-3-3-3-3-3-2- -----------3----------------------------|
Eb:--------------------------- -5--5--5-5---5-5-5-0-3-1--1-1-1-1-1-1-1-|

Gb:------------- ------------------------------------------------------|
Db:------------- ------------------------------------------------------|
Ab:------------- -------7-------5---5---5--------7------5---5----------|
Eb:-1-1-1/3-3-3- -0--0--0---/7----5---3---0--0-0-0--/7----5---3-0-b(3)-|

Gb:--------------------------------------------------------------------|
Db:--------------------------------------------------------------------|
Ab:--------------5----5---5---------7-------5---5----------------------|
Eb:-0-0-0--0-0/7---5----3----0--0-0-0---/7----5---3-0-7-7-7-6-6--6-3-3-|

Gb:-----------------------------------------------------:
Db:-----------------------------------------------------:
Ab:-----------7-7-----7-7-----7-7-----7-7---------7-----:
Eb:-3-2-2--2--0-0-0-0-0-0-0-0-0-0-0-0-0-0-0-0-0-0-0-0-0-:

Bad seed


            	          Figure 1  Repeat 4X
G||     ||-4h6-4-----------4h6-4------------||
D||  R  ||o------6-4-2-----------6-4-2---2-o||
A||     ||o------------4-4-------------4---o||
E||     ||----------------------------------||


                     Figure 2    Repeat 3X
 ||----------------||-----------------------||
 ||----------------||o---------------------o||
 ||----------------||o---------------------o||
 ||00-0-0-0-0-00 R0||-0-0-0-0-0-0-2h3-2-4-2-||


                       Figure 3 Repeat 8X
 ||-----------------|| ||------------|| ||----        ----||
 ||-----------------|| ||o----------o|| ||----Figure 1----||
 ||-----------------|| ||o----------o|| ||----        ----||
 ||00-0-0-0-33333333|| ||-0-0-0-2h30-|| ||----        ----||


                             Figure 4
 ||----------------------------------------|| ||----        ----||
 ||----------------------------------------|| ||----Figure 2----||
 ||----------------------------------------|| ||----        ----||
 ||0-0-0-0-0---1-1-1-1-1---2-2-2-2-22221111|| ||----        ----||

 ||-----------------|| ||----        ----|| ||----	       ----||
 ||-----------------|| ||----Figure 3----|| ||----Figure 1----||
 ||-----------------|| ||----        ----|| ||----        ----||
 ||00-0-0-0-33333333|| ||----        ----|| ||----	       ----||


 ||----        ----|| ||----        ----|| ||-----------------------||
 ||----Figure 4----|| ||----Figure 2----|| ||-----------------------||
 ||----        ----|| ||----        ----|| ||-----------------------||
 ||----        ----|| ||----        ----|| ||0-0-0-0-0-0-0-0-0-0-0-0||

  solo                                    end of solo
 ||----        ----|| ||----        ----||     ||----        ----||
 ||----Figure 2----|| ||----Figure 1----||     ||----Figure 4----||
 ||----        ----|| ||----        ----||     ||----        ----||
 ||----        ----|| ||----        ----||     ||----        ----||

 ||----        ----|| ||------------||
 ||----Figure 2----|| ||------------||
 ||----        ----|| ||------------||
 ||----        ----|| ||000000000000||

 ||---------------------------------------------||
 ||---------------------------------------------||
 ||---------------------------------------------||
 ||-00-0-0-0-0-0-2h3-2-4-2-0-0-0-0-0-0-2h3-2-4-0||

where the wild things are

beat 92

Intro:
2/4              4/4
|----------------|----------------------------------|
|----------------|----------------------------------|
|-7------(7)-3--|(3)--------------------------------|
|----------------|----------------------------------|
|----------------|----------------------------------|

                                 2/4
|--------------------------------|----------------|
|--------------------------------|----------------|
|(3)-----------------------------|----------------|
|--------------------------------|----------------|
|--------------------------------|----------------|

4/4
|--------------------------------|--------------------------------|
|--------------------------------|--------------------------------|
|--------------------------------|--------------------------------|
|--------------------------------|--------------------------------|
|--------------------------------|--------------------------------|

|--------------------------------|----------------------------------|
|--------------------------------|----------------------------------|
|-7------(7)-3------------------|(3)---------------(3)/-------------|
|--------------------------------|----------------------------------|
|--------------------------------|----------------------------------|

|--------------------------------|--------------------------------|
|--------------------------------|--------------------------------|
|--------------------------------|--------------------------------|
|--------------------------------|--------------------------------|
|--------------------------------|--------------------------------|

|--------------------------------|------------------------------------|
|--------------------------------|------------------------------------|
|--------------------------------|------------------------------------|
|--------------------------------|----------------1212121010-----|(12-|
|--------------------------------|------------------------------------|

|Fig.1
|--------------------------------|--------------------------------|
|--------------------------------|--------------------------------|
|--------->----------------------|--------->----------------------|
|-1---0---0-------0-0-0-0-1-1-1-1|-1---0---0-------0-0-0-0-1-1-1-1|
|--------------------------------|--------------------------------|

|--------------------------------|--------------------------------|
|--------------------------------|--------------------------------|
|--------->----------------------|--------->----------------------|
|-1---0---0-------0-0-0-0-1-1-1-1|-1---0---0-------0-0-0-0/3-3-3-3|
|--------------------------------|--------------------------------|

                                 2/4     end Fig.1|
|--------------------------------|----------------|
|--------------------------------|----------------|
|--------->----------------------|----------------|
|-3---0---0-------0-0-0-0/3-3-3-3|-3---0---0------|
|--------------------------------|----------------|

Verse 1, 2:
|Fig.2                  end Fig.2|
|--------------------------------|
|--------------------------------|
|-----------------h-p------------| x 10
|-0-3-3-3-3-3-3-3-353-0-0-3p0-0-0|
|--------------------------------|

|Fig.3                                                   end Fig.3|
|--------------------------------|--------------------------------|
|-7-7---7-7-7-7-7-6-6---6-6-6-6-6|-3-3---3-3-3-3-3----------------|
|-5-5---5-5-5-5-5-4-4---4-4-4-4-4|-1-1---1-1-1-1-1----------------|
|--------------------------------|-----------------0h3-3-3-3-3-3-3|
|--------------------------------|--------------------------------|

PreChorus:
|--------------------------------|--------------------------------|
|-7-7---7-7-7-7-7-6-6---6-6-6-6-6|-3-3---3-3-3-3-3----------------|
|-5-5---5-5-5-5-5-4-4---4-4-4-4-4|-1-1---1-1-1-1-1----------------|
|--------------------------------|-----------------0h3-3-3-3-3-3-3|
|--------------------------------|--------------------------------|

|Fig.4                           2/4
|--------------------------------|----------------|
|-7-7---7-7-7-7-7-6-6---6-6-6-6-6|-9-------5------|
|-5-5---5-5-5-5-5-4-4---4-4-4-4-4|-7-------3------|
|--------------------------------|----------------|
|--------------------------------|----------------|

4/4                                                      end Fig.4|
|--------------------------------|----------------------------------|
|(5)---------(5)/10--------------|-9----------(9)-5-----------------|
|(3)---------(3)/----------------|----------------------------------|
|-----------------8--------------|-7----------(7)-3-----------------|
|--------------------------------|----------------------------------|

Chorus:
2/4              4/4
|----------------|-----------------5----------------|
|----------------|----------------------------------|
|-7------(7)-3--|(3)--------------------------------|
|----------------|----------------------------------|
|----------------|----------------------------------|

                                 2/4
|--------------------------------|------------------|
|--------------------------------|------------------|
|-----------------3--------------|-7------(7)-3-----|
|---------------------0---1--(1)/|------------------|
|-1------------------------------|------------------|

4/4
|-----------------5--------------|--------------------------------|
|--------------------------------|--------------------------------|
|(3)-----------------------------|-----------------3-------3-2-0--|
|--------------------------------|--------------------------------|
|--------------------------------|-1------------------------------|

2/4              4/4
|----------------|-----------------5----------------|
|----------------|-----------------5----------------|
|-7------(7)-3--|(3)--------------------------------|
|----------------|----------------------------------|
|----------------|----------------------------------|

                                 2/4
|--------------------------------|------------------|
|-----------------5p0------------|------------------|
|-----------------------7/8------|-7------(7)-3-----|
|--------------------------------|------------------|
|-1------------------------------|------------------|

4/4
|--------------------------------|--------------------------------|
|--------------------------------|--------------------------------|
|(3)-----------------------------|(3)-----------------------------|
|--------------------------------|-------------------------1-1-1-1|
|--------------------------------|-----------------------1/-------|

Repeat Fig.1

Coda 1:
                                 2/4
|--------------------------------|----------------|
|--------------------------------|-----------/10--|
|-----------------3--------------|-7--------------|
|---------------------0---1--(1)/|----------------|
|-1------------------------------|----------------|

4/4
|--------------------------------|----------------------------------|
|(10)----------------------------|(10)------------------------------|
|--------------------------------|----------------------------------|
|--------------------------------|-----------------------81-1-1-1---|
|--------------------------------|----------------------------------|

Guitar Solo:
                               x 3
|--------------------------------|--------------------------------|
|*------------------------------*|--------------------------------|
|*------------------------------*|--------------------------------|
|-1---0---0-------0-0-0-0-1-1-1-1|-1---0---0-------0-0-0-0/3-3-3-3|
|--------------------------------|--------------------------------|

                               x 4                              x 3
|--------------------------------|----------------------------------|
|*------------------------------*|*---------------------------------|
|*------------------------------*|*---------------------------------|
|-3p0-3---3-------3-3-3-0-3-3-3-3|-3---0---0------12------3-3-3-3---|
|--------------------------------|----------------------------------|

2/4              4/4
|----------------|--------------------------------|
|----------------|-7-7---7-7-7-7-7-6-6---6-6-6-6-6|
|----------------|-5-5---5-5-5-5-5-4-4---4-4-4-4-4|
|-3---0---0------|--------------------------------|
|----------------|--------------------------------|

|--------------------------------|--------------------------------|
|-3-3---3-3-3-3-3----------------|-7-7---7-7-7-7-7-6-6---6-6-6-6-6|
|-1-1---1-1-1-1-1----------------|-5-5---5-5-5-5-5-4-4---4-4-4-4-4|
|-----------------0h3-3-3-3-3-3-3|--------------------------------|
|--------------------------------|--------------------------------|

|--------------------------------|--------------------------------|
|-3-3---3-3-3-3-3----------------|-7-7---7-7-7-7-7-6-6---6-6---6-6|
|-1-1---1-1-1-1-1----------------|-5-5---5-5-5-5-5-4-4---4-4---4-4|
|-----------------0h3-3-3-3-3-3-3|--------------------------------|
|--------------------------------|--------------------------------|

2/4              4/4
|----------------|----------------------------------|
|-9------(9)-5--|(5)--------------------------------|
|-7------(7)-3--|(3)--------------------------------|
|----------------|----------------------------------|
|----------------|----------------------------------|

|--------------------------------|--------------------------------|
|(5)-----------------------------|--------------------------------|
|(3)-----------------------------|-8/10-13----------------20202020|(20)
|--------------------------------|--------------------------------|
|--------------------------------|--------------------------------|

|--------------------------------|--------------------------------|
|--------------------------------|--------------------------------|
|20--19--19------2020202020202020|2019191919--1919--19----20202020|
|--------------------------------|-----------------0---0-0--------|
|--------------------------------|--------------------------------|

|--------------------------------:
|--------------------------------:
|2019----19----19--19----20202020:
|-0---0---0---0---0---0-0--------:
|--------------------------------:

Bridge:
                               x 3
|--------------------------------|----------------------------------|
|*------------------------------*|----------------------------------|
|2019----19----19--19----20202020|2019----19----19--17----17--------|
|*----0-0-0---0---0---0-0-------*|-----0-0-0---0---0---0-0----------|
|--------------------------------|----------------------------------|

                               x 3
|--------------------------------|--------------------------------|
|*------------------------------*|--------------------------------|
|-8-7-----7-----7---7-----8-8-8-8|-8-7-----7---7-7---7-5---5------|
|*----0-0-0---0---0---0-0-------*|-----0-0-0------h7-----7---7-5-3|
|--------------------------------|--------------------------------|

                                                                x 2
|--------------------------------|--------------------------------|
|*-------------------------------|-------------------------------*|
|*-------------------------------|-------------------------------*|
|-1-0-0---0---0-----0---0-1-1-1-1|-1-0-x-0-0---x-0---0-x-0-1-1-1-1|
|--------------------------------|--------------------------------|

|--------------------------------|--------------------------------:
|--------------------------------|-------------------5-----5------:
|--------------------------------|-----------7-7-7-7---7-7---7-7-7:
|-1-0-x-0---0---x-0-----0-1-1-1-1|-1-0-0-0-0----------------------:
|--------------------------------|--------------------------------:

PreChorus:

   Repeat Fig.3 x 3

Coda 2:
                                 2/4
|--------------------------------|------------------|
|--------------------------------|------------------|
|-----------------3--------------|-7-------(7)3-----|
|---------------------0---1--(1)/|------------------|
|-1------------------------------|------------------|

4/4
|--------------------------------|----------------------------------|
|--------------------------------|----------------------------------|
|(3)-----------------------------|(3)-------------------(3)---------|
|--------------------------------|-------------------------1-1-1-1--|
|--------------------------------|----------------------------------|

Outro:

   Repeat Fig.1 (First bar only) x 7 then

|--------------------------------|--------------------------------|
|--------------------------------|--------------------------------|
|--------------------------------|--------------------------------|
|-1---0---0-------0-0-0-0/3-3-3-3|-3p0-3---3-------3-3-3-0-3-3-3-3|
|--------------------------------|--------------------------------|

|--------------------------------|--------------------------------|
|--------------------------------|--------------------------------|
|--------------------------------|-----------------------/10101010|(10)
|-1---0---0-------0-0-0-0/3-3-3-3|-3---0---0-------0-0-0-0--------|
|--------------------------------|--------------------------------|

2/4                               4/4
|----------------|----------------|----------------------------------|
|----------------|----------------|----------------------------------|
|10-7-7---7-----|-7------(7)-3--|(3)---------------------------------|
|-------------0--|----------------|----------------------------------|
|----------------|----------------|----------------------------------|

|--------------------------------:
|--------------------------------:
|(3)-----------------------------: End.
|--------------------------------:
|--------------------------------:

prince charming
Intro:

 GbI--------------------------------------------------|I
 DbI--------------------------------------------------|I
 AbI--------------------------------------------------|I
 EbI---0----------I Just slam an open E at about 0:10-| (with drums)


More Intro:

 GbI---------------------------------------------------------|I
 DbI---------------------------------------------------------|I
 AbI-------5----3----5------0--------------------------------|I
 EbI--0-------------------3---0---I Start this at about 0:15-| play each note
                                 at the same time as the drums.


Main Riff:

 GbI------------------------------------------------------------------|
 DbI------------------------------------------------------------------|
 AbI----------------------------------5-5-5-5-5-5-5-5-5-5-5-5-5-5-5-5-|
 EbI-0-0-0-0-0-0-0-0-0-0-0-0-0-0-0-0----------------------------------|

 GbI------------------------------------------------------------------|
 DbI------------------------------------------------------------------|
 AbI-3-3-3-3-3-3-3-3-3-3-3-3-3-3-3-3--5-5-5-5-5-5-5-5-----0-----------|
 EbI---------------------------------------------------3-----0--------|
     See? These are the same notes just picked faster.


Verse:

 GbI--------------------------               GbI-------|
 DbI--------------------------               DbI-------|
 AbI-------------------------- 4 times then  AbI-------|
 EbI-0--0-0--0-0--0-0-0--0-0--               EbI-3-4-5-|
    "There's a black cloud overhead, that's me"


Right after each verse:

 GbI-------------------------------------------------|
 DbI-----------------------------------5-5-5---------|
 AbI------------------------------------------7-5----|
 EbI-5-5-5-5-5--5-5-5-5-5--5-5-5-5-5-----------------|


For the chorus, just play the main riff twice.


Solo Riff:

 GbI--------------------------              GbI-------|
 DbI--------------------------              DbI-------|
 AbI-------------------------- 4 times then AbI-------|
 EbI-2--2-2--2-2--2-2-2--2-2--              EbI-2-3-4-|
    Play this with the same timing as the verse, just up 2 frets.


Right after solo:

 GbI-----------------------------------------------------|
 DbI-----------------------------------------------------|
 AbI-7------------7------------7------------7------------|
 EbI---0-0-0-0-0----0-0-0-0-0----0-0-0-0-0----0-0-0-0-0--|

Then:

 GbI---------------------------------------------------|
 DbI-4------------4------------4------------5-5-5------|
 AbI-----------------------------------------------7-5-|
 EbI---2-2-2-2-2----2-2-2-2-2----2-2-2-2-2-------------|


Bridge Riff:

 GbI-------------------------------|
 DbI-------------------------------|
 AbI----0-----0-----0-----0-0------|
 EbI-2-----2-----2-----2-------2-0-|
    "Look up to me"


After the last chorus, just close out the song with the main riff twice
and then go into the verse a few times. Start this riff at 5:53 and
play in time with the drums.

 GbI----------------------------------------------------|
 DbI--------------------------------------5-5-5---------|
 AbI-7-----7-----7-----7-----7-----7------------7-5-----|
 EbI----0-----0-----0-----0-----0-----0--------------0--|

Low man's lyric

Fig.1

Gb:---------------------------------------------------------------------|
Db:---------------------------------------------------------------------|
Ab:---12---12--10/7-7--9/10-10h12--12---14/7---7--0-10/12-12--14/10--10-|
Eb:---------------------------------------------------------------------|

Gb:------------------------------:
Db:------------------------------:
Ab:------------------------------:
Eb:-12/10-8-8-10-8--7-7-7-0-3-5--: end Fig.1

Fig.2

Gb:---------------------------------------------------------------------|
Db:----------------------------------------------------------------5----|
Ab:-----------5h7--5--------------------7-------------------------------|
Eb:-5--3--0----------7-5---5-5/3--0-------5-5h8-5--5-------3---------3--|

Gb:-------------------------------------------------:
Db:-------------------------------------------------:
Ab:-----3------3-5-3--2---2--2--2--2--2--2--0h2-3-0-:
Eb:-3-5---------------------------------------------: end Fig.2

Fig.3

Gb:---------------------------------:
Db:----4-4---4-4---4-4-4------------:
Ab:-2--2-2-2-2-2-2-2-2-2--2-2-2-7-5-:
Eb:---------------------------------: end Fig.3

Fig.4

Gb:----------------------------------------------------------------------|
Db:----------------------------------------------------------------------|
Ab:------------------------3-5--5-5--5--5/7--7---------------------------|
Eb:-5-5-5-5--5-5-3-3-3-3-5-----------------------3-3--0-3-5-5-5-5-5--3---|

Gb:--------------------------------------------------------|
Db:--------------------------------------------------------|
Ab:------------5---5-5-5-5--5-7--7--------/12--------------|
Eb:-3-3-3-3-5-----------------------0-3--3-----: end Fig.4-|

Repeat Fig.1 x 1
Repeat Fig.2 x 1
Substitute Fig.3 with:
  Gb:------------------------------------------:
  Db:------------------------------------------:
  Ab:-2--2-2-2--2--2-2-2--2--2---2--2--2-2-0---:
  Eb:--------------------------2-------------3-:

Interlude:

Gb:----------------------------------------------------------------------|
Db:-----------------------5----------------------------------------------|
Ab:-------------------------------5---5-5-5---5-5/7--7-7-----------------|
Eb:-5-5-5-5--5-5-5-3---3----3-5-7-------------------------3-3---3-3--5---|
                                                          Please...

Gb:----------------------------------------------------------------------|
Db:-------------------5--------------------------------------------------|
Ab:-------------------------------5---5-5--5---5-5--5/7--7-7-------------|
Eb:-5-5-5-5-5--3--3-----3--3--5/7-----------------------------0-3--0-3---|
                                                           end Interlude


Fig.5
                                    1.          2.
Gb:--------------------------------|-----------|-------------:
Db:--------------------------------|-----------|-------------:
Ab:--------------------------------|-----------|-------------:
Eb:-5--3-3-3--5-2-2-2-2-1--1-1-1-0-|1--1-0-1-3-|-1-0-1-0-1-3-: End Fig.5


Gb:---------------------------------------------------:
Db:---------------------------------------------------:
Ab:-------------------------------/7--7--7---------2/-:
Eb:-1--1---1-0-1--1--1-1--0--0--0----------0--0--0----:


Gb:-------------|--------------------------------------------------------|
Db:-------------|--------------------------------------------------------|
Ab:-/7--7-7-5---|-----------------------------5---5-5-5-5-5--5/7--7------|
Eb:-----------7-|-5--5--5--5-5/3--3--3-3-3-5------------------------0-3--|

Gb:-----------------------------------------------------------------:
Db:-----------------------------------------------------------------:
Ab:-------------------------------3-5--5-5-5--5-3-------------------:
Eb:-3-5-5-5--5--5-5/3--3-3-3--3-5-----------------5--0-0--0--0-3--3-:


Gb:----------------------------------------------------------------------|
Db:----------------------------------------------------------------------|
Ab:---------------------5h7-5h7-5--------------------------7-7-----------|
Eb:-5----5--X-5/0---0-0-----------7-5---5-5-5-5X-3--0--0------5h8--5-5---|

Gb:--------------------------------------------------4--------------:
Db:----------------------5------------------------------------------:
Ab:--------------------------------3-3-3-3-3h5--3-2----2-2-2--2-2-2-:
Eb:-5-5--5----X-5--3--3-----3--3h5----------------------------------:


Gb:----------------------------------------------------------------------|
Db:----------------------------------------------------------------------|
Ab:----------------------2/7--5------------------------7-7---------------|
Eb:-5----5-5--X-5-5-0--0--------7--5--5--5-5X-3--0--0-----5h8-5-5--5-5---|


Gb:----------------5----------------------------------------------------|
Db:----------------5--5-------------------------------------------------|
Ab:------------------------------3--3-3-3--5/7--5-3-2--2--2-2-2--2--2-2-|
Eb:-5-5----X--5--3------3-3--3-5----------------------------------------|

Gb:----------------------------------------------------------------:
Db:----------------------------------------------------------------:
Ab:-2-0-2--2-2-2--2--0h2-3-0-2-2-2-0-2-2-0-2-0-2-2-0-2-0-2-2-0-----:
Eb:------------------------------------------------------------0-3-:

Interlude:

Gb:---------------------------------------------------------------------|
Db:---------------------------------------------------------------------|
Ab:------------------------------5--5-5-5--5--5--5/7--7-7-5-------------|
Eb:-5---5-5--5-5-5-5-3-3-3-3-5/7-----------------------------3-3--3-2-3-|

Gb:---------------------------------------------------------------------|
Db:---------------------------------------------------------------------|
Ab:------------------------------------3-3/5-5-5-5-5-5-5-7--7-----------|
Eb:--5--5-5-5---5--5--53-3--3--3--3-5------------------------0-3---3----|

Repeat Fig.5 x 1

Gb:----------------------------------------------------|
Db:----------------------------------------------------|
Ab:--------2--5/7--7--7----------7--7-5----------------|
Eb:-0---0---------------0--0--0---------7--5--5--53----|


Attitude


|-----------------|-----------------|-----------------|-----------------|
|------REST-------|------REST-------|-----------------|-----------------|
|-----------------|-----------------|-----------------|-----------------|
|-----------------|-----------------|-0-3---3---3---5-|-(5)-------------|


|-----------------|-----------------|-----------------|-----------------|------------------|
|-----------------|-----------------|-----------------|-----------------|------------------|
|-----------------|-----------------|-----------------|-----------------|---------------7--|
|-(5)-------------|-(5)-------------|-(5)-------------|-(5)-------------|-(5)--------0-----|

|--------------------|-------------------|-------------------|----------------------|
|o-------------------|-------------------|-------------------|-------------------o--|
|o-(7)------------7-|-(7)------------7-|-(7)--------------|-------------5---7-o-----|
|------0-0-0-0-0-0---|-----0-0-0-0-0-0---|-----0-0-0-0-0-0-3-|-(3)-5-5-0-5----------|


|--------------------|-------------------|-------------------|---------------------|
|o-------------------|-------------------|-------------------|---------------------|
|o-(7)------------7-|-(7)------------7-|-(7)--------------|-------------5---7------|
|------0-0-0-0-0-0---|-----0-0-0-0-0-0---|-----0-0-0-0-0-0-3-|-(3)-5-5-0-5---------|


|-------------------|-------------------|-------------------|---------------------|
|-------------------|-------------------|-------------------|---------------------|
|-(7)------------7-|-(7)------------7-|-(7)--------------|-------------5---7------|
|-----0-0-0-0-0-0---|-----0-0-0-0-0-0---|-----0-0-0-0-0-0-3-|-(3)-5-5-0-5---------|


|-------------------|-----------------|-----------------|-----------------|
|-------------------|-----------------|-----------------|-----------------|
|-(7)---------------|-----------------|-----------------|-----------------|
|-----0-0-0-0-0-0-0-|-0-0-0-0-0-0-0-3-|-3---0---0---0-0-|/5-5-5-3---0-0-3-|


|-----------------|-----------------|-----------------|-----------------|
|-----------------|-----------------|-----------------|-----------------|
|-----------------|-----------------|-----------------|-----------------|
|-3---0---0---0-0-|-3-3-3-5---0-0-3-|-3---0---0---0-0-|/5-5-5-3---0-0-3-|


|-----------------|------------------|-----------------|-----------------|
|-----------------|------------------|-----------------|-----------------|
|-----------------|----7-7-7-7-7-7-7-|-----------------|-----------------|
|-3---0---0---0-0-|(0)-0-0-0-0-0-0-0-|-0-0-0---0---0-0-|-0-0-0-0---0-0-0-|


|-----------------|-----------------|-----------------|-----------------|
|-----------------|-----------------|-----------------|-----------------|
|-----------------|-----------------|-----------------|-----------------|
|-0-0-0---0---0-0-|-0-0-0-0---0-0-0-|-0-0-0---0---0-0-|-0-0-0-0---0-0-0-|


|-----------------|-----------------|-----------------|------------------|
|-----------------|-----------------|-----------------|------------------|
|-----------------|-----------0-3-0-|-5-5-5-6-0-0-3---|(3)-3---3-3-0-3-0-|
|-0-0-0---0---0-0-|-0-0-0-0-0-------|-----------------|------------------|


|-----------------|------------------|-----------------|-----------------|
|-----------------|------------------|-----------------|-----------------|
|-5-5-5-6-0-0-3---|(3)-3---3-3-0-3-0-|-5-5-5-6-0-0-3---|-----------------|
|-----------------|------------------|-----------------|-0-3---3---3---3-|


|-----------------|------------------|-----------------|------------------|
|-----------------|------------------|-----------------|------------------|
|-----------------|------------------|-----------------|------------------|
|-5-5-5-6-0-0-3---|(3)-0-0-0-0-0-3-0-|-5-5-5-6-0-0-3---|(3)-0-0-0-0-0-3-0-|

                                                        1.________________
|-----------------|------------------|-----------------|-----------------|
|-----------------|------------------|-----------------|-----------------|
|-----------------|------------------|-----------------|-----------------|
|-5-5-5-6-0-0-3---|(3)-0-0-0-0-0-3-0-|-5-5-5-6-0-0-3---|-0-3---3---3---5-|

______________________________________________________  2._______________
|-----------------|-----------------|------------------|-----------------|
|-----------------|-----------------|-----------------o|-----------------|
|-----------------|-----------------|---------------7-o|-----------------|
|(5)--------------|(5)--------------|(5)----------0----|-0-3---3---3---5-|


|-----------------|------------------|-----------------|------------------|
|-----------------|------------------|-----------------|------------------|
|-----------------|------------------|-----------------|------------------|
|-5-5-5-6-0-0-3---|(3)-0-0-0-0-0-3-0-|-5-5-5-6-0-0-3---|(3)-0-0-0-0-0-3-0-|


|-----------------|------------------|-----------------|-----------------|
|-----------------|------------------|-----------------|-----------------|
|-----------------|------------------|-----------------|-----------------|
|-5-5-5-6-0-0-3---|(3)-0-0-0-0-0-3-0-|-5-5-5-6-0-0-3---|-0-3---3---3---5-|


|-----------------|-----------------|-----------------||
|-----------------|-----------------|-----------------||
|-----------------|-----------------|---------------7-||
|(5)--------------|(5)--------------|(5)----------0---||


|------------------|------------------|------------------|--------------------|
|------------------|------------------|------------------|--------------------|
|(7)------------7-|(7)------------7-|(7)--------------|------------5---7------|
|----0-0-0-0-0-0---|----0-0-0-0-0-0---|----0-0-0-0-0-0-3-|(3)-5-5-0-5---------|


|-------------------|-----------------|-------------------|-----------------|
|-------------------|-----------------|-------------------|-----------------|
|-(7)-------7-------|-----7---7-------|-------7---7-------|-----7---7-------|
|-------0-0-7-----0-|-0---7---7-----0-|-(0)---7---7-----0-|-0---7---7-----0-|


|-------------------|-----------------|-------------------|-------------------|
|-------------------|-----------------|-------------------|-------------------|
|-------7---7-------|-----7---7-------|-------7---7-------|-------7---7-------|
|-(0)---7---7-----0-|-0---7---7-----0-|-(0)---7---7-----0-|-(0)---7---7-------|


|-----------------|-------------------|-------------------|-------------------|
|-----------full--|-------------full--|-------------full--|-------------------|
|-7------(7)^-----|-(7)------(7)^-----|-(7)------(7)^---7|--------------------|
|-0---------------|-(0)---------------|-(0)---------------|-0-3---3---3---5---|


|-------------------|-----------------|-----------------|-----------------|
|-------------------|-----------------|-----------------|-----------------|
|-------------------|-----------------|-1---------------|-----------------|
|-(5)-5-5-5-5-5-5-5-|-5-5-5-5-5-0-3-0-|---3-0---0---0-0-|-0-0-0-0---0-3-0-|


|-----------------|-----------------|-----------------|-----------------|
|-----------------|-----------------|-----------------|-----------------|
|-1---------------|-----------------|-1---------------|-----------------|
|---3-0-0-0---0-0-|-0-0-0-0---0-3-0-|---3-0-0-0---0-0-|-0-0-0-0---0-3-0-|


|-----------------|-----------------|-----------------|-----------------|
|-----------------|-----------------|-----------------|-----------------|
|-1---------------|-7-7-5-7---5-----|-----------------|---------------0-|
|---3-0-0-0---0-0-|-------------7-5-|-0---0-0-0-0-0-0-|-3---3---3-3-3---|


|-----------------|-----------------|-----------------|-------------------|
|-----------------|-----------------|-2-2-2-2-2-2-2-4-|-5-5-5-5-5-5-5-----|

fixxxer

Intro

gb-------------------------------------------------------------|
db-------------------------------------------------------------|
ab-------------------------------------------------------------|
eb-0-0-0-0-0-0-0-0-0-0-0-0-0-0-0-0-0-0-0-0-0-0-0-0-0-0-0-0-0-0-|
  Main riff
gb---------------------------------------|
Db---------------------------------4-5-7-|
Ab------7-5-7--------8------7-5-7--------|
Eb--0-0--------6-5-6----0-0--------------|


verse
Gb----------4----------4----------4----------2-|
Db--4-5-4-2----4-5-4-2----4-5-4-2----4-5-4-2---|
Ab---------------------------------------------|
Eb---------------------------------------------|


end
gb-------------------------------------------------------------|
db-------------------------------------------------------------|
ab-------------------------------------------------------------|
eb-0-0-0-0-0-3-0-0-0-0-0-3-0-0-0-0-0-3-0-0-0-0-0-3-0-0-0-0-0-3-|


the guys who made the tabs
fuel- Xswinnger54
the memory remains- russell crockett
devil's dance- eros fratini
the unforgiven II- brian
better than you- russell crockett
slither- jess (aka norin)
carpe diem baby- eros fratini
bad seed- danny kohlen
where the wild things are- eros fratini
prince charming- nick stabile
low man's lyric- eros fratini
attitude- russell crockett
fixxxer- andrew reasoner

the guy who put all this shit together
big tommy p

you must be low on ammunition by now.... Time to re-load
comments
print report bad tab
I want to post or [tab]
guest
You may want to rate the tab now too:
select rating
Please do not post tabs as comments. Select "correction" instead!