Oops, an error
Loading. Please wait.

Reload Tab

ver1
ver1

Album

More versions @911Tabs.com
34,071 views 21 this week
2 commentsread comments
1 2 3 4 5
excellent!
x 8
add to favorites launch autoscroll
font size
0
reset
Autoscroll
+/-
esc
set tempo
stop
Contributor
WARNING: You are trying to view
                                    content from Ultimate-Guitar.com
                                    in an unauthorized application,
                                    which is prohibited.

                                    Please use an official Ultimate
                                    Guitar Tabs application for iPhone,
                                    iPad or Android to access legitimate
                                    chords, guitar, bass, and drum tabs
                                    from Ultimate-Guitar.com database.

                                    Type "ultimate guitar tabs" in Apple
                                    App Store's or Android Market's
                                    search to find the application.
Album: Reload
Collector of the tabs: Erkki Mela

comments and all to gynther_flynt@jippii.fi


1.  Fuel
2.  The memory remains
3.  Devil's dance
4.  The unforgiven II
5.  Better than you
6.  Slither
7.  Carpe diem baby
8.  Bad seed
9.  Where the wild things are
10. Prince charming
11. Low man's lyric
12. Attitude
13. Fixxer


First of all, I don't take credit nor responsibility from these tabs.
i've played most of these, and they sound fine. I've just collected
the ones that I liked best.

So, here we go!


x x x x x x x x x x x x x x x x x x x x x x x x x x x x x x x x x x x

1. Fuel

Like the sheet music, it's written in 4/4.

~  - Let ring (Hold for as long as possible)
s  - Slide to required note
p  - Pull off
x  - Dead String
[] - Continued Note from Last Bar
^  - Bend note 1/4   ^^^  - Bend note 3/4
^^ - Bend note 1/2   ^^^^ - Bend note 1 Semitone.
+  - Bend 1 Whole Step (2 Semitones, Eg. fret 17 to 19)

Tuning: Drop 1/2 Step (Eb;Ab;Db;Gb;Bb;eb)
Timing: Fast, 208
Time Signature: 4/4

Intro Part 1 - Double Guitars
Distorted Electric - James (Guitar 1)
Distorted Electric - Kirk (Guitar 2)

This is the part that tricks people. If you can't get the pull-offs 
right then start picking each note separately. 8 notes in just over 
a second isn't really that fast.

Opening Lyrics: 
"Give me fuel, Give me Fire, Give me that which I desire, Ooh!"

0:03
eb|-----------------|-----------------|
Bb|-----------------|-----------------|
Gb|-----------------|-----------------|
Db|-----------------|-----------------|
Ab|-----------------|-----------------|
Eb|-3p0-0-3p0-0-3p0-|-3p0-0-3p0-0-3p0-|
/// Guitar 1
\\\ Guitar 2
eb|-----------------|-----------------|
Bb|-----------------|-----------------|
Gb|-----------------|-----------------|
Db|-----------------|-----------------|
Ab|-2=--------------|-----------------|
Eb|-0=--------------|-----------------|

Below, both guitars are playing the same part.

0:05
eb|-----------------|-----------------|-----------------|-----------------|
Bb|-----------------|-----------------|-----------------|-----------------|
Gb|-----------------|-----------------|-----------------|-----------------|
Db|-----------------|-----------------|-----------------|-5s7-7-7-7s5-5s7-|
Ab|-----------------|-----------------|-----------------|-----------------|
Eb|-3p0-0-3p0-0-3p0-|-3p0-0-3p0-0-3p0-|-3p0-0-3p0-0-3p0-|-3s5-5-5-5s3-3s5-|
:::::::::::::::::::::::::::::::::::::::::::::::::::::::::::::::::::::::::::::
eb|-----------------|-----------------|-----------------|-----------------|
Bb|-----------------|-----------------|-----------------|-----------------|
Gb|-----------------|-----------------|-----------------|-----------------|
Db|-----------------|-----------------|-----------------|-5s7-7-7-7s5-----|
Ab|-----------------|-----------------|-----------------|-------------5s7-|
Eb|-3p0-0-3p0-0-3p0-|-3p0-0-3p0-0-3p0-|-3p0-0-3p0-0-3p0-|-3s5-5-5-5s3-----|

Below, both guitars are playing the same part (again).

0:14
eb|-----------------|-----------------|-----------------|-----------------|
Bb|-----------------|-----------------|-----------------|-----------------|
Gb|-----------------|-----------------|-----------------|-----------------|
Db|-7-7-7-5^--------|-7-7-7-5^--------|-7-7-7-5^--------|-7-7-7-5^--------|
Ab|-----------7-5h7-|-----------7-5h7-|-----------7-5h7-|------------7-5s-|
Eb|-----------------|-----------------|-----------------|-----------------|

x x x x x x x x x x x x x x x x x x x x x x x x x x x x x x x x x x x x x
Verse 1 and 3 - Double Guitars
Distorted Electric - James (Guitar 1)
Distorted Electric - Kirk (Guitar 2)

0:21
eb|------|--------------|-------------------------|---------------------|
Bb|------|--------------|-------------------------|---------------------|
Gb|------|--------------|-------------------------|---------------------|
Db|------|--------------|-------------------------|---------------------|
Ab|-2~~~~|-5~~~~~~~~~~~~|-2~~~~~~~~~~~~~~~~~~~~~~~|~~~~~~~~~~~~~~~~~----|
Eb|-0~~~~|-3~~~~~~~~~~~~|-0~~~~~~~~~~~~~~~~~~~~~~~|~~~~~~~~~~~~~~~~~x-x-|
/// Guitar 1
\\\ Guitar 2
eb|------|--------------|-------------------------|---------------------|
Bb|------|--------------|-------------------------|---------------------|
Gb|------|--------------|-14-14-x-12^-------------|-14-14-x-12^---------|
Db|------|--------------|-14-14-x-12^-------------|-14-14-x-12^---------|
Ab|-2~~~~|-5~~~~~~12h14-|----------------14-12h14-|--------------14-12s-|
Eb|-0~~~~|-3~~~~~~------|-------------------------|---------------------|
:::::::::::::::::::::::::::::::::::::::::::::::::::::::::::::::::::::::::::::
eb|-----------------|-----------------|-----------------|-----------------|
Bb|-----------------|-----------------|-----------------|-----------------|
Gb|-----------------|-----------------|-----------------|-----------------|
Db|-----------------|-9-----------9---|-8-----------8---|-7---------------|
Ab|-2---------------|-9-----------9---|-8-----------8---|-7-----------5h7-|
Eb|-0---------------|-7-----------7---|-6-----------6---|-5---------------|
/// Guitar 1
\\\ Guitar 2
eb|-----------------|-----------------|-----------------|-----------------|
Bb|-----------------|-----------------|-----------------|-----------------|
Gb|-----------------|-----------------|-----------------|-----------------|
Db|-----------------|-9-----------9---|-8-----------8---|-7---------------|
Ab|-2---------------|-9-----------9---|-8-----------8---|-7-----------5h7-|
Eb|-0---------------|-7-----------7---|-6-----------6---|-5---------------|

After playing what's above, go back and play the first line of the 
intro, then follow through to the next verse.

x x x x x x x x x x x x x x x x x x x x x x x x x x x x x x x x x x x x x
Verse 2 and 4 - Double Guitars
Distorted Electric - James (Guitar 1)
Distorted Electric - Kirk (Guitar 2)

For this next part, if you're gonna play Kirk's lead (and you play 
electric), use a bit of Wah (if you have any) to get the effects.
0:37
eb|---------------------|--------------|
Bb|---------------------|--------------|
Gb|---------------------|--------------|
Db|---------------------|--------------|
Ab|-2~~~~~~~~~~~~~~~~~~~|-5~~~~~~~~~~~~|
Eb|-0~~~~~~~~~~~~~~~~~~~|-3~~~~~~~~~~~~|
/// Guitar 1
\\\ Guitar 2 (w/ Wah)
eb|---------------------|-3------------|
Bb|---------------------|-3------------|
Gb|---------------------|--------------|
Db|---------------------|--------------|
Ab|-----------2----1----|-----------2s-|
Eb|-0-------------------|--------------|
:::::::::::::::::::::::::::::::::::::::::::::::::::::::::::::::::::::::::::::
eb|----------------------------------------------|
Bb|----------------------------------------------|
Gb|----------------------------------------------|
Db|----------------------------------------------|
Ab|-2~~~~~~~~~~~~~~~~~~~~~~~~~~~~~~~~~~~~~~~~----|
Eb|-0~~~~~~~~~~~~~~~~~~~~~~~~~~~~~~~~~~~~~~~~x-x-|
/// Guitar 1
\\\ Guitar 2 (w/ Wah)
eb|-------------------------|--------------------|
Bb|-------------------------|--------------------|
Gb|-14-14-x-12^-------------|-14-14-x-12^--------|
Db|-14-14-x-12^-------------|-14-14-x-12^--------|
Ab|----------------14-12h14-|------------14-12s--|
Eb|-------------------------|--------------------|
:::::::::::::::::::::::::::::::::::::::::::::::::::::::::::::::::::::::::::::
eb|-----------------|-----------------|-----------------|-----------------|
Bb|-----------------|-----------------|-----------------|-----------------|
Gb|-----------------|-----------------|-----------------|-----------------|
Db|-----------------|-9-----------9---|-8-----------8---|-7---------------|
Ab|-2---------------|-9-----------9---|-8-----------8---|-7-----------5h7-|
Eb|-0---------------|-7-----------7---|-6-----------6---|-5---------------|
/// Guitar 1
\\\ Guitar 2 (Wah w/ Tremelo Picking)
eb|-----------------|-7~~~~~~~~~~~~~~~|-6~~~~~~~~~~~~~~~|-----------------|
Bb|-----------------|-7~~~~~~~~~~~~~~~|-6~~~~~~~~~~~~~~~|-----------------|
Gb|-------------2s--|-----------------|-----------------|----5p0-5--------|
Db|-----------------|-----------------|-----------------|-----------------|
Ab|-----------------|-----------------|-----------------|-------------5h7-|
Eb|-0---------------|-----------------|-----------------|-----------------|
:::::::::::::::::::::::::::::::::::::::::::::::::::::::::::::::::::::::::::::
eb|-----------------|-----------------|-----------------|-----------------|
Bb|-----------------|-----------------|-----------------|-----------------|
Gb|-----------------|-----------------|-----------------|-----PLAY-AS-----|
Db|-----------------|-----------------|-----------------|----HARMONICS----|
Ab|-----------------|-----------------|-----------------|-----------------|
Eb|-3p0-0-3p0-0-3p0-|-3p0-0-3p0-0-3p0-|-3p0-0-3p0-0-3p0-|-2-2-3-4-4-5-7-7-|
/// Guitar 1
\\\ Guitar 2
eb|-----------------|-----------------|-----------------|-----------------|
Bb|-----------------|-----------------|-8-7---8~~~~~~~~~|-----------------|
Gb|-----------------|-----------------|-9-7---9~~~~~~~~~|-9-7---9~~~~~~~~~|
Db|-----------------|-----------------|-----------------|-9-7---9~~~~~~~~~|
Ab|-----------------|-----------------|-----------------|-----------------|
Eb|-0~~~~~~~~~~~~~~~|~~~~~~~~~~~~~~~~~|~~~~~~~~~~~~~~~~~|~~~~~~~~~~~~~~~~~|

x x x x x x x x x x x x x x x x x x x x x x x x x x x x x x x x x x x x x
Chorus - Double Guitars
Distorted Electric - James (Guitar 1)
Distorted Electric - Kirk (Guitar 2)

Below, Kirk's part is written the way I play it. Here is how he 
actually plays it:

   Play 12x then >>> Play 2x
Ab|*10p7--7-7~~~~~~*|*-12p9--9-9~~~~~*|

0:55
eb|-----------------|-----------------|-----------------|-----------------|
Bb|-----------------|-----------------|-----------------|-----------------|
Gb|-----------------|-----------------|-----------------|-----------------|
Db|-2p0---2-2-------|-2p0---2-2-------|-2p0---2-2-------|-2p0---2-2-------|
Ab|-----------------|---------------0-|-----0-------0-0-|-----0-------0---|
Eb|-----0-------0-0-|-----0-------0---|-----------------|---------------0-|
/// Guitar 1
\\\ Guitar 2
eb|-----------------|-----------------|-----------------|-----------------|
Bb|-----------------|-----------------|-----------------|-----------------|
Gb|-----------------|-----------------|-----------------|-----------------|
Db|-----------------|-----------------|-2~~~~~~~~~~~~~~~|~~~~~~~~~~~~~~~~~|
Ab|-2~~~~~~~~~~~~~~~|~~~~~~~~~~~~~~~~~|-0~~~~~~~~~~~~~~~|~~~~~~~~~~~~~~~~~|
Eb|-0~~~~~~~~~~~~~~~|~~~~~~~~~~~~~~~~~|-----------------|-----------------|
:::::::::::::::::::::::::::::::::::::::::::::::::::::::::::::::::::::::::::::
eb|-----------------|-----------------|-----------------|-----------------|
Bb|-----------------|-----------------|-----------------|-----------------|
Gb|-----------------|-----------------|-----------------|-----------------|
Db|-2p0---2-2-------|-2p0---2-2-------|-2p0---2-2-------|-2p0---2-2-------|
Ab|-----------------|---------------0-|-----0-------0-0-|-----0-------0---|
Eb|-----3-------3-3-|-----3-------3---|-----------------|---------------0-|
/// Guitar 1
\\\ Guitar 2
eb|-----------------|-----------------|-----------------|-----------------|
Bb|-----------------|-----------------|-----------------|-----------------|
Gb|-----------------|-----------------|-----------------|-----------------|
Db|-----------------|-----------------|-----------------|-----------------|
Ab|-5~~~~~~~~~~~~~~~|~~~~~~~~~~~~~~~~~|-7~~~~~~~~~~~~~~~|~~~~~~~~~~~~~~~~~|
Eb|-3~~~~~~~~~~~~~~~|~~~~~~~~~~~~~~~~~|-5~~~~~~~~~~~~~~~|~~~~~~~~~~~~~~~~~|
:::::::::::::::::::::::::::::::::::::::::::::::::::::::::::::::::::::::::::::
eb|-----------------|-----------------|-----------------|-----------------|
Bb|-----------------|-----------------|-----------------|-----------------|
Gb|-----------------|-----------------|-----------------|-----------------|
Db|-2p0---2-2-------|-2p0---2-2-------|-2p0---2-2-------|-2p0---2-2-------|
Ab|-----------------|---------------0-|-----0-------0-0-|-----0-------0-3-|
Eb|-----0-------0-0-|-----0-------0---|-----------------|-----------------|
/// Guitar 1
\\\ Guitar 2
eb|-----------------|-----------------|-----------------|-----------------|
Bb|-----------------|-----------------|-----------------|-----------------|
Gb|-----------------|-----------------|-----------------|-----------------|
Db|-----------------|-----------------|-----------------|-----------------|
Ab|-7p5---7-7-------|-7p5---7-7-------|-7p5---7-7-------|-7p5---7-7-------|
Eb|-----------------|-----------------|-----------------|-----------------|
:::::::::::::::::::::::::::::::::::::::::::::::::::::::::::::::::::::::::::::
eb|-----------------|-----------------|-----------------|-----------------|
Bb|-----------------|-----------------|-----------------|-----------------|
Gb|-----------------|-----------------|-----------------|-----------------|
Db|-2p0---2-2-------|-2p0---2-2-------|-4p2---4-4-------|-4p2---4-4----4s-|
Ab|-----3-------3-3-|-----3-------3-5-|-----5-------5-5-|-----5-----------|
Eb|-----------------|-----------------|-----------------|-----------------|
/// Guitar 1
\\\ Guitar 2
eb|-----------------|-----------------|-----------------|-----------------|
Bb|-----------------|-----------------|-----------------|-----------------|
Gb|-----------------|-----------------|-----------------|-----------------|
Db|-----------------|-----------------|-----------------|-----------------|
Ab|-7p5---7-7-------|-7p5---7-7-------|-9p7---9-9-------|-9p7---9-9----9s-|
Eb|-----------------|-----------------|-----------------|-----------------|

x x x x x x x x x x x x x x x x x x x x x x x x x x x x x x x x x x x x x
Interlude - Double Guitars
Distorted Electric - James (Guitar 1)
Distorted Electric - Kirk (Guitar 2)

Play the riff below 4x. On the fourth time replace the last bar with 
the bar below it.

2:31
eb|-----------------|-------------|-----------------|----------------|
Bb|-----------------|-------------|-----------------|----------------|
Gb|-----------------|-------------|-----------------|----------------|
Db|-7-7-7-5---------|-------------|-7-7-7-5---------|-------5--------|
Ab|-7-7-7-5----7s---|-2--2--2--2--|-7-7-7-5----7s---|-2--2--5--------|
Eb|------------7s---|-0--0--0--0--|------------7s---|-0--0--3--------|

eb|-----------------|
Bb|-----------------|
Gb|-----------------|
Db|-------5---------|
Ab|-2--2--5---------|
Eb|-0--0--3---------|
/// Guitar 1
\\\ Guitar 2
eb|-----------------|
Bb|-------12s-------|
Gb|-------12s-------|
Db|-----------------|
Ab|-----------------|
Eb|-----------------|

x x x x x x x x x x x x x x x x x x x x x x x x x x x x x x x x x x x x x
Guitar Solo - Double Guitars
Distorted Electric - James (Guitar 1)
Distorted Electric - Kirk (Guitar 2)

This is definitely one of Metallica's easiest solos. It runs through 
the same shape as the rest of the song. On a steel string acoustic 
(with no cut-away) it can still be easily achieved. Nylon players will 
have a tougher job. Just because I'm saying it's easy doesn't mean you 
will be able to master it as fast as other people. 

For sure, this part is the highlight of the song. Add vibrato whenever 
there's a long hold on a note. Also make sure you notice the bends are 
done slowly at the beginning.

2:52
eb|----------------------|------------|----------------------|------------|
Bb|----------------------|------------|----------------------|------------|
Gb|----------------------|------------|----------------------|------------|
Db|-7--7--7--5-----------|-5----------|-7--7--7--5-----------|-5---^--^---|
Ab|-7--7--7--5-----------|-5--7s-2--2-|-7--7--7--5--------7--|-5---^--^---|
Eb|----------------7--5--|----7s-0--0-|-------------------7--|------------|
/// Guitar 1
\\\ Guitar 2
eb|----------------------|------------|----------------------|------------|
Bb|-14-14-14-12----------|------------|-14-14-14-12----------|------------|
Gb|-14-14-14-12----------|-12---------|-14-14-14-12----------|-12--^--^---|
Db|----------------12h14-|----14~~~~~~|----------------12h14-|------------|
Ab|----------------------|------------|----------------------|------------|
Eb|----------------------|------------|----------------------|------------|
:::::::::::::::::::::::::::::::::::::::::::::::::::::::::::::::::::::::::::::
eb|*-----------------------*|-------------------------|
Bb|*-----------------------*|-------------------------|
Gb|*-----------------------*|-------------------------|
Db|*-7--7--7--5^-----------*|--7--7--7--5^------------|
Ab|*-------------7---5-h-7-*|--------------7---5-h-7--|
Eb|*-----------------------*|-------------------------|
/// Guitar 1 (Play first bar 3x, then finish with next bar)
\\\ Guitar 2 (Play first bar 3x, then finish with next bar)
eb|*-----------------------*|-------------------------|
Bb|*-----------------------*|-------------------------|
Gb|*-14-14-14-12^----------*|-14p12----14p12----14p12-|
Db|*--------------14-12h14-*|------14-------14--------|
Ab|*-----------------------*|-------------------------|
Eb|*-----------------------*|-------------------------|
:::::::::::::::::::::::::::::::::::::::::::::::::::::::::::::::::::::::::::::
eb|-----------------|-----------------------------|
Bb|-----------------|-----------------------------|
Gb|-----------------|-----------------------------|
Db|-----------------|-----------------------------|
Ab|-----------------|-----------------------------|
Eb|-3p0-0-3p0-0-3p0-|-3-p-0---0---3-p-0--0--3-p-0-|
/// Guitar 1
\\\ Guitar 2
eb|-----------------|-12------12----------------15|
Bb|-15----15~~~~~~~~|-----15+-----15+~~~~~~~12----|
Gb|-----------------|-----------------------------|
Db|-----------------|-----------------------------|
Ab|-----------------|-----------------------------|
Eb|-----------------|-----------------------------|
:::::::::::::::::::::::::::::::::::::::::::::::::::::::::::::::::::::::::::::
eb|------------------------|--------------------|
Bb|------------------------|--------------------|
Gb|------------------------|--------------------|
Db|------------------------|-5s7--7--7--7s5-----|
Ab|------------------------|----------------5s7-|
Eb|-3pp0--0--3pp0--0--3pp0-|-3s5--5--5--5s3-----|
/// Guitar 1
\\\ Guitar 2
eb|-~~~~~~15p14--15p14-----|--------------------|
Bb|---------------------15-|--------------------|
Gb|------------------------|-14-12s11-----------|
Db|------------------------|---------12---12-12s|
Ab|------------------------|--------------------|
Eb|------------------------|--------------------|
:::::::::::::::::::::::::::::::::::::::::::::::::::::::::::::::::::::::::::::
eb|--------------------|---------------------|
Bb|--------------------|---------------------|
Gb|--------------------|---------------------|
Db|--------------------|---------------------|
Ab|--------------------|---------------------|
Eb|-3p0-0--3p0-0--3p0--|--3p0-0--3p0-0--3p0--|
/// Guitar 1
\\\ Guitar 2
eb|--------------------|---------------------|
Bb|------------------15|-15p14--14-----14-15-|
Gb|------12--12-14s16--|------16--14h16------|
Db|s14-----14----------|---------------------|
Ab|--------------------|---------------------|
Eb|--------------------|---------------------|
:::::::::::::::::::::::::::::::::::::::::::::::::::::::::::::::::::::::::::::
eb|-----------------|-----------------|
Bb|-----------------|-----------------|
Gb|-----------------|-----------------|
Db|-----------------|-----------------|
Ab|-----------------|-----------------|
Eb|-3p0-0-3p0-0-3p0-|-3p0-0-3p0-0-3p0-|
/// Guitar 1
\\\ Guitar 2
eb|---14--15--17-17+|--17-15----------|
Bb|-17--------------|-------17-17--17s|
Gb|-----------------|-----------------|
Db|-----------------|-----------------|
Ab|-----------------|-----------------|
Eb|-----------------|-----------------|
:::::::::::::::::::::::::::::::::::::::::::::::::::::::::::::::::::::::::::::
eb|-----------------|-----------------|-----------------|-----------------|
Bb|-----------------|-----------------|-----------------|-----------------|
Gb|-----------------|-----------------|-----------------|-----------------|
Db|-----------------|-----------------|-----------------|-3s5-5-5-5s3-3s5-|
Ab|-2-2-2-5---------|-2-2-2-5---------|-2-2-2-5---------|-----------------|
Eb|-0-0-0-3---------|-0-0-0-3---------|-0-0-0-3---------|-3s5-5-5-5s3-3s5-|
/// Guitar 1
\\\ Guitar 2
eb|-7s9---7~~~~~~~~~|-7s9---7~~~~~~~s-|-----------------|-----------------|
Bb|-----------------|-----------------|-----------------|-----------------|
Gb|-7s9---7~~~~~~~~~|-7s9---7~~~~~~~s-|-2+----2+-----2+-|-2+-p0-----------|
Db|-----------------|-----------------|-----------------|------2-0-2~~~~s-|
Ab|-----------------|-----------------|-----------------|-----------------|
Eb|-----------------|-----------------|-----------------|-----------------|
:::::::::::::::::::::::::::::::::::::::::::::::::::::::::::::::::::::::::::::
eb|-----------------|-----------------|-----------------|-----------------|
Bb|-----------------|-----------------|-----------------|-----------------|
Gb|-----------------|-----------------|-----------------|-----------------|
Db|-----------------|-----------------|-----------------|-----------------|
Ab|-2-2-2-5---------|-2-2-2-5---------|-2-2-2-5---------|-5------4----3---|
Eb|-0-0-0-3---------|-0-0-0-3---------|-0-0-0-3---------|-3------2----1---|
/// Guitar 1
\\\ Guitar 2
eb|-7s9---7~~~~~~~~~|-7s9---7~~~~~~9~-|-12~~~~~~~~~~~~~s|-16~~~~~16~~~16~s|
Bb|-----------------|-----------------|-----------------|-----------------|
Gb|-7s9---7~~~~~~~~~|-7s9---7~~~~~~9~-|-12~~~~~~~~~~~~~s|-16~~~~~16~~~16~s|
Db|-----------------|-----------------|-----------------|-----------------|
Ab|-----------------|-----------------|-----------------|-----------------|
Eb|-----------------|-----------------|-----------------|-----------------|
:::::::::::::::::::::::::::::::::::::::::::::::::::::::::::::::::::::::::::::
eb|-----------------|-----------------|-----------------|-----------------|
Bb|-----------------|-----------------|-----------------|-----------------|
Gb|-----------------|-----------------|-----------------|-----PLAY-AS-----|
Db|-----------------|-----------------|-----------------|----HARMONICS----|
Ab|-----------------|-----------------|-----------------|-----------------|
Eb|-3p0-0-3p0-0-3p0-|-3p0-0-3p0-0-3p0-|-3p0-0-3p0-0-3p0-|-2-2-3-4-4-5-7-7-|
/// Guitar 1
\\\ Guitar 2
eb|-----0-----0-----|-----0-----0-----|-----0-----0-----|-3-0---0-0~~~0~~~|
Bb|-------3-3+--3p0-|-------3-3+--3p0-|-------3-3+--3p0-|-----3---3~~~3~~~|
Gb|-2+--------------|-2+--------------|-2+--------------|-----------------|
Db|-----------------|-----------------|-----------------|-----------------|
Ab|-----------------|-----------------|-----------------|-----------------|
Eb|-----------------|-----------------|-----------------|-----------------|

x x x x x x x x x x x x x x x x x x x x x x x x x x x x x x x x x x x x x
Outro - Double Guitars
Distorted Electric - James (Guitar 1)
Distorted Electric - Kirk (Guitar 2)

I've only tabbed out Kirk's outro riff because James is playing the 
chorus riff (2 times). Here's the whole riff. The very first note of 
the whole thing can be played as an open note on the first e string 
to give you time to run up the fret board (Kirk actually does this 
when he's playing).

Play the starred section once, then play Part I.
Play the starred section again, then play Part II.

~~ LET ALL NOTES RING FOR AS LONG AS POSSIBLE ~~

eb|-----------|--------------|-----------|---------------|*
Bb|-----------|-------7--7h8-|-----------|------7---8---s|*
Gb|-9---------|---9----------|-9---------|---9-----------|*
Db|-----------|--------------|-----------|---------------|*
Ab|-----------|--------------|-----------|---------------|*
Eb|-----------|--------------|-----------|---------------|*

eb|-----------|--------------|-----------|---------------|*
Bb|s10--------|-------7--8---|-8+----8p7-|-8-------8p7-7-|*
Gb|---9-------|---9-9--------|-----------|------------9--|*
Db|-----------|--------------|-----------|---------------|*
Ab|-----------|--------------|-----------|---------------|*
Eb|-----------|--------------|-----------|---------------|*

eb|-----------|--------------|-----------|---------------|*
Bb|-----------|-------7--7h8-|-----------|------7---8---s|*
Gb|-9---------|---9----------|-9---------|---9-----------|*
Db|-----------|--------------|-----------|---------------|*
Ab|-----------|--------------|-----------|---------------|*
Eb|-----------|--------------|-----------|---------------|*

Part I
eb|-----------|--------------|-----------|---------------|
Bb|s10----8p7-|-8------8p7-7-|-----7-----|-8------s10----|
Gb|---9-------|-----------9--|-9---------|---------------|
Db|-----------|--------------|-----------|---------------|
Ab|-----------|--------------|-----------|---------------|
Eb|-----------|--------------|-----------|---------------|

Part II *Play 2 bars of Intro Riff*
eb|-----------|--------------|---------------|---------------|-------|----|
Bb|s10--------|--------7--8-s|s10--10--10-10s|s12--12--12-12s|-17~~~~|~~~~|
Gb|---9-9-----|---9-9--------|---------------|---------------|-------|----|
Db|-----------|--------------|---------------|---------------|-------|----|
Ab|-----------|--------------|---------------|---------------|-------|----|
Eb|-----------|--------------|---------------|---------------|-*---*-|-**-|

x x x x x x x x x x x x x x x x x x x x x x x x x x x x x x x x x x x x x
Ending - Double Guitars
Distorted Electric - James (Guitar 1)
Distorted Electric - Kirk (Guitar 2)

Then to finish off the song...

eb|------------------------|-***--/-|-***--/-|-***--/-|
Bb|------------------------|-***-/--|-***-/--|-***-/--|
Gb|------------------------|----/---|----/---|----/---|
Db|-7--7--7--5^------------|---/----|---/----|---/----|
Ab|---------------7--5-h-7-|--/-***-|--/-***-|--/-***-|
Eb|------------------------|-/--***-|-/--***-|-/--***-|
/// Guitar 1
\\\ Guitar 2
eb|------------------------|-***--/-|-***--/-|-***--/-|
Bb|------------------------|-***-/--|-***-/--|-***-/--|
Gb|-14-14-14-12^-----------|----/---|----/---|----/---|
Db|---------------14-12h14-|---/----|---/----|---/----|
Ab|------------------------|--/-***-|--/-***-|--/-***-|
Eb|------------------------|-/--***-|-/--***-|-/--***-|

eb|-----------------|
Bb|-----------------|
Gb|-----------------|
Db|-----------------|
Ab|-2---------------|
Eb|-0---------------|

x x x x x x x x x x x x x x x x x x x x x x x x x x x x x x x x x x x x x

2. The memory remains

tr I (Eb Ab Db Gb Bb Eb) - 'Jame Hetfield - Rhythm w/dist'
Gtr II (Eb Ab Db Gb Bb Eb) - 'Kirk Hammett - Rhythm w/dist'
Gtr III (Eb Ab Db Gb Bb Eb) - 'Kirk Hammett - Lead w/dist'
Gtr IV (Eb Ab Db Gb Bb Eb) - 'dist electric pitched shifted octave high'
Gtr V (Eb Ab Db Gb Bb Eb) - 'Kirk Hammett - Lead w/dist'

Intro
  Q=148
 4/4
  Gtr I
      PM|              PM|              PM|
  E E E E Q.   E   E E E E Q.   E   E E E E Q  E E
|----------------|----------------|----------------|
|----------------|----------------|----------------|
|-7-9-----9----9-|-7-9-----9----9-|-7-9-----9--9---|
|-7-9-----9----9-|-7-9-----9----9-|-7-9-----9--9---|
|-5-7-----7----7-|-5-7-----7----7-|-5-7-----7--7---|
|-----0-0--------|-----0-0--------|-----0-0------0-|


  F5
  Gtr II
   E E Q  H       W                    W
   |
   /

  Gtr I        Gtrs I, II
                            ~~~              ~~
                                                       |----3-----|
   E E Q  H       Q  Q   a  Q.    E    E  E  Q   E  E  E     +E   E
|--------------||-------------------|-------------------------------|
|--------------||-------------------|-------------------------------|
|-10-----------||-------------------|-----------12-14-14b16r(14)p12-|
|-10-----------||-------12h14----14-|-12h14-14---5--7--7b9r==(7)p=5-|
|--8-----------||--------5h=7-----7-|--5h=7--7----------------------|
|--------------||-0--0--------------|-------------------------------|
                  Q  Q   a  Q.    E    E  E  Q   E  E  E     +E   E
                                                       |----3-----|
                 |-Riff A (both Gtrs)

   ~~        ~~~              ~~
                                        |----3-----|
   Q  Q   a  Q.    E    E  E  Q   E  E  E     +E   E
|--------------------|-------------------------------|
|--------------------|-------------------------------|
|--------------------|-----------12-14-14b16r(14)p12-|
|-14-----12h14----14-|-12h14-14---5--7--7b9r==(7)p=5-|
|--7------5h=7-----7-|--5h=7--7----------------------|
|-----0--------------|-------------------------------|
   Q  Q   a  Q.    E    E  E  Q   E  E  E     +E   E
                                        |----3-----|


   ~~        ~~~              ~~
                                        |----3-----|
   Q  Q   a  Q.    E    E  E  Q   E  E  E     +E   E
|--------------------|-------------------------------|
|--------------------|-------------------------------|
|--------------------|-----------12-14-14b16r(14)p12-|
|-14-----12h14----14-|-12h14-14---5--7--7b9r==(7)p=5-|
|--7------5h=7-----7-|--5h=7--7----------------------|
|-----0--------------|-------------------------------|
   Q  Q   a  Q.    E    E  E  Q   E  E  E     +E   E
                                        |----3-----|


  Gtr I
  Q  Q  Q  Q    W          +E   E   E   E   E  E  E   E
|-------------|----------|------------------------------||
|-------------|----------|------------------------------||
|-------------|----------|------------------------------||
|----5-----5--|----------|------------------------------||
|-------2-----|-2--------|-(2)--------------------------||
|-3-----------|-0--------|-(0)-<3>-<3>-<2>-<2><2>-3s=12-||
|                                            end Riff A-|
| Gtr II
| Q  Q  Q  Q    W          +H               Q     Q
|-------------|----------|------------------------------||
|-------------|----------|------------------------------||
|-------------|----------|------------------------------||
|----5-----5--|----------|------------------------------||
|-------2-----|-2--------|-(2)--------------xs====x\----||
|-3-----------|-0--------|-(0)--------------xs====x\----||


 Verse 1
  Gtrs I, II
            ~~~              ~~                        ~~        ~~~
                                       |----3-----|
  Q  Q   a  Q.    E    E  E  Q   E  E  E     +E   E    Q  Q   a  Q.    E
|-------------------|-------------------------------|--------------------|
|-------------------|-------------------------------|--------------------|
|-------------------|-----------12-14-14b16r(14)p12-|--------------------|
|-------12h14----14-|-12h14-14---5--7--7b9r==(7)p=5-|-14-----12h14----14-|
|--------5h=7-----7-|--5h=7--7----------------------|--7------5h=7-----7-|
|-0--0--------------|-------------------------------|-----0--------------|


         ~~
                   |----3-----|
   E  E  Q   E  E  E     +E   E
|-------------------------------|
|-------------------------------|
|-----------12-14-14b16r(14)p12-|
|-12h14-14---5--7--7b9r==(7)p=5-|
|--5h=7--7----------------------|
|-------------------------------|


                       ~~~              ~~
                                                  |----3-----|
   a      +Q    Q   a  Q.    E    E  E  Q   E  E  E     +E   E
|------------------------------|-------------------------------|
|------------------------------|-------------------------------|
|-14b16==(14)r-----------------|-----------12-14-14b16r(14)p12-|
|--7b9====(7)r-----12h14----14-|-12h14-14---5--7--7b9r==(7)p=5-|
|-------------------5h=7-----7-|--5h=7--7----------------------|
|---------------0--------------|-------------------------------|


                          ~~~              ~~
                                                     |----3-----|
  Q  Q  Q  Q    Q  Q   a  Q.    E    E  E  Q   E  E  E     +E   E
|-------------|-------------------|-------------------------------|
|-------------|-------------------|-------------------------------|
|-------------|-------------------|-----------12-14-14b16r(14)p12-|
|----5-----5--|-------12h14----14-|-12h14-14---5--7--7b9r==(7)p=5-|
|-------2-----|--------5h=7-----7-|--5h=7--7----------------------|
|-3-----------|-0--0--------------|-------------------------------|


                       ~~~              ~~                          ~~~
   a      +Q    Q   a  Q.    E    E  E  Q   E  E  E  E    Q  Q   a  Q.    E
|------------------------------|-----------------------|--------------------|
|------------------------------|-----------------------|--------------------|
|-14b16==(14)r-----------------|--------------------12-|--------------------|
|--7b9====(7)r-----12h14----14-|-12h14-14--------12--5-|-14-----12h14----14-|
|-------------------5h=7-----7-|--5h=7--7--12h14--5----|--7------5h=7-----7-|
|---------------0--------------|------------5h=7-------|-----0--------------|


  Gtr I                                       G
         ~~
                   |----3-----|
   E  E  Q   E  E  E     +E   E   Q  Q  Q  Q
|-------------------------------|-------------|
|-------------------------------|-------------|
|-------------------------------|-------------|
|------------5--7--7b9r==(7)p=5-|----5-----5--|
|--5h=7--7----------------------|-------2-----|
|-------------------------------|-3-----------|
|
| Gtr II
|        ~~
|                  |----3-----|
|  E  E  Q   E  E  E     +E   E   Q  Q  Q  Q
|-------------------------------|-------------|
|-------------------------------|-------------|
|-----------12-14-14b16r(14)p12-|-------------|
|-12h14-14----------------------|----5-----5--|
|-------------------------------|-------2-----|
|-------------------------------|-3-----------|


 tr II
  W          +E   E   E   E   E  E  E   E
|----------|-------------------------------||
|----------|-------------------------------||
|----------|-------------------------------||
|----------|-------------------------------||
|-2--------|-(2)---------------------------||
|-0--------|-(0)-<3>-<3>-<2>-<2><2>-3s=12--||
|
| W          +H               Q     Q
|----------|-------------------------------||
|----------|-------------------------------||
|----------|-------------------------------||
|----------|-------------------------------||
|-2--------|-(2)--------------xs====x\-----||
|-0--------|-(0)--------------xs====x\-----||


 Chorus
  Gtrs I, II
      PM|              PM|              PM|
  E E E E Q  E E   E E E E Q.   E   E E E E Q.   E
|----------------|----------------|----------------|
|----------------|----------------|----------------|
|-7-9-----9--9-9-|-7-9-----9----9-|-7-9-----9----9-|
|-7-9-----9--9-9-|-7-9-----9----9-|-7-9-----9----9-|
|-5-7-----7--7-7-|-5-7-----7----7-|-5-7-----7----7-|
|-----0-0--------|-----0-0--------|-----0-0--------|
|-Rhy Fig 1                          end Rhy Fig 1-|

  Gtr I
  E Q.   E Q.
|---------------|
|---------------|
|---------------| w/Rhy Fig 1
|-7-5----7-5----|
|-5-5----5-5----|
|---------------|
|-Rhy Fill 2  --|
| Gtr II
|                     PM|              PM|               PM|
| E Q.   E Q.     E E E E Q  Q     E E E E Q   Q     E E E E Q   Q
|---------------|----------------|-----------------|-----------------|
|---------------|----------------|-----------------|-----------------|
|---------------|-7-9-----9--7---|-7-9-----9---7---|-7-9-----9---7---|
|-7-5----7-5----|-7-9-----9--7---|-7-9-----9---7---|-7-9-----9---7---|
|-5-5----5-5----|-5-7-----7--5---|-5-7-----7---5---|-5-7-----7---5---|
|---------------|-----0-0--------|-----0-0---------|-----0-0---------|
                |-Rhy Fig 1A                          end Rhy Fig 1A-|

                 Guitar Break
   E E Q  H 
|--------------||
|--------------||
|-10-----------||w/Riff A
|-10-----------||
|--8-----------||
|--------------||
|
|              Gtr III
|                                              ~~~~~~~~~~~~
|  E E Q  H       H         Q.       +E     E  Q.      +Q      E          E
|--------------||------------------------|-------------------------------------|
|--------------||------------------------|-------------------------------------|
|-10-----------||----------14pb16r==(14)-|-12----------------------------------|
|-10-----------||------------------------|----14------(14)----12h========14----|
|--8-----------||------------------------|-------------------------------------|
|--------------||------------------------|-------------------------------------|


   E  E  E  E         +E   +E   E  E
|------------------------------------|
|-12----12-14b15=====(14)r(14)-12----|
|-12----12-14b15=====(14)r(14)-12----|
|----14---------------------------14-|
|------------------------------------|
|------------------------------------|


   Q     +Q         Q     Q               E     +E   E  E     Q    E     E
|--------------------------------------|-----------------------------------|
|-12----(12)b12.5--14------------------|-14b15r(14)-12-------12---14b15----|
|-12----(12)b12.5--14------------------|-14b15r(14)-12-------12---14b15----|
|--------------------------------------|---------------14------------------|
|--------------------------------------|-----------------------------------|
|--------------------------------------|-----------------------------------|



                                            |---3----|         |--3--|  |----3-----|
   E     +E   E  E  Q     E         E       E     E  E  Q      E  E  E  E     +E   E
|----------------------------------------|----------12--------12---------------------|
|-14b15r(14)-12----12--------------------|-------12----15b16-----15-12---------------|
|-14b15r(14)-12----12--------------------|-14b16-----------------------14b16r(14)p12-|
|---------------14-------14--------------|-------------------------------------------|
|----------------------------------------|-------------------------------------------|
|----------------------------------------|-------------------------------------------|


  E5
 Gtr II
   Q   Q   Q       E  E   +E   E  E E  E  E  Q
   |   |   |          |    |   |  | |  |  |  |
   /   /   /          /    /   /  / x  x  x  x

 tr I
   W                      +H           Q     Q
|-----------------------|-------------------------||
|-----------------------|-------------------------||
|-----------------------|-------------------------||
|-----------------------|-------------------------||
|--2--------------------|-(2)----------xs====x\---||
|--0--------------------|-(0)----------xs====x\---||
|
|  Q   Q   Q       E  E    E   E  E E  E  E  Q
|-----------------------|-------------------15\---||
|---------12b12.5--x-12-|-----12-12---12-12-15\---||
|---------12b12.5--x-12-|-----12-12---12-12-------||
|-14--14----------------|-------------------------||
|-----------------------|-------------------------||
|-----------------------|-------------------------||


 Verse 2
            ~~~              ~~                        ~~        ~~~
                                       |----3-----|
  Q  Q   a  Q.    E    E  E  Q   E  E  E     +E   E    Q  Q   a  Q.    E
|-------------------|-------------------------------|--------------------|
|-------------------|-------------------------------|--------------------|
|-------------------|-----------12-14-14b16r(14)p12-|--------------------|
|-------12h14----14-|-12h14-14---5--7--7b9r==(7)p=5-|-14-----12h14----14-|
|--------5h=7-----7-|--5h=7--7----------------------|--7------5h=7-----7-|
|-0--0--------------|-------------------------------|-----0--------------|


         ~~
                   |----3-----|
   E  E  Q   E  E  E     +E   E
|-------------------------------|
|-------------------------------|
|-----------12-14-14b16r(14)p12-|
|-12-14-14---5--7--7b9r==(7)p=5-|
|--5h=7--7----------------------|
|-------------------------------|


                       ~~~              ~~
                                                  |----3-----|
   a      +Q    Q   a  Q.    E    E  E  Q   E  E  E     +E   E
|------------------------------|-------------------------------|
|------------------------------|-------------------------------|
|-14b16==(14)r-----------------|-----------12-14-14b16r(14)p12-|
|--7b9====(7)r-----12h14----14-|-12h14-14---5--7--7b9r==(7)p=5-|
|-------------------5h=7-----7-|--5h=7--7----------------------|
|---------------0--------------|-------------------------------|


                          ~~~              ~~
                                                     |----3-----|
  Q  Q  Q  Q    Q  Q   a  Q.    E    E  E  Q   E  E  E     +E   E
|-------------|-------------------|-------------------------------|
|-------------|-------------------|-------------------------------|
|-------------|-------------------|-----------12-14-14b16r(14)p12-|
|----5-----5--|-------12h14----14-|-12h14-14---5--7--7b9r==(7)p=5-|
|-------2-----|--------5h=7-----7-|--5h=7--7----------------------|
|-3-----------|-0--0--------------|-------------------------------|


  Gtrs I, II
                         ~~~~~
   a      +Q    Q     a  Q.         E
|-------------------------------------|
|-------------------------------------|
|-14b16==(14)r------------------------|
|--7b9====(7)r-------12h14---------14-|
|---------------------5h=7----------7-|
|---------------0---------------------|
|
| Gtr III
|                                ~
|          Q    Q        E   +E  Q
|-------------------------------------|
|-------------------------------------|
|-------------------------------------|
|----------7b9--7b9------7b9r(7)-5----|
|-------------------------------------|
|-------------------------------------|


         ~~                 ~~        ~~~
   E  E  Q    E  E  E  E    Q  Q   a  Q.    E
|------------------------|--------------------|
|------------------------|--------------------|
|---------------------12-|--------------------|
|-12h14-14---------12--5-|-14-----12h14----14-|
|--5h=7--7---12h14--5----|--7------5h=7-----7-|
|-------------5h=7-------|-----0--------------|
|
|  E  E  E E  E  E  E  E    W
|------------------------|--------------------|
|------------------------|--------------------|
|------------------------|--------------------|
|----------------------5-|--------------------|
|--5h=7--7----------5----|--------------------|
|----------0--5h=7-------|--------------------|


  Gtr I
         ~~
                   |----3-----|
   E  E  Q   E  E  E     +E   E   Q  Q  Q  Q
|-------------------------------|-------------|
|-------------------------------|-------------|
|-------------------------------|-------------|
|------------5--7--7b9r==(7)p=5-|----5-----5--|
|--5h=7--7----------------------|-------2-----|
|-------------------------------|-3-----------|
|
| Gtr II
|        ~~
|                  |----3-----|
|  E  E  Q   E  E  E     +E   E   Q  Q  Q  Q
|-------------------------------|-------------|
|-------------------------------|-------------|
|-----------12-14-14b16r(14)p12-|-------------|
|-12h14-14----------------------|----5-----5--|
|-------------------------------|-------2-----|
|-------------------------------|-3-----------|


  Q  Q  Q  E  E    +E   E  E  E  E  E  +Q
|---------------|-----------------------------||
|------------12-|-(12)-------12-14-12-(12)\---||
|------------12-|-(12)-13----12-14-12-(12)\---||
|---------------|---------14------------------||
|-2--2--2-------|-----------------------------||
|-0--0--0--0----|-----------------------------||
|
| W                +H            Q      Q
|---------------|-----------------------------||
|---------------|-----------------------------||
|---------------|-----------------------------||
|---------------|-----------------------------||
|-2-------------|--(2)-----------xs=====x\----||
|-0-------------|--(0)-----------xs=====x\----||


 Chorus
 Rhy Fig 1

Rhy Fill 2
Rhy Fig 1 + 1A

  Gtr IV
   Q   Q   Q   Q      Q    Q   Q            Q
|-----------------|-----------------------------||
|-----------------|-----------------------------||
|---------10------|-----------12----------------||
|-----10------10--|-------12---------------12---||
|--8--------------|--10-------------------------||
|-----------------|-----------------------------||
|
| Gtr II
|  W                  H.                    Q
|-----------------|-----------------------------||
|-----------------|-----------------------------||
|-10--------------|--12-------------------------||
|-10--------------|--12-------------------------||
|--8--------------|--10--------------------10\--||
|-----------------|-----------------------------||
|
| Gtr I
|          ~~
|  Q   Q   Q   Q      Q    Q   E      +E   +Q
|-----------------|-----------------------------||
|-----------------|-----------------------------||
|---------10------|-----------12b14==(12)r(12)--||
|-----10------10--|-------12--------------------||
|--8--------------|-/10-------------------------||
|-----------------|-----------------------------||


 Bridge
  $
   Q   Q     Q   E  E    Q   Q   Q   E  E
|-----------12--------|-----14--15--------|
|-----12--------12h13-|-12----------13p12-|
|---------------------|-------------------|
|-14------------------|-------------------|
|---------------------|-------------------|
|---------------------|-------------------|
|-Riff B
| Gtr V
|                        ~~
|  H      Q      E  E    H       Q   Q
|---------------------|-------------------|
|----------------7h=8-|--7-------8---7----|
|--------/9-----------|-------------------|
|---------------------|-------------------|
|---------------------|-------------------|
|---------------------|-------------------|
|
|      PM                    PM
|  Q   Q     Q   E  E    Q   Q   Q   E  E
|---------------------|-------------------|
|---------------------|-------------------|
|---------------------|----------0--------|
|------------2--------|------4------------|
|------2---------2h=3-|--2-----------3p=2-|
|--0------------------|-------------------|
|-Rhy Fig 2

   Q    Q   Q       E  E     Q   Q   Q    Q
|----------15------------|------17-------14--|
|------15----------12h13-|-/15------12-------|
|-12---------------------|-------------------|
|------------------------|-------------------|
|------------------------|-------------------|
|------------------------|-------------------|
|                                 end Riff B-|
|  ~~~
|  H.         +Q             Q   Q   E E  Q
|------------------------|-------------------|
|------------------------|-/10--10---8p7-----|
|--7----------(7)\-------|----------------9--|
|------------------------|-------------------|
|------------------------|-------------------|
|------------------------|-------------------|
|
|       PM
|  Q    Q   Q       E  E     Q   Q   Q    Q
|------------------------|-------------------|
|------------------------|-------------------|
|-----------0------------|-------------------|
|-------0----------------|-------7--------4--|
|-------------------2h=3-|--/5-------2-------|
|--3---------------------|-------------------|
                              end Rhy Fig 2-|

w/Riff B + Rhy Fig 2 both x3
   ~~                   ~~
   Q   Q    Q   E  E    H       Q   Q
|--------------------|-------------------|
|---------------7h=8-|--7-------8---7----|
|--9---9\--/9--------|-------------------|
|--------------------|-------------------|
|--------------------|-------------------|
|--------------------|-------------------|

   ~~~                                        ~~
   H.          +Q          Q   Q   E     +E   Q
|----------------------|-------------------------|
|--8-----------(8)\----|-/10--10--10b12r(10)--8--|
|----------------------|-------------------------|
|----------------------|-------------------------|
|----------------------|-------------------------|
|----------------------|-------------------------|


  Gtrs III, V
   ~~                    ~~
   Q  +Q     Q   E  E    H       Q   Q
|---------------------|-------------------|
|--8--(8)\-------7h=8-|--7-------8---7----|
|-----------/9--------|-------------------|
|-----------/5---7s=9-|--7-------9---7----|
|---------------------|-------------------|
|---------------------|-------------------|
   H         Q   E  E    H       Q   Q


   ~~~
   H.          +Q          Q   Q   E E  Q
|----------------------|-------------------|
|----------------------|-/10--10---8p7-----|
|--7-----------(7)\----|--/7---7---5p4--9--|
|--5-----------(5)\----|----------------5--|
|----------------------|-------------------|
|----------------------|-------------------|
   H.          +Q          Q   Q   E E  Q


   ~~                   ~~
   Q   Q    Q   E  E    H       Q   Q
|--------------------|-------------------|
|---------------7h=8-|--7-------8---7----|
|--9---9\--/9--------|-------------------|
|--5---5\--/5---7s=9-|--7-------9---7----|
|--------------------|-------------------|
|--------------------|-------------------|
|  Q   Q    Q   E  E    H       Q   Q


                                         To Coda
   ~~~                                        ~~
   H.          +Q          Q   Q   E     +E   Q
|----------------------|-------------------------||
|--8-----------(8)\----|-/10--10--10b12r(10)--8--||
|----------------------|--/7---7---7b9r==(7)-----||
|--9-----------(9)\----|----------------------9--||
|----------------------|-------------------------||
|----------------------|-------------------------||
   H.          +Q          Q   Q   E     +E   Q


 Chorus
w/Rhy Fig 1
   Q    Q    H         +W                  +W
|-----------12------|-(12)--------------|-(12)--------------|
|------12-----------|-------------------|-------------------|
|-------------------|-------------------|-------------------|
|-14----------------|-------------------|-------------------|
|-------------------|-------------------|-------------------|
|-------------------|-------------------|-------------------|
|
|                       >
|  ~~~~~~~~~~~~~~~~~~~~~~~~
|  W                   +W                          W
|-------------------|-------------------|-------------------|
|--8----------------|--(8)--------------|-------------------|
|-------------------|-------------------|-------------------|
|--9----------------|--(9)--------------|-------------------|
|-------------------|-------------------|-------------------|
|-------------------|-------------------|-------------------|

w/Rhy Fill 2
  Gtr III
                      |------3------|
   E     E   E     E  E     +E      E  E  E
|-------------------------------------------|
|-------10--------10------------------------|
|-12b14-----12b14----14b16r(14)p===12----12-|
|-------------------------------------14----|
|-------------------------------------------|
|-------------------------------------------|


w/Rhy Fig 1
   ~~~~~~~~~~~~~~~~~~~~~~~~~~~~~~~
   W                 +H       +E      E  E     +E
|-----------------|---------------------------------|
|-----------------|---------------------14b15r(14)p=|
|-----------------|------------------12-14b15r(14)p=|
|-14--------------|-(14)-----(14)-------------------|
|-----------------|---------------------------------|
|-----------------|---------------------------------|


                               |-w/Rhy Fill 2
   Q    E     +E   E   E  E  E    E     +E   E  E     +E   E   E     +E
|------------------------------|-----------------------------------------|
|-12---14b15r(14)p12-----------|-14b15r(14)-12-14b15r(14)-12-------------|
|-12---14b15r(14)p12-----------|-14b15r(14)-12-14b15r(14)-12--14b16r(14)-|
|---------------------12-------|-----------------------------------------|
|------------------------14-12-|-----------------------------------------|
|------------------------------|-----------------------------------------|


w/Rhy Fig 1 + 1A
   ~~~                                              ~~~~~~~~~~~~
   H.            E  E    +H.            E  E     E  E  E  E  E.  S  Q
|---------------------|----------------------|--------------------------|
|-12---------------17-|-(17)--------------15-|--------------------------|
|-12-----------/16----|----------------16----|-/12--------------12-14---|
|---------------------|----------------------|-----14-14-14-14----------|
|---------------------|----------------------|--------------------------|
|---------------------|----------------------|--------------------------|


w/Rhy Fill 2                        |-w/Rhy Fig 1 + 1A
                                                        ~~~
                                      |--3--|
   E     +E   E  E  E  E   S  S  E    S  S  S  E  E  E  Q.   E
|----------------------------------|---------------------------|
|-14b15r(14)-12--------------------|---------------------------|
|-14b15r(14)-12----12-14--14p12----|-12h14p12---------------12-|
|---------------14--------------14-|----------14-12-14-14------|
|----------------------------------|---------------------------|
|----------------------------------|---------------------------|


                  ~~~
   E     E  E  E  Q.     E    E  E  E  Q        E  E  E
|-------12-----------------|----------------------------|
|-----------------------12-|-------------------15-12----|
|-14b16-----------------12-|-12----12-14b16----------14-|
|----------12-14-14--------|----14----------------------|
|--------------------------|----------------------------|
|--------------------------|----------------------------|


  F5VIII
  Gtrs I, II
   E  E Q  H      W          W
   |
   /

  Gtr III
   Q    Q  H      W          W
|---------------|----------|------|
|---------------|----------|------|
|-12\-----------|----------|------|
|---------------|----------|------|
|---------------|----------|------|
|---------------|----------|------|


 Bridge
  G5
  Gtr II
  E  E  E  E  E  E  E  E   E  E  E  E  E  E  E  E
  |  |  |  |  |  |  |  |   |  |  |  |  |  |  |  |
  /  /  /  /  /  /  /  /   /  /  /  /  /  /  /  /

  Gtr I
     PM-----------------------------|
  E  E  E  E  E  E  E  E   E  E  E  E  E  E  E  E
|------------------------|-------------------------|
|------------------------|-------------------------|
|------------------------|-------------------------|
|-5----------------------|-------------5--5--5--5--|
|-5--5--5--5--5--5--5--5-|-5--5--5--5--5--5--5--5--|
|-3--3--3--3--3--3--3--3-|-3--3--3--3--3--3--3--3--|


  PM-------------------|
  E  E  E  E  E  E  E  E
|------------------------|
|------------------------|
|------------------------|
|------------------------|
|-5--5--5--5--5--5--5--5-|
|-3--3--3--3--3--3--3--3-|


   S   S   S   S   S   S   S   S   S   S   S   S    S    S    S    S
|---------------------------------------------------------------------||
|---------------------------------------------------------------------||
|---------------------------------------------------------------------||
|---------------------------------------------------------------------||
|---------------------------------------------------------------------||
|-<4>-<4>-<4>-<4>-<5>-<5>-<5>-<7>-<7>-<7>-<7>-<7>-<12>-<12>-<12>-<12>-||



w/Riff A (1st 6 bars)


                                                  Guitar Solo
  Gtr I               Gtrs I, II
   ~~        ~~                                                 ~~~
   Q  Q   a  Q   E  E    W                          Q   Q    a  Q.    E
|---------------------|-------------------------||----------------------|
|---------------------|-------------------------||----------------------|
|---------------10-10-|-------------------------||----------------------|
|---------------10-10-|-------------------------||----------12h14----14-|
|--7------5s=7---8--8-|-------------------------||-----------5h=7-----7-|
|-----0---------------|-------------------------||--0---0---------------|
|
| Gtr II              Gtr III
|  ~~        ~~          PM---|                     ~~~~~~~
|  Q  Q   a  Q   E  E    E  E  E  E  E  E  E  E     Q   H.
|---------------------|-------------------------||----------------------|
|---------------------|-------------------------||----------------------|
|---------------15-15-|-12-12-12-12-12-12-12-12-||-12-------------------|
|-14-----12h14--------|-------------------------||-----14---------------|
|---------------------|-------------------------||----------------------|
|-----0---------------|-------------------------||----------------------|


         ~~~~~~
                                  |----3-----|
   E  E  Q             E      E   E     +E   E
|----------------------------------------------|
|----------------------------------------------|
|---------------------12-----14--14b16r(14)p12-|
|-12-14-14-------------5------7---7b9r==(7)p=5-|
|--5h=7--7-------------------------------------|
|----------------------------------------------|
|
|        |----3-----|
|  E  E  E     +E   E  Q         +Q
|----------------------------------------------|
|-12-14-14b15r(14)p12-14b15=====(14)r\---------|
|-12-14-14b16r(14)p12-14b16=====(14)r\---------|
|----------------------------------------------|
|----------------------------------------------|
|----------------------------------------------|


   ~~               ~~~~~                        ~~
   Q       Q     a  Q.                E    E  E  Q  Q   Q
|---------------------------------------|-------------------|
|---------------------------------------|-------------------|
|---------------------------------------|-----------7---9---|
|-14------------12h14----------------14-|-12h14-14--7---9---|
|--7-------------5h=7-----------------7-|--5h=7--7--5---7---|
|----------0----------------------------|-------------------|
|
|                                                ~~
|  E E    +Q        E    +E     +Q         E  E  Q  Q.    E
|---------------------------------------|-------------------|
|---------------------------------------|-------------------|
|--2-2b4==(2)r------2b3==(2)b4==(2)r----|--0--------0-------|
|---------------------------------------|-----2--2--------0-|
|---------------------------------------|-------------------|
|---------------------------------------|-------------------|


                       ~~~                     ~~
                                                           |----3-----|
   Q          Q     a  Q.      E    E      E   Q     E  E  E     +E   E
|--------------------------------|--------------------------------------|
|--------------------------------|--------------------------------------|
|--------------------------------|------------------12-14-14b16r(14)p12-|
|------------------12h14------14-|-12-----14--14-----5--7--7b9r==(7)p=5-|
|-------------------5h=7-------7-|--5h=====7---7------------------------|
|--0----------0------------------|--------------------------------------|
|
|  E     +E   E  E     Q    Q       E     +E   E  E  Q     Q
|--------------------------------|--------------------------------------|
|-14b15r(14)-12-------12---14----|-14b15r(14)-12----12------------------|
|-14b15r(14)-12-------12---14----|-14b15r(14)-12----12------------------|
|---------------14---------------|---------------14-------14------------|
|--------------------------------|--------------------------------------|
|--------------------------------|--------------------------------------|


   ~~~~~                 ~~~
   Q           Q      a  Q.                   E
|--------------------------------------------------|
|--------------------------------------------------|
|--------------------------------------------------|
|-14-----------------12h14-------------------14----|
|--7------------------5h=7--------------------7----|
|--------------0-----------------------------------|
|
|  |---3----|            |--3---|  |------3------|
|  E     E  E  Q         E   E  E  E     +E      E
|----------12-----------12-------------------------|
|-------12----15b17---------15-12------------------|
|-14b16---------------------------14b16r(14)p===12-|
|--------------------------------------------------|
|--------------------------------------------------|
|--------------------------------------------------|


                                             D.S. al Coda
  F5VIII                     G5X                    G
  Gtr II
   W                           H.                     Q
   |                           |                      |
   /                           /                      o

  Gtr I
                ~~~~
   Q    Q       Q     Q        Q    Q    E      +E   +Q
|--------------------------|------------------------------||
|--------------------------|------------------------------||
|--------------10----------|------------12b14==(12)r(12)--||
|------10------------10----|-------12---------------------||
|--8-----------------------|-/10--------------------------||
|--------------------------|------------------------------||
|
| Gtr IV
|  Q    Q       Q     Q        Q    Q    Q            Q
|--------------------------|------------------------------||
|--------------------------|------------------------------||
|--------------10----------|------------12----------------||
|------10------------10----|-------12----------------12---||
|--8-----------------------|--10--------------------------||
|--------------------------|------------------------------||
|
| Gtr III
|  Q.      +E   Q     Q        H        +H
|-13------(13)s(8)\--------|--15-------(15)\--------------||
|-13------(13)s(8)\--------|--15-------(15)\--------------||
|--------------------(2)/--|------------------------------||
|--------------------------|------------------------------||
|--------------------------|------------------------------||
|--------------------------|------------------------------||


  &
  E5
  Gtr I
   Q   Q   H                 W
   |
   /

  Gtr IV
   Q   Q   Q   E  E    Q   Q    Q   E  E
|---------12--------|-----14---15--------|
|-----12------12h13-|-12-----------13p12-|
|-------------------|--------------------|
|-14----------------|--------------------|
|-------------------|--------------------|
|-------------------|--------------------|


   W                    W
   Q   Q   Q   E  E     Q   Q   Q   Q
|---------15--------|------17------14--|

|-----15------12h13-|-/15------12------|
|-12----------------|------------------|
|-------------------|------------------|
|-------------------|------------------|
|-------------------|------------------|


   Q   Q   Q   E  E    Q   Q   Q   E  E
|---------12--------|-----14--15--------|
|-----12------12h13-|-12----------13p12-|
|-------------------|-------------------|

|-14----------------|-------------------|
|-------------------|-------------------|
|-------------------|-------------------|


                                      ~~
   Q   Q   Q   E  E     Q   Q   E  E  Q
|---------15--------|------17------------|
|-----15------12h13-|-/15------12h15p12--|
|-12----------------|--------------------|
|-------------------|--------------------|
|-------------------|--------------------|
|-------------------|--------------------|


   Q   Q   Q   E  E    Q   Q   Q   E  E    Q   Q   Q   E  E     Q   Q   Q   Q
|---------12--------|-----14--15--------|---------15--------|------17------14--|
|-----12------12h13-|-12----------13p12-|-----15------12h13-|-/15------12------|
|-------------------|-------------------|-12----------------|------------------|
|-14----------------|-------------------|-------------------|------------------|
|-------------------|-------------------|-------------------|------------------|
|-------------------|-------------------|-------------------|------------------|


   Q   Q   Q   E  E    Q   Q   Q   E  E
|---------12--------|-----14--15--------|
|-----12------12h13-|-12----------13p12-|
|-------------------|-------------------|
|-14----------------|-------------------|
|-------------------|-------------------|
|-------------------|-------------------|


                                      ~~
   Q   Q   Q   E  E     Q   Q   E  E  Q
|---------15--------|------17------------|
|-----15------12h13-|-/15------12h15p12--|
|-12----------------|--------------------|
|-------------------|--------------------|
|-------------------|--------------------|
|-------------------|--------------------|


   Q   Q   Q   E  E    Q   Q   Q   E  E
|---------12--------|-----14--15--------|
|-----12------12h13-|-12----------13p12-|
|-------------------|-------------------|
|-14----------------|-------------------|
|-------------------|-------------------|
|-------------------|-------------------|


   Q   Q   Q   E  E     Q   Q   Q   Q
|---------15--------|------17------14--*|
|-----15------12h13-|-/15------12------*|
|-12----------------|------------------*|
|-------------------|------------------*|
|-------------------|------------------*|
|-------------------|------------------*|

x x x x x x x x x x x x x x x x x x x x x x x x x x x x x x x x x x x x x

3. Devil's dance





                    METALLICA-DEVIL'S DANCE
                    -----------------------
                        Transcribed by 
                     Christopher J. Rizzo
                    -----------------------
                           11/13/97

This is based on the track from ReLoad. This is in 4/4 time but parts
of it have a strong swing feel. Also notice the guitars are tuned at 
standard pitch except for the low E string which is tuned down to D. 
Remember for the best crunch down-pick EVERYTHING!

TUNING: Drop-D

Intro:
 
  (Intro bass riff tabbed for guitar)
E|------------------------------------|
B|------------------------------------|
G|------------------------------------| REPEATS
D|------------------------------------| THROUGHOUT
A|------------------------------------| INTRO
D|--6~--0---0---0-3-0---0-5-3-0-3-5---|


E|-----------|--------------|----------|---------------|
B|-----------|--------------|----------|---------------|
G|-----------|--------------|----------|---------------| PLAY 
D|-----------|--------------|----------|---------------|  1X
A|--8-8------|--8-8-8-8-8---|--8-8-----|--0-0-0-0------|
D|--8-8------|--8-8-8-8-8---|--8-8-----|--0-0-0-0------|
    x x         x x x x        x x        m m m m

   
E|---------------------------------|
B|---------------------------------|
G|---------------------------------| PLAY
D|---------------------------------|  8X
A|--0-0-0-0---0-0---0-0---0-0--0---|
D|--0-0-0-0---0-0---0-0---0-0--0---|
    m m m m   m m   m m   m m  m 
   
E|-----------------------------------------------------|
B|-----------------------------------------------------|
G|-----------------------------------------------------|
D|-----------------------------------------------------|
A|--0--------------------------------------------------|
D|--0--------------------------------------------------|
    ^ Let Ring out about 16 beats.... 

  
E|-------------|------------|-----------|--------------|
B|-------------|------------|-----------|--------------|
G|-------------|------------|-----------|--------------|
D|-------------|------------|-----------|--------------|
A|-/5----------|-/5---------|-/5--------|-/5-----------|
D|-----6~------|-----5~-----|-----6~----|-----5~-------|


Main Riff: with swing feel.
       
E|------------------------|---------------------------|
B|------------------------|---------------------------|
G|------------------------|---------------------------| PLAY
D|------------------------|---------------------------|  2X
A|--5-----------5---------|--5------------5-----------|
D|------6~----------5~----|------6~----------5--3p0---|


E|-------|
B|-------|
G|-------| PLAY
D|-------|  1X
A|-------|
D|--3p0--|

Verse:

E|-------------------------------|
B|-------------------------------|
G|-------------------------------| PLAY
D|-------------------------------|  3X
A|--0-0-0-0---0-0-----0---0---0--|
D|--0-0-0-0---0-3-----0---0---0--|
    m m m m   m       m   m   m

E|-------------------------------|
B|-------------------------------|
G|-------------------------------| PLAY
D|-------------------------------|  1X
A|--0-0-0-0---0-0----------------|
D|--0-0-0-0---0-3-----5b6r5--3---|
    m m m m   m 
                     
E|-------------------------------|--------------------------------|
B|-------------------------------|--------------------------------|
G|-------------------------------|--------------------------------| PLAY
D|-------------------------------|--------------------------------|  1X
A|--3-3-3-3---3-3---3-3---3-3--3-|--3-3-3-3---3-3---3-3-----------|
D|--3-3-3-3---3-3---3-3---3-3--3-|--3-3-3-3---3-3---3-3-5b6r5--3--|
    m m m m   m m   m m   m m       m m m m   m m   m m

E|-------------------------------|
B|-------------------------------|
G|-------------------------------| PLAY
D|-------------------------------|  1X
A|--0-0-0-0---0-0-----0---0---0--|
D|--0-0-0-0---0-3-----0---0---0--|
    m m m m   m       m   m   m

E|-------------------------------|
B|-------------------------------|
G|-------------------------------| PLAY
D|-------------------------------|  1X
A|--0-0-0-0---0-0----------------|
D|--0-0-0-0---0-3-----5b6r5--3---|
    m m m m   m 

E|-------------------------------|--------------------------|
B|-------------------------------|--------------------------|
G|-------------------------------|--------------------------| PLAY
D|-------------------------------|--------------------------|  1X
A|--3-3-3-3---3-3---3-3---3-3--3-|--2-2-2-2---2-2---2-2-----|
E|--3-3-3-3---3-3---3-3---3-3--3-|--2-2-2-2---2-2---2-2-----|
    m m m m   m m   m m   m m       m m m m   m m   m


Bridge:

E|---------------------------|----------------------------|
B|---------------------------|----------------------------|
G|---------------------------|----------------------------| PLAY
D|---------------------------|----------------------------|  1X
A|--5-----------5------------|---5-----------5------------|
D|------6~----------5~-------|-------6~----------5~--3p0--|


E|-------|
B|-------|
G|-------| PLAY
D|-------|  1X
A|-------|
D|--3p0--|


Chorus:

E|---------------------------------|---------------------------|
B|---------------------------------|---------------------------|
G|---------------------------------|---------------------------| PLAY
D|---------------------------------|---------------------------|  3x
A|--6-------6-------6-------6---3--|--0-----3-----3-----0--3---|
D|--6---6-6-6---6-6-6---6-6-6---3--|--0--0--3-----3-----0--3---|
        m m     m m     m m              m                   

E|------------------|
B|------------------|
G|------------------| PLAY
D|------------------|  1X
A|--6---------------|
D|--6---------------|


Repeat Main Riff
Repeat Verse
Repeat Bridge
Repeat Chorus

Solo Rhythm:

   
E|---------------------------------|
B|---------------------------------|
G|---------------------------------| PLAY
D|---------------------------------|  4X
A|--0-0-0-0---0-0---0-0---0-0--0---|
D|--0-0-0-0---0-0---0-0---0-0--0---|
    m m m m   m m   m m   m m  m 

E|---------------------------------|
B|---------------------------------|
G|---------------------------------| PLAY
D|---------------------------------|  3X
A|--3-3-3-3---3-3---3-3---3-3--3---|
D|--3-3-3-3---3-3---3-3---3-3--3---|
    m m m m   m m   m m   m m  m  

E|---------------------------------|
B|---------------------------------|
G|---------------------------------| PLAY
D|---------------------------------|  1X
A|--3-3-3-3---3-3---3-3------------|
D|--3-3-3-3---3-3---3-3--5b6r5--3--|
    m m m m   m m   m m    

E|-------------------------------|
B|-------------------------------|
G|-------------------------------| PLAY
D|-------------------------------|  4X
A|--0-0-0-0---0-0-----0---0---0--|
D|--0-0-0-0---0-3-----0---0---0--|
    m m m m   m       m   m   m

E|---------------------------------|---------------------------|
B|---------------------------------|---------------------------|
G|---------------------------------|---------------------------| PLAY
D|---------------------------------|---------------------------|  3x
A|--6-------6-------6-------6---3--|--0-----3-----3-----0--3---|
D|--6---6-6-6---6-6-6---6-6-6---3--|--0--0--3-----3-----0--3---|
        m m     m m     m m              m                   

E|------------------|
B|------------------|
G|------------------| PLAY
D|------------------|  1X
A|--6---------------|
D|--6---------------|


E|-------------|------------|-----------|--------------|
B|-------------|------------|-----------|--------------|
G|-------------|------------|-----------|--------------| PLAY 
D|-------------|------------|-----------|--------------|  1X
A|-/5----------|-/5---------|-/5--------|-/5-----------|
D|-----6~------|-----5~-----|-----6~----|-----5~-------|

      
E|------------------------|---------------------------|
B|------------------------|---------------------------|
G|------------------------|---------------------------| PLAY
D|------------------------|---------------------------|  1X
A|--5-----------5---------|--5------------5-----------|
D|------6~----------5~----|------6~----------5--3p0---|


E|------------------------|---------------------------|
B|------------------------|---------------------------|
G|------------------------|---------------------------| PLAY
D|------------------------|---------------------------|  1X
A|--5-----------5---------|--5-------6---------6--6---|
D|------6~----------5~----|------6~--6---------6--6---|

x x x x x x x x x x x x x x x x x x x x x x x x x x x x x x x x x x x x x


4. The uforgiven II


Tuning:Eb
 
Intro:A5 C5 G5 E5 A5 C5 G5 E5
Am C G Em Am C G Em
 
Am           C  G  Em                      Am
   Lay beside me, tell me what they've done
              C               G     Em               Am
Speak the words I want to hear, to make my demons run
                 C    G         Em
The door is locked now but it's opened if you're true
Am              C              G            Em                Am
   If you can understand the me, then I can understand the you
 
Cadd9 G Em Am Cadd9 G Em 
       
Am           C  G  E
   Lay beside me, under wicked skies
Am                     C            G        E                Am
   Through black of day, dark of night, we share this paralyze
                C   G             E                 Am
The door cracks open but there's no sun shining through
              C                  G              E                    Dm
Black heart scarring darker still, but there's no sun shining through
 
            F                     G
No, there's no sun shining through
            F             Asus2
No, there's no sun shining
 
Asus2Am              Asus2   G/B
What I've felt, what I've known
G/C Csus2          C5         G/B
Turn the pages, turn the stone
 
Asus2 Am                 Asus2   G        G/C Csus2
Behind the door, should I open it for you?
 
Asus2 Am             Asus2     G/B
What I've felt, what I've known
G/C Csus2             C5
Sick and tired, I stand alone
G/B   Asus2 Am                     Asus2        G       G/C Csus2
Could you be there, 'cause I'm the one who waits for you
Or are you unforgiven, too?
 
A5 C5 G5 E5 A5 C5 G5 E5
 
Am           C  G   E
  Come beside me, this won't hurt, I swear
Am                 C                   G             E
   She loves me not, she loves me still, but she'll never love again
Am               C         E                          Am
   She lay beside me but she'll be there when I'm gone
               C                 G              E                    Dm
Black heart scarring darker still, yes, she'll be there when I'm gone
            F
Yes, she'll be there when I'm gone
G        F                 Asus2
  Dead sure she'll be there
 
Asus2 Am             Asus2   G/B
What I've felt, what I've known
G/C  Csus2             C5    G/B
Turn the pages, turn to stone
 Asus2 Am                Asus2   G        G/C Csus2
Behind the door, should I open it for you?
 
Asus2 Am             Asus2     G/B
What I've felt, what I've known
G/C Csus2             C5
Sick and tired, I stand alone
G/B   Asus2 Am                     Asus2        G       G/C Csus2
Could you be there, 'cause I'm the one who waits for you
Or are you unforgiven, too?
 
G5 E A C G E Asus2 Am Asus2 Am G/B
G/C Csus2 C5 G/B Asus2 Am Asus2 G/B
G/C Csus2 A5 C5
G5 E5 A5 C5 G5 E5
Am C G Em
 
Am           C  G Em
   Lay beside me, tell me what I've done
Am                C                    G
   The door is closed, so are your eyes
    Em               Dm F               G
But now I see the sun, now I see the sun
     F
Yes, now I see it
 
Asus2     Am              Asus2    G
     What I've felt, what I've known
G/C  Csus2          C5        G/B
Turn the pages, turn the stone
 
  Asus2 Am                 Asus2 G/B
Behind the door, should I open it for you?
 
Asus2 Am             Asus2     G/B
What I've felt, what I've known
G/C Csus2             C5
Sick and tired, I stand alone
G/B   Asus2 Am                     Asus2        G       G/C Csus2
Could you be there, 'cause I'm the one who waits for you
 
Asus2     Am              Asus2    G
     What I've felt, what I've known
G/C  Csus2          C5        G/B
Turn the pages, turn the stone
 
  Asus2 Am                 Asus2 G/B
Behind the door, should I open it for you?
 
Asus2     Am              Asus2    G
     What I've felt, what I've known
 
G/B  Asus2 Am
   I take this key
       Asus2 G
And I bury it in you
G/C csus2                 C5      G    
         Because you're unforgiven, too
Am G/B
Never free
Never me 
Asus2 Am               D5          A  Am   G
         'Cause you're unforgiven, too




Metallica - The Unforgiven 2
Submitted By: Zudin
EMail: gul_bone


Tuning: Standard (E A D G B E)


Ok..I got a few requests lately for this song. And I totally know why..The
Unforgiven II is both an INCREDIBLE song, AND its also hard as hell to play
and is a VERY VERY involved song guitar wise, but thankfully, I got my
trusty Ibanez tape recorder which helps me out when it comes to figuring
out songs.

First thing I wanna tell ya...there are a lot of 2 different guitar
parts going on at the same time....so whenever you see 2 lines of tab
connected like this....

/|-----------------------------|
||-----------------------------|
||-----------------------------|
||-----------------------------|
||-----------------------------|
||-----------------------------|
|
|
||-----------------------------|
||-----------------------------|
||-----------------------------|
||-----------------------------|
||-----------------------------|
\|-----------------------------|
...notice the verticle line down the left of the tab. That means to play
both those lines (seperate guitars) at the same time.


As always in Load and Re-load, tune down guitars 1 half step.

Oh, by the way, whenever theres a part with 2 guitars at the same time,
like I expalined above...The Part Kirk plays will be on top, and James will
be under it.

Intro (2 guitars-both distortion)
/ |----------------------------------------------------------------------|
| |----------------------------------------------------------------------|
| |----------------------------------------------------------------------|
| |-7------7/9/10---12\10/12----/14\12--10/12\10--10----7\9\10-12\10\12--|
| |----------------------------------------------------------------------|
| |-5------5/7/8----10\8 /10----/12\10---8/10\8---8-----5\7\8--10\8-\10--|
|
| |----------------------------------------------------------------------|
| |----------------------------------------------------------------------|
| |-2--2---5--------5--------------------------------2-------------------|
| |-2--2---5--------5-----5------2-------2-----------2---------------5---|
| |-0--0---3--------3-----5------2-------2-----------0---------------5---|
\ |-----------------------3------0-------0---------------------------3---|


/ |-----------------|
| |-----------------|
| |-----------------|
| |-/12\7---7/9\7---|
| |-----------------|
| |-/10\5---5/7\5---|
|
| |-----------------|
| |-----------------|
| |----out----------|
| |-----------------|
| |-----------------|
\ |-----------------|


Heres the thing, James uses a B-string bender on his guitar
for that "country" soundin part, you can play it ALMOST like that by
just playin what I got.                                            Light distortion
/|-------------------------------------------------------------------------|
||------------------------------------------------5/10--10-12-13--12^-9-9/-|
||------------------------------------------------2/5----------------------|
||-------------------------------------------------------------------------|
||-------------------------------------------------------------------------|
||-------------------------------------------------------------------------|
|
||------0----------------------3---3--3---------------|
||---------1---------------3^------3^-3^--0---1/3\1---|
||----------------------0-------------------0-2/4\2---|
||---2---------------2--------------------------------|repeat throughout
||0-----------0-2-3-----------------------------------|similar stuff
\|----------------------------------------------------|
                         full bend


..Then start singing the first verse

...Then when he sings "Then I can Understand the you", play the guitar part
that KIRK (and only Kirk) plays in the intro, and at the same time, a
second guitar (no distortion) plays a strummer of chords, like so...
           (Chord boxes are listed at the top of the page)

                   Am  / / // Cadd9  / / // G  / / // Em  / / //
"Understand the you"

Play that 2 times. Then....

         "Lay beside...
|--------------------------------------------|
|--------------------------------------------|
|--------2-----------0---------0---------1---|Repeat that 3 more times
|----2-----------2---------------------------|
|-0-----------3-------------2---------2------|
|------------------------3---------0---------|


Then ya got....

          No, theres no sun...
|-----------------------------------------------------0------|
|--------3-------------1-----------------------1------0------|
|-----2-------------2-------------0---------2---------2------|
|--0-------------3-----------------------3------------2------|
|------------------------------2----------------------0------|
|--------------------------3---------------------------------|Chorus (distortion)

"What ive.."               "Turn the pages.."
|--------------------------------------------------------------|
|--0--1-----1--1----1---0--1--0--3----3--3----3--1----1--1---0-|
|--2--2-----2--2----2---2--2--0--0----0--0----0--0----0--0---0-|
|--2--2-----2--2----2---2--2-----------------------------------|
|--0-----X------------X-0--------------------------------------|
|--------------------------------------------------------------|

...Repeat that line again for the next part of the chorus
then play...

|---------------------------|
|---------------------------|
|----/7--5--4--5----4-------|
|---------------------7\----|
|---------------------------|
|---------------------------|

Repeat the entire thing for the rest of the chorus...

...then, for the next verse...ok, let me explain the next verse..
the next verse, as you should obviously know, has a weird sounding
guitar effect in it. That effect can be produced by taking your
chorus pedal, and turn the SPEED and the DEPTH both up ALL THE WAY.
and, thats how you make the effect.

Next verse
|--8------8------8-------8------7------7------7------7------|
|-10-----10------8-------8------8------8------9------9------|
|-----9------9-------9------9------7------7------9------9---|Repeat for
|-----------------------------------------------------------|entire verse
|-----------------------------------------------------------|
|-----------------------------------------------------------|

the third time you play that..the 2nd guitar plays..
|--------------------------------------------|
|--------------------------------------------|
|--------2-----------0---------0---------1---|
|----2-----------2---------------------------|
|-0-----------3-------------2---------2------|
|------------------------3---------0---------|

..then, for the PRE CHORUS ("she'll be there when Im gone"), play...
|-----------------------------------------------------0------|
|--------3-------------1-----------------------1------0------|
|-----2-------------2-------------0---------2---------2------|
|--0-------------3-----------------------3------------2------|
|------------------------------2----------------------0------|
|--------------------------3---------------------------------|

...then ya repeat the chorus....


Ok...im about to type out the solo. Its actually kinda easy for Kirk's
standards.....before I type the solo...i want to tell you what the other
guitar shouls play...

first, when the solo starts, the other guitar plays the intro part 1 and
a half times, then it plays G5 /   / /   E5 / XX X, then it plays the
chorus part until the solo is finished....just listen to the cd.

Solo
|-------------------------------------------------------------------------|
|-----------------5--7----------------------------------------------------|
|-----------------5--7---5\4--5--4h5p4---4----------------17-19^-17----17-|
|-/7----7--7---7-----------------------7----5~~--5-5--/19-----------19----|
|-------------------------------------------------------------------------|
|-------------------------------------------------------------------------|

|-------------------------------------------------------------------------|
|-------20-------20------20-------20------20--20----20--20---19^--17---17-|
|-19^------19-------19------^19------19^--19-----19-----19-----------19---|
|-------------------------------------------------------------------------|
|-------------------------------------------------------------------------|
|-------------------------------------------------------------------------|

|---------------------------17--------------17--------------17-------17---|
|--20^--20^--20^--20^\--/17----17-20^^\-/17----17--20^\-/17---17-20^---20-|
|-------------------------------------------------------------------------|
|-------------------------------------------------------------------------|
|-------------------------------------------------------------------------|
|-------------------------------------------------------------------------|

|-------------------------------------------------------------------------|
|-17----------------19-17----19-17----19-17----19-17----------------------|
|----19p17-19p17----19-17----19-17----19-17----19-17----17-19-19^-19p17---|
|----------------19-------19-------19-------19-------19----------------19-|
|-------------------------------------------------------------------------|
|-------------------------------------------------------------------------|

|-------------------------------------------------------------------|
|-----------------19--17\-------------------------------------------|
|--17--19^^p17----19--17\------5------------------------------------|
|--------------19----------/7------7--5----5------------------------|
|---------------------------------------7----7--6--5--3----5---3----|
|--------------------------------------------------------5-------5--|

..right after the solo, play the intro part again.
then, play the Jaymz's "country" sounding part (you know what I mean), then
the chorus, and half way through, you hear a part in there (the main part
from the Original Unforgiven), which is played...

(with reverb or some sort of echo)
|---------------------------------------------|
|---------------------------------------------|
|--2--4-4h5--5--5-5-4--0-----2--4-4h5--7--5---|
|---------------------------------------------|
|---------------------------------------------|
|---------------------------------------------|

the second time around, you play it....
|----------------------------------------------|
|------------------------------------------5---|
|--2--4-4h5--5--5-5-4--0-----2--4-4h5--7-------|
|----------------------------------------------|
|----------------------------------------------|
|----------------------------------------------|


...then the outro is basically just a strummer of chords..Play each chord
in gropus of 2, and keep them spaced out between each chord

                 Am /    G-B /    Asus2  Am    D5 /  Am /  G /   G5
"unforgiven too"                                                (hold)


....then, afer a second or 2 in silence, you think the song is over, but
then you hear the cymbal, and a little soft sounding thing on the guitar.
it goes like this....

Play this volume swell
|------------------|
|------------------|
|--4^-grad.-bend---|
|--2---------------|
|--0---------------|
|------------------|
in case you dont know what a volume swell is..before you play that chord,
turn the volume knob on the guitar down all the way, play the chord, then
turn the volume up.

x x x x x x x x x x x x x x x x x x x x x x x x x x x x x x x x x x x x x


5. Better than you

Transcribed by www.mikesguitarsite.co.uk 
Words and Music by James Hetfield & Lars Ulrich 

Gtr I (Eb Ab Db Gb Bb Eb) - 'James Hetfield - Rhythm w/dist'
Gtr II (Eb Ab Db Gb Bb Eb) - 'Kirk Hammett - Rhythm w/dist'
Gtr III (Eb Ab Db Gb Bb Eb) - 'Kirk Hammett - Lead w/dist'
Gtr IV (Eb Ab Db Gb Bb Eb) - 'James Hetfield - Lead w/dist'

Intro
  Q=160
 4/4
  Gtr I
  W          W          W          Q   E   E  H
|----------|----------|----------|-----------------|
|----------|----------|----------|-----------------|
|----------|----------|----------|-----------------|
|----------|----------|----------|-----------------|
|----------|----------|----------|-----------------|
|----------|----------|----------|----<2>-<2>------|


                              Gtr II
  W             W               E E E E Q   Q    W               W
                                |   | | |
                                x   x x x

  H    E E Q    Q.   E E E Q    H       E E Q    Q.   E E E Q    H    E E Q
|-------------|---------------|----------------|---------------|-------------|
|-------------|---------------|----------------|---------------|-------------|
|-------------|---------------|----------------|---------------|-------------|
|------5-6-7--|-5------2------|---------5-6-7--|-5------2------|------5-6-7--|
|------5-6-7--|-5------2------|---------5-6-7--|-5------2------|------5-6-7--|
|------3-4-5--|-3----0-0------|---------3-4-5--|-3----0-0------|------3-4-5--|
              |-Rhy Fig 1        end Rhy Fig 1-|

w/Rhy Fig 1 x2
  Gtr II
    E    E    E    E    E    E    E    E     E   E   E   E   E   E   E   E
|-----------------------------------------|---------------------------------|
|-----------------------------------------|---------------------------------|
|-----------------------------------------|---------------------------------|
|-----------------------------------------|---------------------------------|
|-----------------------------------------|---------------------------------|
|-<12>-<12>-<12>-<12>-<12>-<12>-<10>-<10>-|-<9>-<9>-<9>-<9>-<8>-<8>-<7>-<7>-|


   E   E   E   E   E   E   E   E     E   E   E   E  E E Q
|---------------------------------|------------------------|
|---------------------------------|------------------------|
|---------------------------------|------------------------|
|---------------------------------|-----------------5-6-7--|
|---------------------------------|-----------------5-6-7--|
|-<7>-<7>-<6>-<6>-<6>-<5>-<5>-<5>-|-<5>-<4>-<4>-<3>-3-4-5--|


    Gtrs I, II
             PM--|     PM--|
    Q.   E E E E E   E E E E E E Q   4x
||-----------------|-----------------||
||o----------------|----------------o||
||-----------------|-----------------||
||--5------2-------|-2-------5-6-7---||
||o-5------2-------|-2-------5-6-7--o||
||--3----0-0-0-0-0-|-0-0-0-0-3-4-5---||
 |-Rhy Fig 2           end Rhy Fig 2-|


 Verse 1
  Gtr II
|-Rhy Fig 3A                                             end Rhy Fig 3A-|
  G5                 A5                 G5   E E5                G5G#A5
  Q  E E  E  E E E   Q  E E  E  E E E   Q.   E E E E E   E E E E E E Q
  |    |     |   |   |    |     |   |   |    | | | | |   | | | | | | |
  /    /     /   /   /    /     /   /   /    o / / / /   / / / / / / /

  Gtr I
                                                 PM--|     PM--|
  Q  E E +E  E Q     Q  E E +E  E Q     Q.   E E E E E   E E E E E E Q
|------------------|------------------|----------------|----------------|
|------------------|------------------|----------------|----------------|
|------------------|------------------|----------------|----------------|
|-5--5-5-(5)-5-5---|-7--7-7-(7)-7-7---|-5------2-------|-2-------5-6-7--|
|-5--5-5-(5)-5-5---|-7--7-7-(7)-7-7---|-5------2-------|-2-------5-6-7--|
|-3--3-3-(3)-3-3---|-5--5-5-(5)-5-5---|-3----0-0-0-0-0-|-0-0-0-0-3-4-5--|
|-Rhy Fig 3                                               end Rhy Fig 3-|


Rhy Fig 3 + 3A

|-Rhy Fig 4A
  G5                 A5                 C5                D5
  Q  E E  E  E E E   Q  E E  E  E E E   Q  E E +E  E Q    Q  E E    E  E Q
  |    |     |   |   |    |     |   |   |    |  |  | |    |    |    |  | |
  /    /     /   /   /    /     /   /   /    /  /  / /    /    /    /  / /

  Q  E E +E  E Q     Q  E E +E  E Q     Q  E E +E  E Q    Q  E E   +E  E Q
|------------------|------------------|-----------------|-------------------|
|------------------|------------------|-----------------|-------------------|
|------------------|------------------|-5--5-5-(5)-5-5--|-7--7---------7-0--|
|-5--5-5-(5)-5-5---|-7--7-7-(7)-7-7---|-5--5-5-(5)-5-5--|-7--7-7b9r(7)-7-0--|
|-5--5-5-(5)-5-5---|-7--7-7-(7)-7-7---|-3--3-3-(3)-3-3--|-5--5-5---(5)-5-0--|
|-3--3-3-(3)-3-3---|-5--5-5-(5)-5-5---|-3--3-3-(3)-3-3--|-5--5--------------|
|-Rhy Fig 4

                                                           end Rhy Fig 4A-|
  G5                 A5                F5                  G5X
  Q  E E  E  E E E   Q  E E  E  E Q     Q.     E +Q   Q     E E Q  H
  |    |     |   |   |    |     | |     |      |  |   |     |
  /    /     /   /   /    /     / /     /      /  /   /     /

  Q  E E +E  E Q     Q  E E +E  E Q     Q    Q    Q   Q     E E Q  E E Q
|------------------|-----------------|-------------------|----------------||
|------------------|-----------------|-------------------|----------------||
|------------------|-----------------|-10---10---10--10--|-12-------------||
|-5--5-5-(5)-5-5---|-7--7-7-(7)-7-7--|-10---10---10--10--|-12------5-6-7--||
|-5--5-5-(5)-5-5---|-7--7-7-(7)-7-7--|--8----8----8---8--|-10------5-6-7--||
|-3--3-3-(3)-3-3---|-5--5-5-(5)-5-5--|--8----8----8---8--|-10------3-4-5--||
                                                            end Rhy Fig 4-|

   Chorus
    Gtrs I, II                                       |-Gtr II plays notes in ()*
             PM--|     PM--|                   PM--|         PM|
    Q.   E E E E E   E E E E E E Q    Q.   E E E E E   E  E  E E E E Q
||-----------------|----------------|----------------|--------------------||
||o----------------|----------------|----------------|-------------------o||
||-----------------|----------------|----------------|--------------------||
||--5------2-------|-2-------5-6-7--|-5------2-------|-2-(2)-----5-6-7----||
||o-5------2-------|-2-------5-6-7--|-5------2-------|-2-(2)-----5-6-7---o||
||--3----0-0-0-0-0-|-0-0-0-0-3-4-5--|-3----0-0-0-0-0-|-0--0--0-0-3-4-5----||
                                                     |-*Rhy Fill 1

   Verse 2
w/Rhy Fig 3 x4
    Gtr II
                                                   PM|     PM|   PM
    Q.    E +E  E Q    Q.    E +Q    Q    Q.   E E E E E   E E E E E E Q
||-------------------|------------------|----------------|------------------||
||o-------0-(0)------|-------0-(0)------|----------------|-----------------o||
||--------------0----|---------------0--|----------------|------------------||
||--5-------------5--|-7----------------|-5------2-----2-|-----2---5-6-7----||
||o-5----------------|-7----------------|-5------2-----2-|-----2---5-6-7---o||
||--3----------------|-5----------------|-3----0-0-0-0-0-|-0-0-0-0-3-4-5----||
 |-Rhy Fig 5                                                  end Rhy Fig 5-|


w/Rhy Fig 4 + 4A
  Gtrs III, IV
  Q  E E +E  Q   E    H       +E   E  Q
|------------------|----------------------|
|------------8---8s|=10------(10)-10-10---|
|------7-(7)-------|----------------------|
|------------5---5s|==7-------(7)--7--7---|
|------5-(5)-------|----------------------|
|------------------|----------------------|
  Q  E E +E  Q   E    H       +E   E  Q



  Q.    E +Q    Q     E  E  E  E    E   E  E  E
|------------------|----------------------------|
|-8-----8-(8)---8S=|=10-10-10-10---10--10-10-10-|
|------------------|----------------------------|
|-5-----5-(5)---5S=|==7--7--7--7----7---7--7--7-|
|------------------|----------------------------|
|------------------|----------------------------|
  Q.    E +Q    Q     E  E  E  E    E   E  E  E



  Q.    E +Q    Q     Q  Q     E   E  E  E
|-------------------|----------------------|
|-8-----8-(8)---8S==|=5--5---/10--10-10-10-|
|-------------------|----------------------|
|-5-----5-(5)---5S==|=7--7-----7---7--7--7-|
|-------------------|----------------------|
|-------------------|----------------------|
  Q.    E +Q    Q     Q  Q     E   E  E  E



    Q.      E  +Q    Q     E E Q  H
|-----------------------|----------------||
|-/13------13-(13)--13S=|=15-------------||
|-----------------------|----------------||
|-/10------10-(10)--10S=|=12-------------||
|-----------------------|----------------||
|-----------------------|----------------||
    Q.      E  +Q    Q     E E Q  H


   Chorus
w/Rhy Fig 2 x2
                    1.                  2.
    Gtr II
             PM--|     PM--|                 PM|
    Q.   E E E E E   E E E E E E Q       E E E E E E Q
||-----------------|-----------------||------------------|
||o----------------|----------------o||----3-------------|
||-----------------|-----------------||----4-------------|
||--5------2-------|-2-------5-6-7---||--2-2-----5-6-7---|
||o-5------2-------|-2-------5-6-7--o||--2-------5-6-7---|
||--3----0-0-0-0-0-|-0-0-0-0-3-4-5---||--0---0-0-3-4-5---|


Rhy Fig 2 x2 (w/Rhy Fill 1 on last bar)


   Bridge
    $
      ~~     ~~                            ~~     ~~
    E Q.   E Q.     E E E   +E  Q  E E   E Q.   E Q.     H    H
||----------------|--------------------|---------------|------------||
||o---------------|--------------------|---------------|-----------o||
||--2-------------|-2-4-4b5r(4)-2--x-x-|-2-------------|------------||
||--2-4----2-4----|-2-4-4b5r(4)-2--x-x-|-2-4----2-4----|-2----3-----||
||o---4----2-4----|--------------------|---4----2-4----|-2----3----o||
||----------------|--------------------|---------------|-0----1-----||
 |-Rhy Fig 6                                          end Rhy Fig 6-|

  Gtr II
    ~~~~~~~~~~~~~~~~~~~~
  E Q.   +H         +H            E E E   +E
|-----------------|---------------------------|
|-4---------------|---------------4-6-6b7r(6)-|
|-4---------------|---------------4-6-6b7r(6)-|
|---6----(6)------|-(6)-----------------------|
|-----------------|---------------------------|
|-----------------|---------------------------|
|
| Gtr I
|   ~~       ~~
| E Q.    E  Q.      E  E E   +E  Q   E    E
|-----------------|---------------------------|
|-----------------|---------------------------|
|-4---------------|--4--6-6b7r(6)-4---x----x--|
|-4-6-----4--6----|--4--6-6b7r(6)-4---x----x--|
|---6-----4--6----|---------------------------|
|-----------------|---------------------------|
|-Rhy Fig 7

                              To Coda
    ~~~~~~~~~
  E Q.   +H         H.       +Q
|-----------------|-------------------|
|-4---------------|-4--------(4)b4.5--|
|-4---------------|-4--------(4)b4.5--|
|---6----(6)------|-------------------|
|-----------------|-------------------|
|-----------------|-------------------|
|
|   ~~       ~~
| E Q.    E  Q.     H     H
|-----------------|-------------------|
|-----------------|-------------------|
|-4---------------|-------------------|
|-4-6-----4--6----|-4-----5-----------|
|---6-----4--6----|-4-----5-----------|
|-----------------|-2-----3-----------|


                                                                Gtr III
    ~~     ~~                                        ~~
  E Q.   E Q.     E E E   +E  E E E E   E E   +Q   E Q.     H       E  E  Q
|---------------|---------------------|-------------------|------------------||
|-4------4------|-4-6-6b7r(6)-4---4---|-4-6b7r(6)--4------|-4------12-13-14--||
|-4------4------|-4-6-6b7r(6)-4---4h6-|-4-6b7r(6)--4------|-4------12-13-14--||
|---6------6----|---------------6-----|--------------6----|------------------||
|---------------|---------------------|-------------------|------------------||
|---------------|---------------------|-------------------|------------------||
|                                                           W
|
|   ~~     ~~                             ~~~~       ~~
| E Q.   E Q.     E E E   +E  Q   E E   E Q.       E Q.     E E Q   E  E  Q
|---------------|---------------------|-------------------|------------------||
|---------------|---------------------|-------------------|-4-6-4------------||
|-4-------------|-4-6-6b7r(6)-4---x-x-|-4-----------------|-4-6-4------------||
|-4-6----4-6----|-4-6-6b7r(6)-4---x-x-|-4-6--------4-6----|---------5--6--7--||
|---6----4-6----|---------------------|---6--------4-6----|---------5--6--7--||
|---------------|---------------------|-------------------|---------3--4--5--||
                                                               end Rhy Fig 7-|

 Guitar Solo
w/Rhy Fig 2 + 2A x4
  Gtr III
                     ~~      ~~~~~~~~~    ~~
   Q         +Q      Q    E  E    +E   E  Q    E  E  Q
|------------------------------|------------------------|
|-12b12.5===(12)r--------------|--------------12-13-14--|
|-12b12.5===(12)r--------------|--------------12-13-14--|
|-------------------14---12-14-|-(14)-14-14-------------|
|------------------------------|------------------------|
|------------------------------|------------------------|


                     ~~      ~~~~~~~~~
   Q         +Q      Q    E  E    +E   E  E  E  E     +E   E  E
|------------------------------|--------------------------------|
|-12b12.5===(12)r--------------|--------------------------------|
|-12b12.5===(12)r--------------|---------------14b16r(14)-12-14-|
|-------------------14---12-14-|-(14)-14-14-12------------------|
|------------------------------|--------------------------------|
|------------------------------|--------------------------------|


                     ~~      ~~~~~~~~~
   Q         +Q      Q    E  E    +E   E  E  E  E  E  E  E
|------------------------------|---------------------------|
|-12b12.5===(12)r--------------|---------------12----12-14-|
|-12b12.5===(12)r--------------|---------------12----12-14-|
|-------------------14---12-14-|-(14)-14-14-14----14-------|
|------------------------------|---------------------------|
|------------------------------|---------------------------|


                     ~~      ~~~~~~~~~    ~~
   Q         +Q      Q    E  E    +E   E  Q    E  E  E  E
|------------------------------|--------------------------|
|-12b12.5===(12)r--------------|--------------12----------|
|-12b12.5===(12)r--------------|--------------12----12----|
|-------------------14---12-14-|-(14)-14-14------------14-|
|------------------------------|-----------------14-------|
|------------------------------|--------------------------|


w/Rhy Fig 3 + 3A x2
  Gtr III
   E  E E  E  E   E E  E    E  E E  E  E   E E  E
|------------------------|------------------------|
|-12-12---12-----12---12-|-14-14---14-----14---12-|
|-12-12---12-----12---12-|-14-14---14-----14---12-|
|------------------------|------------------------|
|------------------------|------------------------|
|------------------------|------------------------|



                                                        ~~~~~~~~~~
   E     +E   E  E  E  E E  E        +E   +E   E  E  S  E.    +Q
|---------------------------------|--------------------------------|
|-14b15r(14)-12----12-14---14b15==|=(14)r(14)-12-------------------|
|-14b15r(14)-12----12-14---14b15==|=(14)r(14)-12----12-------------|
|---------------14----------------|--------------14----14----(14)--|
|---------------------------------|--------------------------------|
|---------------------------------|--------------------------------|



   E  E E  E  E   E E  E    E     +E   E  E  E   E  E E
|------------------------|------------------------------|
|-12-12---12-----12---12-|-14b15r(14)-12-14-------------|
|-12-12---12-----12---12-|-14b15r(14)-12-14-12----------|
|------------------------|----------------------14------|
|------------------------|-------------------------14---|
|------------------------|------------------------------|



   S  S  S  S  S  S  S  S  S  S  S  S  S  S  S  S    S  S  S  S  S  S  S  S  S  S  e  S  S  E
|-------------------------------------------------|-------------------------------------------|
|-------------------------------------------------|-------------------------------------------|
|-14p12----12-14p12-14p12----12-14p12-14p12----12-|-14p12----12-14p12-14p12----12-14-14p12----|
|-------14----------------14----------------14----|-------14----------------14-------------14-|
|-------------------------------------------------|-------------------------------------------|
|-------------------------------------------------|-------------------------------------------|


w/Rhy Fig 4 + 4A (1st 6 bars only)
   ~~~~~                          ~~~~~~~~~~~~~~~~~~~~
   H          E   E  E  E        +H.             +E   +E
|------------12---------------|---------------------------|
|-15b17----------15-12--------|---------------------------|
|-------------------12-14b16==|=(14)------------(14)r(14)-|
|-----------------------------|---------------------------|
|-----------------------------|---------------------------|
|-----------------------------|---------------------------|



                                                               ~~~~~~~~~~
   E      +E   E  E  S   E.   E  E        +E    E  E  E    S   E.    +Q
|--------------------------------------|------------------------------------|
|--------------------------------------|------------------------------------|
|-14pb15r(14)-12----12--14------14b16==|=(14)r-14-12------12----------------|
|----------------14--------------------|-------------14-------14----(14)----|
|--------------------------------------|------------------------------------|
|--------------------------------------|------------------------------------|


   E  S  S  E  E  S   S  E  E  S  S    E  E  S  S  E  E   E  E  E
|-----------------------------------|-----------------------------|
|-12----------12-----------12-------|----12-----------------12-14-|
|-12----------12-----------12-------|----12-----------------12-14-|
|----14p12-------14p=12-------14p12-|-14----14p12----12--14-------|
|----------14-----------14----------|-------------14--------------|
|-----------------------------------|-----------------------------|


                                                  D.S. al Coda
  F5                                  G5X
   Q.            E +Q     Q            E     E   Q        H
   |             |  |     |            |
   /             /  /     /            /

                                                          ~~
   E     +E   E  E  E  E  E     +E     Q        +E   +E   H
|-----------------------------------|--------------------------||
|-14b15r(14)-12----------17b19r(17)-|-17b19====(17)r(17)-15----||
|-14b15r(14)-12----12S14------------|--------------------------||
|---------------14------------------|--------------------------||
|-----------------------------------|--------------------------||
|-----------------------------------|--------------------------||
|
|  Q          Q     Q     Q            E     E   Q        H
|-----------------------------------|--------------------------||
|-----------------------------------|--------------------------||
|-10---------10----10----10---------|-12-----------------------||
|-10---------10----10----10---------|-12-----------------------||
|--8----------8-----8-----8---------|-10-----------------------||
|--8----------8-----8-----8---------|-10-----------------------||


  &
w/last 4 bars of Rhy Fig 7
    ~~     ~~~~~~~~~~~
  E Q.   E Q.     +H            E E E   +E
|---------------|---------------------------|
|-4------4------|---------------4-6-6b7r(6)-|
|-4------4------|---------------4-6-6b7r(6)-|
|---6------6----|-(6)-----------------------|
|---------------|---------------------------|
|---------------|---------------------------|


    ~~     ~~
  E Q.   E Q.     H.          +Q
|---------------|----------------------||
|-4------4------|-4-----------(4)b4.5--||
|-4------4------|-4-----------(4)b4.5--||
|---6------6----|----------------------||
|---------------|----------------------||
|---------------|----------------------||


   Chorus
   Rhy Fig 2 x4 (w/Rhy Fill 1 on 2nd and 4th time)

Rhy Fig 2 + 2A

Rhy Fig 2 + Rhy Fig 2 1st bar and Rhy Fill 1


w/Rhy Fig 2 x2
           PM|     PM|   PM                  PM|         PM|
  Q.   E E E E E   E E E E E E Q    Q.   E E E E E   E E E E E E Q
|----------------|----------------|----------------|----------------|
|----------------|----------------|----------------|----------------|
|----------------|----------------|--------------2-|-0-2------------|
|-5------2-----2-|-----2---5-6-7--|-5------2-----2-|-0-2-----5-6-7--|
|-5------2-----2-|-----2---5-6-7--|-5------2-------|---------5-6-7--|
|-3----0-0-0-0-0-|-0-0-0-0-3-4-5--|-3----0-0-0-0---|-----0-0-3-4-5--|


 Free Time
                       H.=H                          A Tempo Q=160
  G5                                                     G#A5
  Gtr II
  W             +W               +W             +H     E E Q
  |              |                |              |     | | |
  /              /                /              /     / / /

  Gtr I
        TP       TP               ~~~~~~~~~
  H    +H       +H     E E E E    H    +H       +H     E E Q
|-------------:----------------:--------------:---------------||
|-------------:----------------:--------------:---------------||
|-------------:----------------:--------------:---------------||
|-5----(5)----:-(5)----5-5-5-5-:--5----(5)----:-(5)----5-6-7--||
|-5----(5)----:-(5)----5-5-5-5-:--5----(5)----:-(5)----5-6-7--||
|-3----(3)----:-(3)----3-3-3-3-:--3----(3)----:-(3)----3-4-5--||


 Chorus
  Gtr III
|-Rhy Fig 8           end Rhy Fig 8-|
  E  E E E E E E E   E E E E E E E E
  |  | | | | | | |   | | | | | | | | |-w/Rhy Fig 8 x7
  x  x x x x x x x   x x x x x x x x

  Gtrs I, II
             PM--|     PM--|                      PM--|     PM--|
  Q.     E E E E E   E E E E E E Q     Q.     E E E E E   E E E E E E Q
|------------------|-----------------|------------------|-----------------|
|------------------|-----------------|------------------|-----------------|
|------------------|-----------------|------------------|-----------------|
|-5--------2-------|-2-------5-6-7---|-5--------2-------|-2-------5-6-7---|
|-5--------2-------|-2-------5-6-7---|-5--------2-------|-2-------5-6-7---|
|-3------0-0-0-0-0-|-0-0-0-0-3-4-5---|-3------0-0-0-0-0-|-0-0-0-0-3-4-5---|


w/Rhy Fig 2 x4
    Gtr II
                 PM|       PM|                      PM--|     PM--|
    Q.     E E E E E   E E E E E E Q     Q.     E E E E E   E E E E E E Q
||-------------------|-----------------|------------------|-------------------||
||o------------------|-----------------|------------------|------------------o||
||-------------------|-----------------|------------------|-------------------||
||--5--------2-2-2-2-|-2-2-2-2-5-6-7---|-5--------2-------|-2-------5-6-7-----||
||o-5--------2-2-2-2-|-2-2-2-2-5-6-7---|-5--------2-------|-2-------5-6-7----o||
||--3------0-0-0-0-0-|-0-0-0-0-3-4-5---|-3------0-0-0-0-0-|-0-0-0-0-3-4-5-----||



             PM|     PM|   PM                     PM|     PM
  Q.     E E E E E   E E E E E E Q     Q.     E E E E E   E E Q   E E  Q
|------------------|-----------------|------------------|------------------||
|------------------|-----------------|------------------|------------------||
|------------------|-----------------|------------------|------------------||
|-5--------2-----2-|-----2---5-6-7---|-5--------2-2-2-2-|-2-2-2---5-6--7---||
|-5--------2-----2-|-----2---5-6-7---|-5--------2-2-2-2-|-2-2-2---5-6--7---||
|-3------0-0-0-0-0-|-0-0-0-0-3-4-5---|-3------0-0-0-0-0-|-0-0-0---3-4--5---||
|
|            PM--|     PM--|                      PM|         PM
| Q.     E E E E E   E E E E E E Q     Q.     E E E E E   E E E E E Q.
|------------------|-----------------|------------------|------------------||
|------------------|-----------------|------------------|------------------||
|------------------|-----------------|----------------0-|---0---0---0------||
|-5--------2-------|-2-------5-6-7---|-5--------2-----0-|---0---0---0------||
|-5--------2-------|-2-------5-6-7---|-5--------2-------|------------------||
|-3------0-0-0-0-0-|-0-0-0-0-3-4-5---|-3------0-0-0-0---|------------------||


 Outro
w/Rhy Fig 2 + 2A x7
  Gtr III
                             ~~~~~~~~~                       ~~~
   E   E  E  E  Q         E  E    +E   E  E  E  Q         E  E
|------------------------------|-------------------------------|
|--------------12b12.5---------|---------------12b12.5---------|
|-12--14-12-14-12b12.5---------|------14-12-14-12b12.5---------|
|------------------------14-14-|-(14)--------------------14-14-|
|------------------------------|-------------------------------|
|------------------------------|-------------------------------|


 ~~~~~~                          ~~~~~~~~~                          ~~
   +E   E  S  S  E  Q         E  E    +E   E  S  S  E  Q         E  E
|----------------------------------|------------------------------------|
|------------------12b12.5---------|------------------------------------|
|------------------12b12.5---------|------------------12b12.5-----------|
|-(14)-14-14p12--------------14-14-|-(14)-14-14p12--------------14-14---|
|---------------14-----------------|---------------14-------------------|
|----------------------------------|------------------------------------|


    ~~~~                    ~~~~~~~~~
   +E   E  E  E  Q       E  E    +E   E  E  E  Q       E  E
|-----------------------------|-----------------------------|
|-----------------------------|------14-12-14---------------|
|------14-12-14-12b13---------|------14-12-14-12b13---------|
|-(14)------------------14-14-|-(14)------------------14-14-|
|-----------------------------|-----------------------------|
|-----------------------------|-----------------------------|


   +E     E  E  E  Q.           +E      E    E  E  E  Q.           +E
|------------------------------------|----------------------------------|
|-----------------12b12.5======(12)r-|---------------12b12.5======(12)r-|
|-----------------12b12.5======(12)r-|-12\-----------12b12.5======(12)r-|
|-(14)\-----12-14--------------------|---------12-14--------------------|
|-------/14--------------------------|-----/14--------------------------|
|------------------------------------|----------------------------------|


  E   E E  E E  E E  E   E  E    E  E    E  E    E  E
|----------------------|---------------------------------|
|----14---14---14---14-|---14b15---14b15---14b15---14b15r|
|----14---14---14---14-|---14b15---14b15---14b15---14b15r|
|----------------------|---------------------------------|
|----------------------|---------------------------------|
|----------------------|---------------------------------|


                                                  ~~~~~~~~~~
   +Q    E  E  E  E    E  E       +Q     E  E  S  E.    +Q
|------------------------------|-----------------------------|
|-(14)--12-------14b15---14b15r|=(14)------------------------|
|-(14)--12----12-14b15---14b15r|=(14)---12----12-------------|
|----------14------------------|-----------14----14----(14)--|
|------------------------------|-----------------------------|
|------------------------------|-----------------------------|


  E   S  S  E  E  E      +E   Q     E  S  S  E  E  Q        +E   E
|---------------------------------|--------------------------------|
|---------------------------------|--------------------------------|
|----------12-14-14b16==(14)r-----|---------12-14-14b16====(14)r---|
|----12h14------------------------|---12h14------------------------|
|---------------------------------|--------------------------------|
|---------------------------------|--------------------------------|

w/Rhy Fig 2A
                                                       ~~
  E   S  S  E  E  E     +E   E   E     E   E   E   E   H
|-----------------------------------|--------------------------|
|-----------------------------------|-----14--14---------------|
|----------12-14-14b16r(14)-12------|-12--14--14---------------|
|----12h14----------------------14--|-----------------11-------|
|-----------------------------------|--------------------------|
|-----------------------------------|--------------------------|
|
| Q.           E  E      E   E   E     E   E   E   E   E E Q
|-----------------------------------|--------------------------|
|-----------------------------------|--------------------------|
|-----------------------------------|--------------------------|
|-5---------------2-----------------|------------------5-6-7---|
|-5---------------2-----------------|------------------5-6-7---|
|-3------------0--0------0--<3>-<3>-|-<3>-<3>-<3>-<3>--3-4-5---|


w/Rhy Fig 2 x4
            ~~~~~~~       ~~~~~~~~~       ~~~~~~~
    Q    E  E  +E   E  E  E    +E   E  E  E  +E   E  E  E
|---------------------------|-----------------------------|
|-------15---------15-15----|---------15------------15----|
|-/16------16-(16)-------16-|-(16)-16----16-(16)-16----16-|
|---------------------------|-----------------------------|
|---------------------------|-----------------------------|
|---------------------------|-----------------------------|


             ~~~~~~~       ~~~~~~~~~       ~~~~~~~
   E   E  E  E  +E   E  E  E    +E   E  E  E  +E   E  E  E
|----------------------------|-----------------------------|
|-15-----15------------15----|---------15------------15----|
|-----16----16-(16)-16----16-|-(16)-16----16-(16)-16----16-|
|----------------------------|-----------------------------|
|----------------------------|-----------------------------|
|----------------------------|-----------------------------|


  G5        E  E5                                        G5    G#A5
  Gtr II
   Q.        E  E  E    E  E         E     Q       E       E   E  Q
   |         |  |  |       |               |       |       |   |  |
   /         o  /  /       /               /       /       /   /  /

                                                           ~~~~~
   E   E  E  E  E  Q       E        +E     Q       E      +Q      S  S  E
|--------------------------------|----------------------------------------|
|-15-----15----15-17b20---17b20==|=(17)r--17b20---17b19==(17)r---17p15----|
|-----16----16-------------------|-------------------------------------16-|
|--------------------------------|----------------------------------------|
|--------------------------------|----------------------------------------|
|--------------------------------|----------------------------------------|


  G5        E  E5                                G5    G#A5
   Q.        E  E  E    E E    E     E  Q          E   E Q
   |         |  |  |      |          |  |          |   | |
   /         o  /  /      /          /  /          /   / /

   E   E  E  E  E  Q.          S  S  E  E  E      +E   Q    E
|---------------------------|----------------------------------|
|-15------------------------|-------------15b17==(15)rs5s==17--|
|-----16-14-12-14-14b16-----|-14p12----12----------------------|
|---------------------------|-------14-------------------------|
|---------------------------|----------------------------------|
|---------------------------|----------------------------------|


 Free Time
  G5
  Gtr I
   H.                    Q            +Q      H             Q
   |                     |             |      |             |
   /                     /             /      /             /

  Gtr III
                                                    |------5------|
   S  E  S E  E  +E   E  E  a  a  E    E   E  E  E  E  E  E    E  E
|-19----17--------------------------:-------------------------------:
|------------20-(20)-19-20-19h20p19-:-17--19-17-15-14---------------:
|-----------------------------------:-----------------16-14s==12-14-:
|-----------------------------------:-------------------------------:
|-----------------------------------:-------------------------------:
|-----------------------------------:-------------------------------:
|
| Gtr II
|  W                                  +W
|-----------------------------------:-------------------------------:
|-----------------------------------:-------------------------------:
|-----------------------------------:-------------------------------:
|--5--------------------------------:-(5)---------------------------:
|--5--------------------------------:-(5)---------------------------:
|--3--------------------------------:-(3)---------------------------:


  +H           H                            +W
   |           |                             |
   /           /                             /

           ~~
                            |-----3-----|         |-3-|
   Q.      E  +E   a  a  E  E  E  a  a  E    E  E E E E Q  a Q
|-----------------------------------------:---------------------|
|-----------------------------------------:---------------------|
|-12b14---12-(12)-10h11h12s11-12-11h12p11s:==9s=7---------------|
|-----------------------------------------:-------9s7s5s7--7s9--|
|-----------------------------------------:---------------------|
|-----------------------------------------:---------------------|
|
| +W                                        +W
|-----------------------------------------:---------------------|
|-----------------------------------------:---------------------|
|-----------------------------------------:---------------------|
|-(5)-------------------------------------:-(5)-----------------|
|-(5)-------------------------------------:-(5)-----------------|
|-(3)-------------------------------------:-(3)-----------------|


                                   A Tempo Q=160
  G5                                     G#5A5    G5    E5
                                   Gtrs I, II
   Q.            E  H          +H      E  E  Q     H     Q    Q      W
   |             |  |           |      |  |  |     |     |
   /             /  /           /      /  /  /     /     /

                                ~~~                      ~~
  +Q   +Q          +Q.   +E    +H      E  E  Q     H     Q   +Q      W
|----------------------------:------------------|------------------|------*|
|----------------------------:------------------|------------------|------*|
|----------------------------:--------12-13-14--|-12---------------|------*|
|-(9)--(9)b10.5====(9)---(9)r:=(9)--------------|-------14--(14)\--|------*|
|----------------------------:------------------|------------------|------*|
|----------------------------:------------------|------------------|------*|
|
| +W                           +H      H           W                 W
|----------------------------:------------------|------------------|------*|
|----------------------------:------------------|------------------|------*|
|----------------------------:------------------|------------------|------*|
|-(5)------------------------:-(5)--------------|------------------|------*|
|-(5)------------------------:-(5)--------------|------------------|------*|
|-(3)------------------------:-(3)--------------|------------------|------*|



Downloaded from www.taborama.com


Better Than You 
by Hetfield and Ulrich 
as performed on ReLoad 
tab by Peter Johnson; jointson@yahoo.com 

tune all guitars down 1/2 step 


1a)intro 
eb------------------------------------------------------------- 
Bb------------------------------------------------------------- 
Gb------------------------------------------------------------- 
Db------------5-6-7--5----2-----5-6-7--5----2-----5-6-7--5----2 
Ab------------5-6-7--5----2-----5-6-7--5----2-----5-6-7--5----2 
Eb--2.4-2.4---3-4-5--3--0-0-----3-4-5--3--0-0-----3-4-5--3--0-0 
    Harm*** 


1b) Harm******************************************************************* 
eb------------------------------------------------------------------------- 
Bb------------------------------------------------------------------------- 
Gb------------------------------------------------------------------------- 
Db------------------------------------------------------------------------- 
Ab------------------------------------------------------------------------- 
Eb--12-12-12-12-12-12-10.4-10.4-9-9-9-9-8-8-7-7-7-7-5.6-5.6-5.6-5-5-5-4-4-3 


2)main and chorus 
eb--------------------------------------------------------------- 
Bb--------------------------------------------------------------- 
Gb--------------------------------------------------------------- 
Db--5-6-7--5----2-------2-------5-6-7--5----2-------2-------5-6-7 
Ab--5-6-7--5----2-------2-------5-6-7--5----2-------2-------5-6-7 
Eb--3-4-5--3--0-0-0-0-0-0-0-0-0-3-4-5--3--0-0-0-0-0-0-0-0-0-3-4-5 
                  pm...   .....               .....   ..... 
'Beter than you...' 


3a)verse 
eb------------------------------------------------------ 
Bb------------------------------------------------------ 
Gb------------------------------------------------------ 
Db--5--5-5--5-5--7--7-7--7-7--5----2-------2-------5-6-7 
Ab--5--5-5--5-5--7--7-7--7-7--5----2-------2-------5-6-7 
Eb--3--3-3--3-3--5--5-5--5-5--3--0-0-0-0-0-0-0-0-0-3-4-5 
                                     pm...   ..... 
'I look at you then you me...' 


4a)Pre-chorus 
eb----------------------------------------------------- 
Bb----------------------------------------------------- 
Gb-----------------------------5--5-5--5-5--7--7----7-0 
Db--5--5-5--5-5--7--7-7--7-7---5--5-5--5-5--7--7-7^-7-0 
Ab--5--5-5--5-5--7--7-7--7-7---3--3-3--3-3--5--5-5--5-0 
Eb--3--3-3--3-3--5--5-5--5-5---3--3-3--3-3--5--5------- 
'Holding the lion's share...' 


4b) continued 
eb---------------------------------------------- 
Bb---------------------------------------------- 
Gb----------------------------10--10--10--10--12 
Db--5--5-5--5-5--7--7-7--7-7--10--10--10--10--12 
Ab--5--5-5--5-5--7--7-7--7-7---8---8---8---8--10 
Eb--3--3-3--3-3--5--5-5--5-5---8---8---8---8--10 


5) 
eb---------------------------------------------------- 
Bb------0-----------0--------------------------------- 
Gb---------0------------0----------------------------- 
Db--5--------5--7----------5-----2-------2-------5-6-7 
Ab--5-----------7----------5-----2-------2-------5-6-7 
Eb--3-----------5----------3---0-0-0-0-0-0-0-0-0-3-4-5 
                                   pm...   ..... 
'Lock horns, I push and I strive 


6a)Bridge 
eb---------------------------------------------- 
Bb---------------------------------------------- 
Gb--2-----------2-4-4^-2--X-X-2----------------- 
Db--2-4---2-4---2-4-4^-2--X-X-2-4---2-4---2----3 
Ab----4---2-4-------------------4---2-4---2----3 
Eb----------------------------------------0----1 
'Oh, can't stop this train...' 


6b) 
eb---------------------------------------------- 
Bb---------------------------------------------- 
Gb--4-----------4-6-6^-4------4----------------- 
Db--4-6---4-6---4-6-6^-4--X-X-4-6---4-6---4----5 
Ab----6---4-6-------------X-X---6---4-6---4----5 
Eb----------------------------------------2----3 
'No, can't stop this train...' 


7)solo 
eb--------------------------------------------------------- 
Bb--------------------------------------------------------- 
Gb--------------------------------------------------------- 
Db--5-6-7--5----2-----2-----2---5-6-7--5----2-----2-----2-- 
Ab--5-6-7--5----2-----2-----2---5-6-7--5----2-----2-----2-- 
Eb--3-4-5--3--0-0-0-0-0-0-0-0-0-3-4-5--3--0-0-0-0-0-0-0-0-0 
                  pm.   ...   .               ...   ...   .

Downloaded from www.taborama.com

================================================================================

Better Than You
written by: Hetfield and Ulrich
as performed on ReLoad
tab by Phil Boyle and Wayne Hanvey; phil@encycmet.com


Tune all guitars down 1/2 step

Drum intro
1)
Db------------------------
Ab--5-6-7-5--2--5-6-7-5--2
Eb--3-4-5-3--0--3-4-5-3--0

2)
Db--------------------------------------------------------
Ab--5-6-7-5------2-----2-----2--5-6-7-5------2-----2-----2
Eb--3-4-5-3--0-0-0-0-0-0-0-0-0--3-4-5-3--0-0-0-0-0-0-0-0-0
            pm..   ...   ...             ...   ...   ...
3a)
Gb--------------------------------------------
Db--------------------------------------------
Ab--5-6-7-5-5-5-7-7-7-5-5-5------2-----2-----2  2 times
Eb--3-4-5-3-3-3-5-5-5-3-3-3--0-0-0-0-0-0-0-0-0
(timing is messed up)       pm..   ...   ...
"I look at you look at me"

3b)
Gb-------------------------------------------------------
Db--------------------5-5-5-7-7-7-------------10-10-10-12
Ab--5-6-7-5-5-5-7-7-7-3-3-3-5-5-5-5-5-5-7-7-7-8--8--8--10
Eb--3-4-5-3-3-3-5-5-5-------------3-3-3-5-5-5------------
"Holding the lion's share, holding the key"

4)
Gb---------------4p2-------------    --------------6p4-------------
Db--2-4-2-4-2-4------4--4p2---2-3 tw -4/6-4-6-4/6------4--6p4---4-5
Ab--2-4-0-4-2-4-------------2-2-3 ic -4/6-2-6-4/6-------------4-4-5
Eb--0h2---2-0h2---------------0-1 e  -2/4---4-2/4---------------2-3
Chorus
"Oh, cannot stop this train from rolling"

_______________________________________
solo
Transcribed by: Guido Maciocci
Email: Themenace@hotmail.com

Guitar Tuning: Eb Ab Db Gb Bb Eb

This comes just after the chorus "Can't stop the train from rolling...."
it's really simple.

--------------------------------|-----------------------------|---------------
-12-13-14---12------------------|12-13-14--12-----------------|---------------
-12-13-14---12------------------|12-13-14--12-----------------|---------------
-----------------14-12-14--14-14|--------------14-12-14--14-14|---------------
--------------------------------|-----------------------------|---------------
--------------------------------|-----------------------------|---------------
                                                                              

-------------------------------------|-------------------------------------|--
-12-14b16r14-12----12----------------|-12-12/14-13-12----12----------------|--
-12-14b16r14-12----12----------------|-12-12/14-13-12----12----------------|--
----------------14----14-12-14--14-14|----------------14----14-12-14--14-14|--
-------------------------------------|-------------------------------------|--
-------------------------------------|-------------------------------------|--
                                                                              

-------------------------------------------|--------------------------|-------
-------------1212----12-12--12-1414---14-14|-12-14b16r14-12-----------|-------
-12----12----1212----12-12--12-1414---14-14|-12-14b16r14-12----12h--14|-------
----14----14-------------------------------|----------------14--------|-------
-------------------------------------------|--------------------------|-------
-------------------------------------------|--------------------------|-------
                                                                              

-------------------------|---------------------------------------|------------
-14-14b16r14-12----------|-1212---12-12-12-14b16r14-12-----------|------------
-14-14b16r14-12----12----|-1212---12-12-12-14b16r14-12-----12----|------------
----------------14---14^^|-----------------------------14----14^^|------------
-------------------------|---------------------------------------|------------
-------------------------|---------------------------------------|------------
                                                                              

------------------------------------------------------------------------------
------------------------------------------------------------------------------
-14p12----12-14p12-14p12-----14p12-14p12----14p12----14p12-14p12----14p12-----
-------14----------------14--------------14-------14-------------14-----------
------------------------------------------------------------------------------
------------------------------------------------------------------------------
                                                                              

------------------------------------------------------------------------------
-------15b17^^--17-15-12-------12-14b16r14-12----12h--14---12-14b16r14-12-----
-14p12-------------------14^^^----------------14--------------------------14--
------------------------------------------------------------------------------
------------------------------------------------------------------------------
------------------------------------------------------------------------------
                                                                              

---------|---------------------------------------------------------|----------
-12------|-12----------12-----------12-----------12----------------|----------
---14^^^^|-12----------12-----------12-----------12----------------|----------
---------|-----14p12------14p12--------14p12--------14p12----12h14-|----------
---------|-----------14---------14-----------14-----------14-------|----------
---------|---------------------------------------------------------|----------
                                                                         .    

------------------15b^^----r15|-----------------------------------------------
-12--14b16r14-12--------------|-----------------------------------------------
-12--14b16r14-12--------------|-----------------------------------------------
------------------------------|-----------------------------------------------
------------------------------|-----------------------------------------------
------------------------------|-----------------------------------------------


x x x x x x x x x x x x x x x x x x x x x x x x x x x x x x x x x x x x x

6. Slither

All guitars tune down 1 half step - Eb Ab Db Gb Bb Eb

H = hammer on
P = Pull off
B = Bend
p.m. = palm mute
sim. = similar - play the rest of the notes with similar style

Intro

Guitar I
"Don't go looking..." "Don't set..."      "Haven't I seen you...."  
|---------------------------------------------------------------------
|---------------------------------------------------------------------
|---4-3-2--x-x-x-x------------------7-6-5---------------4-3-2--2--2---
|---4-3-2--x-x-x-x--7-6-5--x-x-x-x--7-6-5---------------4-3-2--2--2---
|---2-1-0--x-x-x-x--7-6-5--x-x-x-x--5-4-3--3-0-3-0-3-0--2-1-0--0--0---
|-------------------5-4-3--x-x-x-x------------------------------------
|
|Guitar II
|---------------------------------------------------------------------
|---------------------------------------------------------------------
|---4-3-2---------------------------7-6-5---------------4-3-2--2--2---
|---4-3-2-----------7-6-5-----------7-6-5---------------4-3-2--2--2---
|---2-1-0-----------7-6-5-----------5-4-3---------------2-1-0--0--0---
|-------------------5-4-3---------------------------------------------



Guitar I
|----------------------------------------------------------------------
|----------------------------------------------------------------------
|----------------------------------------------------------------------
|---------5--7-----------5--7-----------5--7-----------5--8-----5------
|---7-/7-----------7-/7-----------7-/7-----------7-/7-----8-----5------
|---0--0--------0--0--0--------0--0--0--------0--0--0-----6--0--3--0---
|      p.m.           p.m.           p.m.            p.m.  sim. 
|
|Guitar II
|----------------------------------------------------------------------
|----------------------------------------------------------------------
|----------------------------------------------------------------------
|------------------------------2--------------------------9--8--7------
|------------------------------2--------------------------9--8--7------
|------------------------------0--------------------------7--6--5--0---


Guitar I
Riff A
|----------------------------------------------------------------------
|----------------------------------------------------------------------
|----------------------------------------------------------------------
|---------5--7-----------5--7-----------5--7-----------5--8-----5------
|---7-/7-----------7-/7-----------7-/7-----------7-/7-----8-----5------
|---0--0--------0--0--0--------0--0--0--------0--0--0-----6--0--3--0---
|
|Guitar II
|----------------------------------------------------------------------
|----------------------------------------------------------------------
|----------------------------------------------------------------------
|---------5--7-----------5--7-----------5--7-----------5--9--8--7------
|---7-/7-----------7-/7-----------7-/7-----------7-/7-----9--8--7------
|---0--0--------0--0--0--------0--0--0--------0--0--0-----7--6--5--0---


Guitar I
"Ohhh, watch the puppets dancin' ....."
Riff B
|---------------------------------------------------------------------------------------------
|---------------------------------------------------------------------------------------------
|---------------------------------------------------------------------------------------------
|---2---5-----7--8--5--8--2---5------7--8--5--8--2---5------7--8--5--8--2---5---8---5--4--2---
|---2---5-----7--8--5--8--2---5------7--8--5--8--2---5------7--8--5--8--2---5---8---5--4--2---
|---0---3--0--5--6--3--6--0---3---0--5--6--3--6--0---3---0--5--6--3--6--0---3-0-6---3--2--0---
|
|
|Guitar II
|---------------------------------------------------------------------------------------------
|---------------------------------------------------------------------------------------------
|---------------------------------------------------------------------------------------------
|---2---5-----------------2---5------------------2---5------------------2---5---8---5--4--2---
|---2---5-----------------2---5------------------2---5------------------2---5---8---5--4--2---
|---0---3--0--5--6--3--6--0---3---0--5--6--3--6--0---3---0--5--6--3--6--0---3-0-6---3--2--0---


Guitar I
"See you crawlin'......"
Riff C
|----------------------------------------------------------
|----------------------------------------------------------
|----------------------------------------------------------
|-----3--x-x------3--x--x------3--x-x------3--x--x---------
|-----3--x-x------3--x--x------3--x-x------3--x--x---------
|---0-1--x-x--x-0-1--x--x--x-0-1--x-x--x-0-1--x--x--0--0---
|
|Guitar II
|----------------------------------------------------------
|----------------------------------------------------------
|----------------------------------------------------------
|-----3-----------3------------3-----------3---------------
|-----3-----------3------------3-----------3---------------
|---0-1---------0-1----------0-1---------0-1--------0--0---



Guitar I
|--------------------------------------------------------------
|--------------------------------------------------------------
|--------------------------------------------------------------
|-----3--x-x------3--x--x------3--x-x------3--x--x-------------
|-----3--x-x------3--x--x------3--x-x------3--x--x-------------
|---0-1--x-x--x-0-1--x--x--x-0-1--x-x--x-0-1--x--x--0--0---0---
|
|Guitar II
|Tremolo picking.............................
|--------------------------------------------------------------
|---5-----------6------------8------------10-------------------
|--------------------------------------------------------------
|--------------------------------------------------------------
|--------------------------------------------------------------
|--------------------------------------------------------------


Guitar I
"Don't go looking for snakes you......"
Riff D
|-------------------------------------------------
|-------------------------------------------------
|---4-3-2-2-2-2-2-2-2-2-2-------------------------
|---4-3-2-2-2-2-2-2-2-2-2-7-6-5-5-5-5-5-5-5-5-5---
|---2-1-0-0-0-0-0-0-0-0-0-7-6-5-5-5-5-5-5-5-5-5---
|-------------------------5-4-3-3-3-3-3-3-3-3-3---
|
|Guitar II
|-------------------------------------------------
|-------------------------------------------------
|---4-3-2-2-2-2-2-2-2-2-2-------------------------
|---4-3-2-2-2-2-2-2-2-2-2-7-6-5-5-5-5-5-5-5-5-5---
|---2-1-0-0-0-0-0-0-0-0-0-7-6-5-5-5-5-5-5-5-5-5---
|-------------------------5-4-3-3-3-3-3-3-3-3-3---


Guitar I
   "haven't i seen you.."         "there ain't no..."
|-----------------------------------------------------
|-----------------------------------------------------
|---7-6-5-5-5-5-4-3-2-------2-------2--4-3-2--4-2-----
|---7-6-5-5-5-5-4-3-2-------2-------2--4-3-2--4-2-----
|---5-4-3-3-3-3-2-1-0--0-0--0--0-0--0--2-1-0--2-0-----
|-------------------------------------------------0---
|
|Guitar II
|-----------------------------------------------------
|-----------------------------------------------------
|---7-6-5-5-5-5-4-3-2-------2-------2--4-3-2--4-2-----
|---7-6-5-5-5-5-4-3-2-------2-------2--4-3-2--4-2-----
|---5-4-3-3-3-3-2-1-0--0-0--0--0-0--0--2-1-0--2-0-----
|-------------------------------------------------0---


Bridge

Guitar I
Riff E
|-----------------------------------------------------------------------------|
|-----------------------------------------------------------------------------|
|*---------------------------------------------------------------------------*|
|*--------5--7B--5---------------5--7B--5--------------5--7B--5--8-----5-----*|
|-----/7------------7--------/7------------7-------/7------------8-----5------|
|---0------------------0--0-------------------0--0---------------6--0--3--0---|

|Guitar II
|-----------------------------------------------------------------------------|
|-----------------------------------------------------------------------------|
|*---------------------------------------------------------------------------*|
|*--------5--7B--5---------------5--7B--5--------------5--7B--5--------------*|
|-----/7------------7--------/7------------7-------/7------------7------------|
|---0------------------0--0-------------------0--0------------------0--0--0---|


Solo:
Play this a whole bunch of times
|----------------------------|
|----------------------------|
|*--2--2--2--2--2--2--2--2--*|
|*--2--2--2--2--2--2--2--2--*|
|---0--0--0--0--0--0--0--0---|
|----------------------------|

then play riff Riff B a couple of times.

Outro Solo:

Guitar I
|----------------------------------------------------------
|----------------------------------------------------------
|----------------------------------------------------------
|---------5--7-----------5--7-----------5--7-----------5---
|---7-/7-----------7-/7-----------7-/7-----------7-/7------
|---0--0--------0--0--0--------0--0--0--------0--0--0------


Guitar I
Riff F
|-------------------------------------------------
|-------------------------------------------------
|---5-5-5-5-4-3-2-------2-------2--4-3-2--4-2-----
|---5-5-5-5-4-3-2-------2-------2--4-3-2--4-2-----
|---3-3-3-3-2-1-0--0-0--0--0-0--0--2-1-0--2-0-----
|---------------------------------------------0---


Here are the Riffs with the song.

Intro:
    Don't go looking for snakes you might find them 
    Don't send your eyes to the sun you might blind them 
    Haven't I seen you here before ? 

Riff B:
         Ohhh, watch the puppets dancin' 
         Yeah, see the clowns fall down 
         Hey, tie your tap shoes tightly 
         Yeah, and wear them into town 

Riff C:
    See you crawlin'... 
    See you crawlin' in... 

RIff D:
    Don't go looking for snakes you might find them 
    Don't send your eyes to the sun you might blind them 
    Haven't I seen you here before ? 
    There ain't no heroes here...no....no more 

         Hey hey hey
Riff B:
         Oooh, play the game so nicely 
         Oh, check, its your move now 
         Yeah, we're standing in this jungle 
         Yeah, with serpents I have found 

Riff C:
    See you crawlin'... 
    See you crawlin' in... 

Riff D:
    Don't go looking for snakes you might find them 
    Don't send your eyes to the sun you might blind them 
    Haven't I seen you here before ? 
    Have your heroes disappeared? 

     Solo 

Riff C:
    See you crawlin'.... 
    See you crawlin' in.... 

Riff D:
    So don't go looking for snakes you might find them 
    Don't send your eyes to the sun you might blind them 
    Haven't I seen you here before ? 
    No there ain't no heroes here.......no no 

Outro:
        Haven't I seen you here before ? 
        No there ain't no heroes here. 

    Don't go looking for snakes you might find them... 
    Haven't I seen you here before? 
    Have your heroes disappeared? 

    Don't send your eyes to the sun you might blind them...
James plays Riff E a couple times here.

x x x x x x x x x x x x x x x x x x x x x x x x x x x x x x x x x x

7. Carpe diem baby

Transcribed by www.mikesguitarsite.co.uk

Words and Music by James Hetfield, Lars Ulrich & Kirk Hammett

A5      x 0 2 2 x x
Cadd9   x 3 2 0 3 0
B5      x 2 4 4 x x
C5      x 3 5 5 x x
D5      x 5 7 7 x x
A5V     5 7 7 x x x
E5      0 2 x x x x
F5      1 3 3 x x x

Gtr I (Eb Ab Db Gb Bb Eb) - 'James Hetfield - Rhythm w/dist'
Gtr II (Eb Ab Db Gb Bb Eb) - 'Kirk Hammett - Rhythm w/dist'
Gtr III (Eb Ab Db Gb Bb Eb) - 'Kirk Hammett - Lead w/dist'
Gtr IV (Eb Ab Db Gb Bb Eb) - 'Kirk Hammett - Lead w/dist'

Intro
    Q=76
   4/4
    Gtrs I, II
        PM|     PM|     PM|     PM|
    S S S S S S S S S S S S S S S S  3x E E  E      +S    S  E S S +S  S S S
||-----------------------------------||--------------------------------------|
||o---------------------------------o||-----12b13==(12)r\--------------------|
||-----------------------------------||-----12b13==(12)r\--------------------|
||--5-5-----5-5-----5-5-----5-5------||--------------------------------------|
||o-7-7-----7-7-----7-7-----7-7-----o||------------------------5-------5---5-|
||------0-0-----0-0-----0-0-----0-0--||-0-0---------------0-/7---5-(5)---3---|


  E E  E      +S    S  E S S +S  S S S
|--------------------------------------|
|-----12b13==(12)r\--------------------|
|-----12b13==(12)r\--------------------|
|--------------------------------------|
|------------------------5-------5-----|
|-0-0---------------0-/7---5-(5)---3-0-|


  S   +E  s  E      +S    S  E S S +S  S S S
|--------------------------------------------|
|-----------12b13==(12)r\--------------------|
|-----------12b13==(12)r\--------------------|
|--------------------------------------------|
|------------------------------5-------5---5-|
|-3b5r(3)-0---------------0-/7---5-(5)---3---|


  E E  E      +S    S  E S S +S  S S S   S   +S  e E. S  E S S +S  S S S
|--------------------------------------|---------------------------------|
|-----12b13==(12)r\--------------------|---------------------------------|
|-----12b13==(12)r\--------------------|---------------------------------|
|--------------------------------------|---------------------------------|
|------------------------5-------5---5-|---------2-2-------5-------5---5-|
|-0-0---------------0-/7---5-(5)---3-0-|-3b5r(3)-0-0--0-/7---5-(5)---3---|


  Gtr I
  E  S  S  E  +S   S  E S S +S  S S S   S   +S  e E. S    +S  +S  e E. S
|-------------------------------------|-------------------------------------|
|---12s13-12-(12)\--------------------|-------------------------------------|
|---12s13-12-(12)\--------------------|-------------------------------------|
|---12s13-12-(12)\--------------------|-------------------------------------|
|-----------------------5-------5-----|-------------------------------------|
|-0----------------0-/7---5-(5)---3-0-|-3b5r(3)-0-0--3b5==(3)r(3)-0-0--3b5==|
|
| Gtr II
| E  S  S  E  +S   S  E S S +S  S S S   S   +S  e H.
|-------------------------------------|-------------------------------------|
|---12s13-12-(12)\--------------------|-------------------------------------|
|---12s13-12-(12)\--------------------|-------------------------------------|
|---12s13-12-(12)\--------------------|-------------------------------------|
|-----------------------5-------5-----|---------2-2-------------------------|
|-0----------------0-/7---5-(5)---3-0-|-3b5r(3)-0-0-------------------------|
                                      |-Rhy Fill 1

                  Verses 1 + 2
 2/4              4/4
                          PM|              PM----|
  +S  +S  e Q      S    S E  E  S S  S   S E      E  S  S
|--------------||------------------------------------------|
|--------------||o-----------------------------------------|
|--------------||--7s===9-------7s9-10s==9-----------7s=9--|
|--------------||--7s===9-------7-9-10s==9-----------7s=9--|
|--------------||o-5s===7-------5s7--8s==7-----------5s=7--|
|-(3)r(3)-0-0--||---------0--0-------------0------0--------|
|
|                         PM|              PM----|
| +H               S    S E  E  S S  S   S E      E  E
|--------------||------------------------------------------|
|--------------||o-----------------------------------------|
|--------------||--7s===9-------7s9-10s==9-----------------|
|--------------||--7s===9-------7-9-10s==9-----------------|
|-(2)----------||o-5s===7-------5s7--8s==7-----------------|
|-(0)----------||---------0--0-------------0------0--------|
| endRhy Fill -||-Rhy Fig 1
|
|              Gtr III
|  W               Q        +Q      +E     E     +E.   +S
|--------------||------------------------------------------|
|--------------||o-5--------(5)-----(5)----7-----(7)---(7)-|
|--------------||--7b9======(7)-----(7)r---9b12==(9)r==(9)-|
|--------------||------------------------------------------|
|--------------||o-----------------------------------------|
|--------------||------------------------------------------|
                |-Fill 2 play on repeat only

   Q    E. S  e E E E
|---------------------|
|---------------------|
|--7----7--9-10-5-5-5-|
|--7----7--9-10-5-5-5-|
|--5----5--7--8-3-3-3-|
|--5----5--7--8-3-3-3-|
|
|  Q..     S  e E Q
|-!0-------0--0-------|
|-!3-------3--3-3-3---|
|-!2-------2--2-0-0---|
|-!0-------0--0-------|
|-!0------------3-3---|
|---------------------|
|       end Rhy Fig 1-|
|
|  Q..     S  H
|---------------------|
|---------------------|
|--7-------9--5-------|
|---------------------|
|---------------------|
|---------------------|
           end Fill 2-|

w/Rhy Fig 1 x2 + Fill 2 x2 on repeat
         PM|              PM----|
  S    S E  E  S S  S   S E      E  E        Q    E S S  e E E E
|-----------------------------------------|----------------------|
|-----------------------------------------|----------------------|
|-7s===9-------7s9-10s==9-----------------|--7----7-7-9-10-5-5-5-|
|-7s===9-------7-9-10s==9-----------------|--7----7-7-9-10-5-5-5-|
|-5s===7-------5s7--8s==7-----------------|--5----5-5-7--8-3-3-3-|
|--------0--0-------------0------0--0-----|--5----5-5-7--8-3-3-3-|
|-Rhy Fig 1A                                      end Rhy Fig 1A-|


         PM|              PM----|
  S    S E  E  S S  S   S E      E  E        Q    E S S  e E E E
|-----------------------------------------|----------------------||
|-----------------------------------------|----------------------||
|-7s===9-------7s9-10s==9-----------------|--7----7-7-9-10-5-5-5-||
|-7s===9-------7-9-10s==9-----------------|--7----7-7-9-10-5-5-5-||
|-5s===7-------5s7--8s==7-----------------|--5----5-5-7--8-3-3-3-||
|--------0--0-------------0------0--0-----|--5----5-5-7--8-3-3-3-||



 Pre-Chorus
  $
  PM|   PM|   PM|   PM|     PM------|
  S S E S S E S S E S S E   E E E E E E E E
|-------------------------|-----------------|
|-------------------------|-----------------|
|-----0-----0-----0-----0-|-----------------|
|---2-----2-----2-----2---|-----------2-2-2-|
|-2-----1-----------------|-2-2-2-2-2-2-2-2-|
|-------------3-----2-----|-0-0-0-0-0-0-0-0-|
|-Rhy Fig 2A                 end Rhy Fig 2A-|
|
|                             PM  PM  PM  PM
| Q     Q     Q     Q       E E E E E E E E
|-------------------------|-----------------|
|-------------------------|-----------------|
|-4-----3-----------------|-9---9---9---9---|
|-4-----3-----5-----4-----|-----------------|
|-2-----1-----5-----4-----|-7---7---7---7---|
|-------------3-----2-----|---0---0---0---0-|
|-Rhy Fig 2                   end Rhy Fig 2-|


Rhy Fig 2 + 2A


  Gtrs I, II
                             PM|     PM|     PM|     PM|
  Q  E S S  e E E  E     S S S S S S S S S S S S S S S S
|----------------------|---------------------------------||
|----------------------|---------------------------------||
|-7--7-7-9-10-5-5------|---------------------------------||
|-7--7-7-9-10-5-5------|-5-5-----5-5-----5-5-----5-5-----||
|-5--5-5-7--8-3-3-(3)/-|-7-7-----7-7-----7-7-----7-7-----||
|-5--5-5-7--8-3-3------|-----0-0-----0-0-----0-0-----0-0-||


 Chorus
  Gtr I
                             PM|     PM|     PM|     PM|
  E E E E E E S  S  E    S S S S S S S S S S S S S S S S
|----------------------|---------------------------------|
|----------------------|---------------------------------|
|---4---2---2-2-(2)-2/-|---------------------------------|
|-5---4---3---2h=3--2/-|-5-5-----5-5-----5-5-----5-5-----|
|----------------------|-7-7-----7-7-----7-7-----7-7-----|
|----------------------|-----0-0-----0-0-----0-0-----0-0-|
|-Rhy Fig 3A                              end Rhy Fig 3A-|
| Gtr II
|                            PM|     PM|     PM|     PM|
| Q   Q   Q   Q          S S S S S S S S S S S S S S S S
|----------------------|---------------------------------|
|----------------------|---------------------------------|
|----------------------|---------------------------------|
|---------3---2--------|-5-5-----5-5-----5-5-----5-5-----|
|---------0---0--------|-7-7-----7-7-----7-7-----7-7-----|
|-0---2----------------|-----0-0-----0-0-----0-0-----0-0-|
|-Rhy Fig 3                                end Rhy Fig 3-|


Rhy Fig 3 + 3A both x1.5 -> To Coda on D.S.



  A5                    Cadd9
  Gtr II
  W                     W
  |                     |
  /                     /

  Gtr I
  Q  E. S e E +S  S E   Q  E S  S  +S  S Q  E
|---------------------|-0--0-0-(0)-(0)-0-------|
|---------------------|-3--3-3s=5--(5)-5-3-----|
|-2--2----2-2-(2)-2-2-|-0--0-------------------|
|-2--2----2-2-(2)-2-2-|-2--2-------------------|
|-0--0----0-0-(0)-0-0-|-3--3-------------------|
|-------0-------------|---------------------3/-|


  1.
  Gtrs I, II
  E E  E      +S   S  E S S +S  S S S   E E  E      +S   S  E S S +S  S S S
|-------------------------------------|-------------------------------------|
|-----12b13==(12)r--------------------|-----12b13==(12)r--------------------|
|-----12b13==(12)r--------------------|-----12b13==(12)r--------------------|
|-------------------------------------|-------------------------------------|
|-----------------------5-------5---5-|-----------------------5-------5---5-|
|-0-0--------------0-/7---5-(5)---3---|-0-0--------------0-/7---5-(5)---3-0-|
|-Rhy Fig 4

  S   +S  e E S S  E S S +S  S S S   E  S  S  E  +S   S  E S S +S  S S S
|----------------------------------|-------------------------------------|
|----------------------------------|---12s13-12-(12)\--------------------|
|----------------------------------|---12s13-12-(12)\--------------------|
|----------------------------------|---12s13-12-(12)\--------------------|
|---------2-2--------5-------5---5-|-----------------------5-------5---5-|
|-3b5r(3)-0-0-0-0-/7---5-(5)---3---|-0----------------0-/7---5-(5)---3-0-|
                                                           end Rhy Fig 4-|

w/Rhy Fill 1
  Gtr I
  S   +S  e E. S    +S  +S  e E. S
|-------------------------------------|
|-------------------------------------|
|-------------------------------------|
|-------------------------------------|
|-------------------------------------|
|-3b5r(3)-0-0--3b5==(3)r(3)-0-0--3b5==|



 2/4
  +S  +S     +S  +S     +S     +S     +S  +S
|----------------------------------------------||
|---------------------------------------------o||
|----------------------------------------------||
|----------------------------------------------||
|---------------------------------------------o||
|-(3)r(3)b5==(3)r(3)b5==(3)r===(3)b5==(3)r(3)--||
|
|Gtr III
|                        <
|  Q                     E            +S  +S
|----------------------------------------------||
|------------------------5------------(5)-(5)-o||
|------------------------7pb9=========(7)r(7)--||
|----------------------------------------------||
|---------------------------------------------o||
|----------------------------------------------||


  2.
 4/4
  Gtrs I, II
  E E  E.     +S   E E  E.     +S     E E  E.     +S   E E  E.     +S
|-----------------------------------|-----------------------------------|
|-----12b13==(12)r-----13b14==(13)r-|-----12b13==(12)r-----13b14==(13)r-|
|-----12b14==(12)r-----13b15==(13)r-|-----12b14==(12)r-----13b15==(13)r-|
|-----------------------------------|-----------------------------------|
|-----------------------------------|-----------------------------------|
|-0-0--------------0-0--------------|-0-0--------------0-0--------------|
|-Rhy Fig 5                                               end Rhy Fig 5-|

  E S S E S S E S S E S S   E S S E S S S E. E S S
|-------------------------|------------------------|
|-------------------------|------------------------|
|-------9-----------9-----|-------9-----7----5-----|
|-------------------------|-------------7-7--5-----|
|-------7-----------7-----|-------7-----5-7--3-----|
|-0-0-0---0-0---0-0---0-0-|---0-0---0-0---5----3-2-|


  S S E E S S E S S E S S   E S S E S S S E. E S S
|-------------------------|------------------------||
|-------------------------|------------------------||
|-------9-----------9-----|-------9-----7----5-----||
|-------------------------|-------------7-7--5-----||
|-------7-----------7-----|-------7-----5-7--3-----||
|-0h3-0---0-0---0-0---0-0-|---0-0---0-0---5----3-2-||
|-Rhy Fig 6                          end Rhy Fig 6-|

 Guitar Solo
w/Rhy Fig 6 x4
  Gtr III
                        ~~~~~~~                  ~~~
      |-3-|
  E   S S S  E       S  S  +E   S  S  E       S  S
|--------------------------------------------------|
|-----------12b12.5------------------12b12.5-------|
|-----------12b12.5------------------12b12.5-------|
|---------x---------14-14-(14)-12-14---------14-14-|
|-------x------------------------------------------|
|-----x--------------------------------------------|


 ~~~~~~                        ~~~          ~~
   +E   S  S  E       S  S  S  E   S  S  S  E
|------------------------------------------------|
|------------12b12.5-----------------------------|
|------12----12b12.5----12-14--------------------|
|-(14)-12-14---------14-12----12--12-12h14-14----|
|------------------------------------------------|
|------------------------------------------------|


                          ~~~~~~~                       ~~~
   S  S  S  S  E       S  S  +S   +S     S  S  E  S     S
|---------------------------------------------------------|
|-------------12b12.5-------------------------------------|
|-12----------12b12.5-------------------------12-14b16-12-|
|-12-14-14-14---------14-14-(14)-(14)\-/12-14-------------|
|---------------------------------------------------------|
|---------------------------------------------------------|


 ~~~~~~                                        PM
   +S   +S     S  S  E       S  S  e     e  S  S  S      +S
|-------------------------------------------------------------|
|-------------------12b12.5-------12--------------------------|
|-(12)-(12)\--------12b12.5-------12----12-14----14b16==(14)r-|
|------------/14-12---------14-12-------------14--------------|
|-------------------------------------------------------------|
|-------------------------------------------------------------|


  Gtr IV
                                           ~~~
   E     E E         E    E e   S     +S  +E
|-----------------------------------------------|
|-----------------------------------------------|
|----------9--------------------9b11==(9)r(9)---|
|--------9-----------9------9-------------------|
|-----------------------------------------------|
|-----------------------------------------------|
|
| Gtr III
|                                          ~~~
|  S  S  E S    +S  +E    E e   S     +S  +E
|-----------------------------------------------|
|-14-12-----------------------------------------|
|-14-12-----------------------------------------|
|----------6b7==(6)r(6)-----6---9b11==(9)r(9)---|
|-------\7----------------7---------------------|
|-----------------------------------------------|


                                      ~
  +E    e   S     +S  +S  S e    e    Q
|--------------------------------------------|
|--------------------------------------------|
|-(9)\---------------------------9b11-9------|
|------/6---9b11==(9)r(9)-6-9----------------|
|--------------------------------------------|
|--------------------------------------------|
|
|                                     ~
| +E    e   S     +S  +S  S e    e    Q
|--------------------------------------------|
|--------------------------------------------|
|--------------------------------------------|
|-(9)\------6b7===(6)r(6)---6----9b11-9------|
|------/7-----------------7------------------|
|--------------------------------------------|


  +E      e S     +S  +E    E S     +S  +E  E
|-----------------------------------------------|
|-----------------------------------------------|
|-(9)\------------------------------------------|
|--------/6-9b11==(9)r(9)-----9b11==(9)r(9)-----|
|-----------------------------------------------|
|-----------------------------------------------|
|
| +E      E S     +S  +E    E S     +S  +E  E
|-----------------------------------------------|
|-----------------------------------------------|
|-----------------------------------------------|
|-(9)\------6b7===(6)r(6)-----6b7===(6)r(6)-----|
|--------/7-----------------7---------------7---|
|-----------------------------------------------|


                         ~~~
  S     +S  +S      +S  +E  S     +S  +S   S  S  S S     +S  +E
|------------------------------------------------------------------|
|------------------------------------------------------------------|
|--------------------------------------------------9b11==(9)r(9)---|
|-9b11==(9)r(9)b11==(9)r(9)-9b11==(9)r(9)-11--9h11-----------------|
|------------------------------------------------------------------|
|------------------------------------------------------------------|
|
|                        ~~~
| S     +S  +S      +S  +E  S     +S  +S   S  S  S S     +S  +E
|------------------------------------------------------------------|
|------------------------------------------------------------------|
|------------------------------------------------------------------|
|-6b7===(6)r(6)b7===(6)r(6)-6b7===(6)r(6)--7--6s=7-9b10==(9)r(9)---|
|------------------------------------------------------------------|
|------------------------------------------------------------------|


  Gtr I
|-Rhy Fig 7                                   end Rhy Fig 7-|
  B5      C5B5           C5B5            C5B5  D5A5V  C5G F#
   E E    E S S  E   S S E S S    E  S S E S S S E.   E S S
   | |    | | |      | | | | |       | | | | | | |    | | |
   / /    / / /      / / / / /       / / / / / / /    / o o

   E Q.         +H               +Q      Q     H
|------------------------------|----------------------------|
|------------------------------|----------------------------|
|--9-8----------(8)------------|-(8)------------------------|
|------------------------------|----------------------------|
|------------------------------|----------------------------|
|------------------------------|----------------------------|
|
|                                    PM
|  E S  S E S S +E   S S E S S   +E  S S E S S E    E E E
|------------------------------|----------------------------|
|--0-0--0-0-0-0-(0)--0-0-0-0-0-|-(0)-0-0-0-0-0-0----0-0-0---|
|-/4-4--4-5-4-4-(4)-/4-4-5-4-4-|-(4)-4-4-5-4-4-4----4-4-4---|
|------------------------------|----------------------------|
|------------------------------|----------------------------|
|------------------------------|----------------------------|
|
| Gtr II
|  E E    E S S +E   S S E S S   +E  S S E S S S E.   E S S
|------------------------------|----------------------------|
|------------------------------|----------------------------|
|--4-4----5-4-4-(4)--4-4-5-4-4-|-(4)-4-4-5-4-4-7------5-----|
|--4-4----5-4-4-(4)--4-4-5-4-4-|-(4)-4-4-5-4-4-7-7----5-----|
|--2-2----3-2-2-(2)--2-2-3-2-2-|-(2)-2-2-3-2-2-5-7----3-----|
|------------------------------|-----------------5------3-2-|
|-Rhy Fig 7A                                 end Rhy Fig 7A-|

w/Rhy Fig 7 + 7A
  Gtr III
     PM--|         PM-|
   S S S S E  S S  S  S E     S  S  E
|----------------------------------------|
|--0-0-0-0-0--0-0--0--0-0-----0--0--0----|
|-/5-5-4-2-4-/8-9--8--8-6---/11-12-11\---|
|----------------------------------------|
|----------------------------------------|
|----------------------------------------|


    PM-|                              ~~
    S   S  S S  E  S  S  S  S   S  S  E  E
|---------------------------------------------|
|---0---0--0-0--0--0--0-----------------------|
|-/11--12-11-9-11-11-12-14-16--14-16-16-16\---|
|---------------------------------------------|
|---------------------------------------------|
|---------------------------------------------|

w/Rhy Fig 5
                                                ~~~~~
  E E  E      +E          E E  S      +S       +E
|-----12-----(12)\------------14-----(14)-----(14)--------|
|-----15b17==(15)r\-----------17b19r=(17)b19==(17)r-------|
|---------------------------------------------------------|
|---------------------------------------------------------|
|---------------------------------------------------------|
|-0-0---------------------0-0-----------------------------|



  E E  E      +E          E E  S      +S       +E
|-----12-----(12)\------------17-----(17)-----(17)--------|
|-----15b17==(15)r\-----------20b22r=(20)b22==(20)r-------|
|---------------------------------------------------------|
|---------------------------------------------------------|
|---------------------------------------------------------|
|-0-0---------------------0-0-----------------------------|



  E5
  Gtr I
   W
   |
   /

  Gtrs III, IV
   ~~~~~~
   Q       +Q     E     S     S     S     +E   T  T
|-22b24===(22)r--22b24-22b24-22b24-22b24r(22)-------|
|-22b24===(22)r--22b24-22b24-22b24-22b24r(22)-20h22-|
|---------------------------------------------------|
|---------------------------------------------------|
|---------------------------------------------------|
|---------------------------------------------------|
|  Q       +Q     E     S     S     S     +E   S
|
| Gtr II
|  H.                              +E.         S
|---------------------------------------------------|
|---------------------------------------------------|
|----------------------------------------------0----|
|---------------------------------------------------|
|--2-------------------------------(2)--------------|
|--0-------------------------------(0)--------------|


  +W
   |
   /

   ~~~~~~~~       ~~
                          |-----6-----|  |------6-------|
   E        +E    E  +E   S S S S  S  S  S  S  S  S  S  S
|----------------------------------------------------------|
|-20b20.5==(20)r----------------8s10-10-10s12-12-15s17-17--|
|----------------21-(21)\-7s9-9-7s=9--9--9s11-11-14s16-16--|
|-------------------------7s9-9----------------------------|
|----------------------------------------------------------|
|----------------------------------------------------------|
|  H                      S S S S  S  S  S  S  S  S  S  S
|                         |-----6-----|  |------6-------|
|
|                         |-----6-----|  |------6-------|
|  H                      S S S S  S  S  S  S  S  S  S  S
|--0-------------------------------------------------------|
|--0-------------------------------------------------------|
|--0-------------------------------------------------------|
|-------------------------------5s=7--7--7s=9--9-12s14-14--|
|-------------------------5s7-7----------------------------|
|----------------------------------------------------------|


   ~~~
   E  E  Q               H
|----------------------------------------|
|-17----12b13==(12)r\-0------------------|
|-16----12b13==(12)r\--------------------|
|----------------------------------------|
|----------------------------------------|
|----------------------------------------|
|  Q     E      +S    S  H
|
| Gtr I
|  Q     E      +S    S  E S S +S  S S S
|----------------------------------------|
|-------12b13==(12)r\--------------------|
|-------12b13==(12)r\--------------------|
|----------------------------------------|
|-(2)----------------------5-------5---5-|
|-(0)-----------------0-/7---5-(5)---3---|
|
| Gtr II                                 G
|  E  E  E      +S    S  E S S +S  S S S
|----------------------------------------|
|-------12b13==(12)r\--------------------|
|-------12b13==(12)r\--------------------|
|-14\------------------------------------|
|--------------------------5-------5---5-|
|-----0---------------0-/7---5-(5)---3---|



Gtrs I, II
| E E  E      +S    S  E S S +S  S S S   S   +S  e E. S  E S S +S  S S S
|--------------------------------------|----------------------------------|
|-----12b13==(12)r\--------------------|----------------------------------|
|-----12b13==(12)r\--------------------|----------------------------------|
|--------------------------------------|----------------------------------|
|------------------------5-------5---5-|---------2-2-------5-------5---5--|
|-0-0---------------0-/7---5-(5)---3-0-|-3b5r(3)-0-0--0-/7---5-(5)---3----|


  Gtr I
  E  S  S  E  +S   S  E S S +S  S S S   S   +S  e E. S    +S  +S  e E. S
|-------------------------------------|-------------------------------------|
|---12s13-12-(12)\--------------------|-------------------------------------|
|---12s13-12-(12)\--------------------|-------------------------------------|
|---12s13-12-(12)\--------------------|-------------------------------------|
|-----------------------5-------5---5-|-------------------------------------|
|-0----------------0-/7---5-(5)---3---|-3b5r(3)-0-0--3b5==(3)r(3)-0-0--3b5==|
|
| Gtr II
| E  S  S  E  +S   S  E S S +S  S S S
|-------------------------------------|
|---12s13-12-(12)\--------------------|
|---12s13-12-(12)\--------------------|w/Rhy Fill 1
|---12s13-12-(12)\--------------------|
|-----------------------5-------5-----|
|-0----------------0-/7---5-(5)---3-0-|


 2/4
  +S  +S     +S  +S     +S  +S     +S  +S
|-------------------------------------------||
|-------------------------------------------||
|-------------------------------------------||
|-------------------------------------------||
|-------------------------------------------||
|-(3)r(3)b5==(3)r(3)b5==(3)r(3)b5==(3)r(3)--||



 Verse 3
 4/4
  Gtrs I, II
  E E Q  H      Q  E S S  e E Q
|-------------|------------------|
|-------------|------------------|
|-------------|-7--7-7-9-10-5-5--|
|-------------|-7--7-7-9-10-5-5--|
|-2-----------|-5--5-5-7--8-3-3--|
|-0-----------|-5--5-5-7--8-3-3--|


Rhy Fig 1 + 1A x2 -> D.S. al Coda


  &
  A5               Cadd9
  Gtr I
  W                W
  |                |
  /                /

  Gtr II
  Q  E. S e Q  e   Q  a E S  S  +E  E +S  S E
|----------------|-0----0-0-(0)-(0)-0-(0)-----|
|----------------|-3--3s5-3s=5--(5)-3-(3)-3-0-|
|-2--2----2-2--2-|-0--------------------------|
|-2--2----2-2--2-|-2--------------------------|
|-0--0----0-0--0-|-3--------------------------|
|-------0--------|----------------------------|


  A5                  E   F5
  Q  Q    e S S +E    E   Q  Q  E   E   E E
  |  |    | | |  |    |   |  |  |   |   | |
  /  /    / / /  /    o   /  /  /   /   / /

                                  PM--|
  Q  E. S e S S +S  S E   Q  Q  S S S S E E
|-----------------------|--------------------||
|-----------------------|--------------------||
|-2--2----2-2-2-(2)-2---|--------------------||
|-2--2----2-2-2-(2)-2---|-3--3--3-------3----||
|-0--0----0-0-0-(0)-0---|-3--3--3-3-3-3-3----||
|-------0-------------0-|-1--1--1-1-1-1-1-1/-||


 Outro
w/Rhy Fig 4
|-------------------------------------|-------------------------------------|



                          ~~~~~~~                    ~~
  S    S    E  E       S  S  +E   S  S  E         S  S
|------------------------------------------------------|
|-------------12b12.5------------------12b12.5---------|
|---------/14-12b12.5------------------12b12.5---------|
|---------/14---------14-14-(14)-12-14-----------14-14-|
|------------------------------------------------------|
|------0-----------------------------------------------|


    ~~~~
   +E   S  S  E        S    S  S     +E     S  e     E
|-----------------------------------------------------------|
|------------12b12.5----------14b16r(14)---12-14----14b15---|
|------------12b12.5----------14b16r(14)---12-14----14b15---|
|-(14)-12-14----------12---14-------------------------------|
|-----------------------------------------------------------|
|-----------------------------------------------------------|



         ~~~~~
   S  S  E  E  S  S  E       E    E    E
|-------------------------------------------|
|---------------------------15---15---------|
|-14-12----12-14-12-14b16==(14)-(14)r-14b16-|
|-------14----------------------------------|
|-------------------------------------------|
|-------------------------------------------|
|
|  Q        Q        Q            Q
|-------------------------------------------|
|-------------------------------------------|
|--4--------3-------------------------------|
|--4--------3--------5------------4---------|
|--2--------1--------5------------4---------|
|--------------------3------------2---------|


   E      +E    E      +E    E      +E    E      +E
|-----------------------------------------------------|
|-14b15==(14)r-14b15==(14)r-14b15==(14)r-14b15==(14)r-|
|-14b15==(14)r-14b15==(14)r-14b15==(14)r-14b15==(14)r-|
|-----------------------------------------------------|
|-----------------------------------------------------|
|-----------------------------------------------------|
|
|  E       E    E       E    E       E    E       E
|-----------------------------------------------------|
|-----------------------------------------------------|
|--9------------9------------9------------9-----------|
|-----------------------------------------------------|
|--7------------7------------7------------7-----------|
|----------0------------0------------0------------0---|


   E     S  S  E     S  +S       +E   E Q
|------------------------------------------*|
|------------------------------------------*|
|-14b16-14-12-14b16-12-(12)b13==(12)rs0----*|
|------------------------------------------*|
|------------------------------------------*|
|------------------------------------------*|
|
|  E     S  S  E     S   S       +E   E Q
|------------------------------------------*|
|------------------------------------------*|
|--------------9---------------------------*|
|------------------------------------------*|
|--------------7---------------------------*|
|--0-----0--0--------0---0-------(0)-------*|

x x x x x x x x x x x x x x x x x x x x x x x x x x x x x x x x x

8. Bad seed

bad seed
mark lavalle
tune all guitars down 1 1/2 steps ('E' string sounds C#)
low to high C#, F#, B, E, G#, c# 
coughing and drum intro 

 1) 

 c#--------------------------------------------------------------------
 G#-------------------------------------------------------------------- 
 E--------------------------------------------------------------------- 
 B---2-0----------2-0---------5-2-0----------2-0---------2-2-2-2------- 
 F#------2-0----------2-0-----5-----2-0----------2-0-----2-2-2-2------- 
 C#----------3-0----------3-0-3---------3-0----------3-0-0-0-0-0-3~~3~~ 

 Intro riff 

  
 2) 

 B-----2-2-2-2-2-------------2-2-2-2-2-------------5-5-5-5-7--8-8
 F#----2-2-2-2-2-------------2-2-2-2-2-------------5-5-5-5-7--8-8
 C#--3p0-0-0-0-0-5p0-3h5-3p0-0-0-0-0-0-5p0-3h5-3p0-3-3-3-3-5--6-6
      pm........             .........             .............. 

  
  

 3) 

 B-----2-2-2-------2-2-2-------2-2-2
 F#----2-2-2-------2-2-2-------2-2-2
 C#--3p0-0-0-0h2h3-0-0-0-0h2h3-0-0-0
      pm....       .....       .....
 Verse

 "Come clean, fess up."

  

 4a) James 

 B---7-5----------7-5----------10-
 F#------5-7----------7-5------10-
 C#----------8-5----------8-5--8--
 
 4b) Kirk 
 B---7-7-7-7-7-7-7-10 
 F#--7-7-7-7-7-7-7-10
 C#--5-5-5-5-5-5-5-8- 

 bridge 

 "Ladies and gentilmen" 

  
  

  
 5a) James 

 B---5-5-5-5-2----------------5-5-5-5-2----------------5-5-5-5-7------------ 
 F#--5-5-5-5-2----------------5-5-5-5-2----------------5-5-5-5-7------------ 
 C#--3-3-3-3-0-0h5p0-3h5-3p0--3-3-3-3-0-0h5p0-3h5-3p0--3-3-3-3-5-5p0-3h5-3p0 
 5b) Kirk 

 c#------------7~~~~~~~~~~--------------12~~~~~~~~~~-------------7~~~~~~---- 
 G#--------------------------------------------------------------8---------- 
 E-------------------------------------------------------------------------- 
 B---5-5-5-5------------------5-5-5-5------------------5-5-5-5-------------- 
 F#--5-5-5-5------------------5-5-5-5------------------5-5-5-5-------------- 
 C#--3-3-3-3------------------3-3-3-3------------------3-3-3-3--------------
 
 Chorus

 "Swing the noose again."

  
  

 6) 

 B---2-2-2-2-5-5-5-5-7-7-7-7-8-8-8-8
 F#--2-2-2-2-5-5-5-5-7-7-7-7-8-8-8-8
 C#--0-0-0-0-3-3-3-3-5-5-5-5-6-6-6-6
 "Choking on a bad seed" (about 2:00)


x x x x x x x x x x x x x x x x x x x x x x x x x x x x x x x x x


9. Where the wild things are

Transcribed by www.mikesguitarsite.co.uk 

Em           0 2 2 0 0 x 
Cmaj7        x 3 2 0 0 0 
Fb5          x x 3 4 x x 
Cmaj7/E      0 3 2 0 0 0 
G5           3 5 5 x x x 
E5           0 2 x x x x 

Gtr I (Eb Ab Db Gb Bb Eb) - 'James Hetfield - Rhythm clean electric'
Gtr II (Eb Ab Db Gb Bb Eb) - 'Kirk Hammett - Rhythm clean electric'
Gtr III (Eb Ab Db Gb Bb Eb) - 'James Hetfield - Rhythm w/dist'
Gtr IV (Eb Ab Db Gb Bb Eb) - 'Kirk Hammett - Lead / Rhythm w/dist'
Gtr V (Eb Ab Db Gb Bb Eb) - 'Kirk Hammett - Lead w/dist'

Intro
  Q=92
 2/4        4/4
  Gtr II
   H          Q   S S S S +E  E S S S S   +E  E S S S S +H
|----------|----------------------------|------------------------|
|----------|----------------------------|------------------------|
|----------|------4-----4-(4)---4-----3-|-(3)---3-----0-(0)------|
|----------|--------2-------------2-----|---------2--------------|
|----------|----------3-------3-----3---|-----3-----3------------|
|----------|----------------------------|------------------------|
|
| Gtr I
|                                                             ~
|  Q.    E   +Q   S S S S +E  E S S S S   +E  E S S S S +E  E Q
|----------|----------------------------|------------------------|
|-^0----^0-|-(0)------------------------|------------------------|
|-^0----^0-|-(0)--4-----4-(4)---4-----3-|-(3)---3-----0-(0)------|
|-^2----^2-|-(2)----2-------------2-----|---------2--------------|
|-^2----^3-|-(3)------3-------3-----3---|-----3-----3------------|
|-^0-------|----------------------------|-------------------0-1--|
|-Rhy Fig 1                                        end Rhy Fig 1-|

 2/4        4/4
  +H         +Q   S S S S +E  E S S S S   +E  E S S S S +H
|----------|----------------------------|---------------------------|
|----------|----------------------------|---------------------------|
|-(0)------|-(0)--4-----4-(4)---4-----3-|-(3)---3-----0-(0)---------|
|----------|--------2-------------2-----|---------2-----------------|
|----------|----------3-------3-----3---|-----3-----3---------------|
|----------|----------------------------|---------------------------|
|-Rhy Fig 1A                                         end Rhy Fig 1A-|
|
|  Q.    E   +Q   S S S S +E  E S S S S   +E  E S S S S +E  E S S E
|----------|----------------------------|---------------------------|
|-^0----^0-|-(0)------------------------|---------------------------|
|-^0----^0-|-(0)--4-----4-(4)---4-----3-|-(3)---3-----0-(0)---------|
|-^2----^2-|-(2)----2-------------2-----|---------2-----------------|
|-^2----^3-|-(3)------3-------3-----3---|-----3-----3---------3-2-0-|
|-^0-------|----------------------------|-------------------0-------|
                                        |-Rhy Fill 1              --|

Rhy Fig 1 + 1A x2



  Gtr I                Gtr III
                   >     <
                                             PM     PM|
  Q.   E +H        Q   E E +Q   S S S S    e E E. S S S  S  S S S S S
|------0-(0)----|-(0)----0-(0)----------||-----------------------------|
|-0----0-(0)----|-(0)----0-(0)----------||--------------<4>------------|
|-0----0-(0)----|-(0)----0-(0)--4-4-4-4-||-4---4--4-----------4-4-4-4--|
|-2----2-(2)----|-(2)----2-(2)--3-3-3-3-||-3---2--2---------2-3-3-3-3--|
|-2----3-(3)----|-(3)----3-(3)----------||-----------------------------|
|-0-------------|--------0-(0)----------||---0------0-0----------------|
                  +H.           Q
                |-Rhy Fill 2          --|

  Gtr IV
  Q   E. S S S E   Q         W
         | | |
         x x x

  Gtr III
    PM     PM|   PM            PM     PM|
  e E E. S S S S S S S S S   e E E. S S S  S  S S S S S
|--------------------------|----------------------------|
|--------------------------|--------------<4>-----------|
|-4---4--4---------4-4-4-4-|-4---4--4-----------4-4-4-4-|
|-3---2--2---------3-3-3-3-|-3---2--2---------2-3-3-3-3-|
|--------------------------|----------------------------|
|---0------0-0---0---------|---0------0-0---------------|


  Q   E. S  S   S   E    S S S S
         |  |   |        | | | |
         x  x   x        x x x x

    PM
  e E E. S  S   S   S  S S S S S
|---------------------------------|
|----------<4>-<4>-<4>------------|
|-4---4--4---------------4-4-4-4--|
|-3---2--2-------------2-3-3-3-3--|
|---------------------------------|
|---0-----------------------------|


  Gtrs III, IV
    PM     PM----|
  e E E. S S S S S S S S S
|--------------------------|
|--------------------------|
|-4---4--4---------4-4-4-4-|
|-3---2--2---------3-3-3-3-|
|--------------------------|
|---0------0-0-0-0---------|
|-Rhy Fig 2

    PM     PM----|             PM     PM----|
  e E E. S S S S S S S S S   e E E. S S S S S S S S S
|--------------------------|---------------------------|
|--------------------------|---------------------------|
|-4---4--4---------4-4-4-4-|-4---4--4---------4-4-4-4--|
|-3---2--2---------3-3-3-3-|-3---2--2---------3-3-3-3--|
|--------------------------|---------------------------|
|---0------0-0-0-0---------|---0------0-0-0-0----------|


                                                2/4
    PM     PM----|             PM                  PM
  e E E. S S S S S S S S S   e E Q  Q  S S S S   e E Q
|--------------------------|-------------------|--------||
|--------------------------|-------------------|--------||
|-4---4--4-----------------|-------------------|--------||
|-3---2--2---------5-5-5-5-|-5---------5-5-5-5-|-5------||
|------------------5-5-5-5-|-5---2--2--5-5-5-5-|-5---2--||
|---0------0-0-0-0-3-3-3-3-|-3-0-0--0--3-3-3-3-|-3-0-0--||
             end Rhy Fig 2-|-Rhy Fig 2A               --|

   Verses 1 + 2
    $
   4/4
    Gtr IV
        PM--------|       PM|           PM  PM--------|       PM|     PM|
                    |-3-|                               |-3-|
    S S S S S S S S S S S S S E   E     S S S S S S S S S S S S S S S S S   5x
||------------------------------------|-------------------------------------||
||o-----------------------------------|------------------------------------o||
||----------------------------4-------|-------------------------------------||
||----5-----------------------2-------|---5---------------------------------||
||o---5-5-5-5-5-5-5-------------------|---5-5-5-5-5-5-5--------------------o||
||----3-3-3-3-3-3-3-3h5p0-0-0---------|-0-3-3-3-3-3-3-3-3h5p0-0-0-3p0-0-0---||
||-Rhy Fig 3            end Rhy Fig 3-|
|
|   Gtr III
|   PM  PM--------|       PM|     PM----|   PM--------|       PM|     PM|
|                   |-3-|                               |-3-|
|   S S S S S S S S S S S S S S S S S   S S S S S S S S S S S S S S S S S   5x
||------------------------------------|-------------------------------------||
||o-----------------------------------|------------------------------------o||
||------------------------------------|-------------------------------------||
||----5-------------------------------|---5---------------------------------||
||o---5-5-5-5-5-5-5-------------------|---5-5-5-5-5-5-5--------------------o||
||--0-3-3-3-3-3-3-3-3h5p0-0-0-3p0-0-0-|-0-3-3-3-3-3-3-3-3h5p0-0-0-3p0-0-0---||
 |-Rhy Fig 3A          end Rhy Fig 3A-|


   ~~~~~~~~~~~~~~~~~~~~~~~             ~~~~~~
   H        H           H        S S S S +E  E
|--------------------|---------------------------||
|-10--------9--------|---------------------------||
|--------------------|-10--------6s7-7-7-(7)-7---||
|--------------------|---------------------------||
|--------------------|---------------------------||
|--------------------|---------------------------||
|-Fill 1                              end Fill 1-|
|
|                                    PM|     PM|
|  S e S Q  S e S Q     S e S Q  S S S S  e  S S
|--------------------|---------------------------||
|--------------------|---------------------------||
|--7-7-7-7--6-6-6-6--|--3-3-3-3------------------||
|--7-7-7-7--6-6-6-6--|--3-3-3-3-----------5------||
|--5-5-5-5--4-4-4-4--|--1-1-1-1------5-5--5--5-5-||
|--------------------|-----------0h3-3-3--3--3-3-||
|-Rhy Fig 4                        end Rhy Fig 4-|

 Pre-Chorus
w/Fill 1 x1.5
   S e S Q  S e S Q     S e S Q  S S E    S S E    S e S Q  S e S Q
|--------------------|--------------------------|---------------------|
|--------------------|--------------------------|---------------------|
|--7-7-7-7--6-6-6-6--|--3-3-3-3-----------------|--7-7-7-7--6-6-6-6---|
|--7-7-7-7--6-6-6-6--|--3-3-3-3-----------5s7s5-|--7-7-7-7--6-6-6-6---|
|--5-5-5-5--4-4-4-4--|--1-1-1-1-----------------|--5-5-5-5--4-4-4-4---|
|--------------------|-----------0h3-3----3s5s3-|---------------------|


 2/4      4/4
  Gtr III
|-Rhy Fill 3                    end Rhy Fill 3-|
  Em   Cmaj7
  Q.   E   +W                 +W
  |    |    |                  |
  /    /    /                  /

  Gtr II
  Q.   E    E E E E E E E E    E E E E E E E E
|-0------|--0---0---0---0---|--0---0---0---0---||
|-0----1-|----1---1---1---1-|----1---1---1---1-||
|-0------|------------------|------------------||
|-2------|------------------|------------------||
|-3------|------------------|------------------||
|-0------|------------------|------------------||
|-Rhy Fig 3A                    end Rhy Fig 3A-|

 Chorus
  $$
 2/4          4/4
w/Rhy Fig 1
  Gtr II
   E  E E  E   +Q   S S S S +E  E S S S S   +E  E S S S S +H
|--0----0----|----------------------------|------------------------|
|-----1----0-|-(0)------------------------|------------------------|
|------------|------4-----4-(4)---4-----3-|-(3)---3-----0-(0)------|
|------------|--------2-------------2-----|---------2--------------|
|------------|----------3-------3-----3---|-----3-----3------------|
|------------|----------------------------|------------------------|


Rhy Fig 1 + Rhy Fig 1A (w/Rhy Fill 1)

Rhy Fig 1 + 1A


          To Dbl. Coda               To Coda
 2/4      4/4
  Gtr I                        Gtr III
                         >     <
  Q.   E   +W            Q   E E +Q   S S S S
|------0-|-(0)--------|-(0)----0-(0)----------||
|-0----0-|-(0)--------|-(0)----0-(0)----------||
|-0----0-|-(0)--------|-(0)----0-(0)--4-4-4-4-||
|-2----2-|-(2)--------|-(2)----2-(2)--3-3-3-3-||
|-2----3-|-(3)--------|-(3)----3-(3)----------||
|-0------|------------|--------0-(0)----------||
                        +H.           Q


 Rhy Fig 2

 Rhy Fig 2A -> D.S. al Coda


 Guitar Solo
  &
 4/4
w/Rhy Fig 2 (1st bar) x3
  Gtr V
  ~
  Q   S  S  S  S  S  S  S  S  S  S  E     E E S  S  E    S  S  E    S  E    S
|---------------------------------------|-------------------------------------|
|---------------------------------------|-------------------------------------|
|-9---9s10-10-10-10s13-13-13-13s14-14S==|=9-9-9s10-10---10s13-13---13-14---10-|
|---------------------------------------|-------------------------------------|
|-7---7s=8--8--8--8s11-11-11-11s12-12S==|=7-7-7s=8--8----8s11-11---11-12----8-|
|---------------------------------------|-------------------------------------|


  E S S S  S  S  S  S  S  S  S  S  S  S  S
|------------------------------------------|
|------------------------------------------|
|-9-----9s10-10-10-10s13-13-13-13s14-14s17-|
|------------------------------------------|
|-7-7-7-7s=8--8--8--8s11-11-11-11s12-12s15-|
|------------------------------------------|


   S  E    S  S   E  S  S  S  S S  Q
|-------------------------------0--------------|
|---------------------------------15-----------|
|-17s16---17-17--16-17-17-16-16---14b16========|
|----------------------------------------------|
|-15s14---15-15--14-15-15-14-14----------------|
|----------------------------------------------|
|
|       PM              PM------|
|  e    E     E.     S  S  S  S S  S     S S S
|----------------------------------------------|
|----------------------------------------------|
|--4----------4------4-------------------------|
|--3----------2------2-------------5-----5-5-5-|
|----------------------------------5-----5-4-4-|
|-------0---------------0--0--0-0--3-----3-3-3-|
|-Rhy Fill 4

                    ~~~
   +E.    S  E.  S  E. S  E        S  S
|--------15-15--------------------------|
|-(15)---15-15--12-----0----------15----|
|-(14)------14r-12-------14b16=======14-|
|------------------14-------------------|
|---------------------------------------|
|---------------------------------------|
|
|      PM
|   e  E     Q      Q     S     S  S  S
|---------------------------------------|
|---------------------------------------|
|---------------------------------------|
|---5--------5------5-----5-----5--5--5-|
|---4--3-----5------5-----4-----4--4--4-|
|---3--3-----3------3-----3-----3--3--3-|
|-Rhy Fill 4A                         --|

w/Rhy Fill 4A x2
                                          ~~
   +E   S  S  +E   S  S  S  +S   S  S  S  E   S
|-----------------------------------------------|
|------15---------15----------------------------|
|-(14)----14-(14)----14-14r(14)-12------------x-|
|----------------------------------14-12-14---x-|
|-----------------------------------------------|
|-----------------------------------------------|


              ~~~                     ~~
                           |---3---|
   E.      S  E. S  E      S  +S   S  E    S  S
|-----------------------------------------------|
|-15b17----------0-15---------------------------|
|-14b16---12-------14b16==14r(14)p12------12----|
|------------14----------------------14------12-|
|-----------------------------------------------|
|-----------------------------------------------|


   Q        S  E  S  +E   +S   +S   E       +E
|----------15----------------------15------(15)---|
|-15----------15-------------------15------(15)---|
|-14b16==========14-(14)-(14)r(14)-14b17r==(14)---|
|-------------------------------------------------|
|-------------------------------------------------|
|-------------------------------------------------|
|
|        PM
|  e     E  Q         E    S    S   S    S   S  S
|-------------------------------------------------|
|-------------------------------------------------|
|-------------------------------------------------|
|--5--------5---------5----3s===5---5----5---5--5-|
|--4-----3--5---------5----3s===5---5----5---5--5-|
|--3-----3--3---------3----1s===3---3----3---3--3-|
                                   end Rhy Fill 4-|

w/Rhy Fig 2 (1st bar) x2
                     ~~
          |---3---|
   E      S  +S   S  Q   E S  S  E       +S   S
|-----------------------------------------------|
|-----------------------12----------------------|
|-14b16==14r(14)p12-----12s7s12-14b16r==(14)p13-|
|-------------------14--------------------------|
|-----------------------------------------------|
|-----------------------------------------------|


                     ~~
          |---3---|
   E      S  +S   S  Q   E  +E   E    E
|-----------------------------------------|
|-----------------------12-(12)\----------|
|-14b16==14r(14)p12-----12-(12)\-7s==15---|
|-------------------14--------------------|
|-----------------------------------------|
|-----------------------------------------|


                                      2/4
      ~~~      ~~~    ~~~
   S  E.    S  E.  S  E.  S  S  S  S    S  S  S  S  S  S  E
|------------------------------------|-------15--------------|
|-15-------15-----15-----15----------|-15h17----17-15----15\-|
|----16-------16-----16-----16-16-16-|----------------16-----|
|------------------------------------|-----------------------|
|------------------------------------|-----------------------|
|------------------------------------|-----------------------|
|
|        PM
|  e     E  Q      Q      S  S  S  S    E     E     E     E
|------------------------------------|-----------------------|
|------------------------------------|-----------------------|
|------------------------------------|-----------------------|
|--5----------------------5--5--5--5-|--5-----------2--------|
|--5--------2------2------5--5--5--5-|--5-----------2--------|
|--3-----0--0------0------3--3--3--3-|--3-----0-----0-----x/-|


w/Rhy Fig 4 x1.5
 4/4
           ~~~~~~~~~~~~                   ~~~~~
  S  E     S      +E   E  E.      S      +E   E
|---10----10-----(10)-----9-------9------(9)----|
|---13b15-13b15==(13)r---12b14---12b14==(12)r---|
|-----------------------------------------------|
|-----------------------------------------------|
|-----------------------------------------------|
|-----------------------------------------------|

                      ~~~~                  ~~~~~~~
   E       S  S      +E   +E     E.         S  +S   S  E
|----------------------------------------------------------|
|-11---------11-----(11)-(11)\--12---------12-(12)-12------|
|-13b15---13-13b15==(13)-(13)r\-14b16======14-(14)-14r-----|
|----------------------------------------------------------|
|----------------------------------------------------------|
|----------------------------------------------------------|


                              ~~~~~~
   S     e  S S  E  S  S S  S S +E  E
|-------10-10---10-10-10s9------------|
|-13b15--------------------10---------|
|-----------------------------9-(9)---|
|-------------------------------------|
|-------------------------------------|
|-------------------------------------|


   S  S  S  S      +S    E    S  Q      E  +E
|-----------------------------------------------|
|-------------------------------12--------------|
|-------------------------------12--------------|
|----------------------------14--------14-(14)\-|
|----10-12-12b13==(12)r-12----------------------|
|-12--------------------------------------------|
|
|  S  e     S       E      E     S S E  E   E
|-----------------------------------------------|
|-----------------------------------------------|
|--3--3-----3-------3---------------------------|
|--3--3-----3-------3------------5s7s5--5-------|
|--1--1-----1-------1---------------------------|
|--------------------------0-----3s5s3--3-------|


w/Rhy Fig 4 (1st bar only)
                              ~     PM|
   S     e  S S  E  S  S S  S S +E  S S
|-------10-10---10-10-10s9----------0-0-|
|-13b15--------------------10-----------|
|-----------------------------9-(9)-----|
|---------------------------------------|
|---------------------------------------|
|---------------------------------------|



 2/4              4/4
   Q.      E        +W            +W
|-12------12-----|-(12)--------|-(12)----||
|-15b17---15b17==|=(15)--------|-(15)----||
|----------------|-------------|---------||
|----------------|-------------|---------||
|----------------|-------------|---------||
|----------------|-------------|---------||
|
|                                  >
|  Q.      E        +W            +W
|----------0-----|--(0)--------|--(0)----||
|--0-------0-----|--(0)--------|--(0)----||
|--0-------0-----|--(0)--------|--(0)----||
|--2-------2-----|--(2)--------|--(2)----||
|--2-------3-----|--(3)--------|--(3)----||
|--0-------------|-------------|---------||



   +Q    Q  H               W
|-(12)--------------------|----------------------|
|-(15)r-------------------|----------------------|
|-------------------------|----------------------|
|-------------------------|----------------------|
|-------------------------|----------------------|
|-------------------------|----------------------|
|
| Gtr IV
|   H       E S S S S S S   e E Q  E S S S S S S
|-------------------------|----------------------|
|-------------------------|----------------------|
|-------------x-x-4-4-4-4-|-4--------x-x-4-4-4-4-|
|-------------x-x-3-3-3-3-|-3--------x-x-3-3-3-3-|
|-------------------------|----------------------|
|-------------------------|----------------------|
                          |-Rhy Fig 5          --|

w/Rhy Fig 5 x2
 Gtr III
  Q   E. S +E  E   Q         Q   E. S +E  E   Q
|--------------------------|--------------------------||
|--------------------------|--------------------------||
|--------4-(4)-------------|--------4-(4)-------------||
|--------2-(2)-------------|--------2-(2)-------------||
|--------------------------|--------------------------||
|-----0--------------------|-----0--------------------||
|-Rhy Fig 5A             --|


   Bridge
 Rhy Fig 5 + 5A x12



  Q   E. S +E  E   S S S S   e E S S S S +S  E S E E
|--------------------------|---------------------------||
|--------------------------|---------------------------||
|--------4-(4)-----4-4-4-4-|-4---4-4-4-4-(4)-4-4-4-----||
|--------2-(2)-----3-3-3-3-|-3---2-2-2-2-(2)-2-2-2-----||
|--------------------------|-----------------------9\--||
|-----0--------------------|---0-----------------------||
|
| e E Q     E  S S S S S S   e E Q        H
|--------------------------|---------------------------||
|--------------------------|---------------------------||
|-4------------x-x-4-4-4-4-|-4-------------------------||
|-3------------x-x-3-3-3-3-|-3-------------------------||
|--------------------------|---------------------------||
|--------------------------|---------------------------||


   Pre Chorus
Rhy Fig 4 + Fill 1 both x1.5


Rhy Fig 3A + Fill 3 ->   D.S.S. al Dbl. Coda


                          Outro
w/Rhy Fill 2             |-w/Rhy Fig 2 (1st bar) x5
  &&
  Gtr I                 Gtr V
   H.           Q          Q   S  S  S  S  S  S  S  S  S  S  e
|-(0)-------------------||---------------------------------------|
|-(0)-------------------||---------------------------------------|
|-(0)-------------------||-9---9s10-10-10-10s13-13-13-13s14-14---|
|-(2)-------------------||---------------------------------------|
|-(3)-------------------||-7---7s=8--8--8--8s11-11-11-11s12-12---|
|-----------------------||---------------------------------------|



  E S S S  S  S  S  S  S  S  S  S  S  S  S
|------------------------------------------|
|------------------------------------------|
|-9-9-9-9s10-10-10-10s13-13-13-13s14-14-14-|
|------------------------------------------|
|-7-7-7-7s=8--8--8--8s11-11-11-11s12-12-12-|
|------------------------------------------|


                           |-----------6-----------|
   S  S  S  S  S  S  S  S  S     +S     S  S  S    S  S  S  S  S
|----------------------------------------------------------------|
|----------------------------------------------------------12h15-|
|-14s16-16-16-------12-14-14b16r(14)p==12-14p12------12h14-------|
|-------------12h14-------------------------------14-------------|
|-12s14-14-14----------------------------------------------------|
|----------------------------------------------------------------|


   T  T  T  T  S  S  S   S  S  S  S      +S   E    E       +S   S
|-----------------------------------------------------------------|
|-12h15p12----12----------------------------------15------(15)----|
|----------14----14-12-----12-14-14pb16r(14)p12---14b16r==(14)p12-|
|-----------------------14----------------------------------------|
|-----------------------------------------------------------------|
|-----------------------------------------------------------------|


                     ~~~
          |---3---|
   E      S  +S   S  Q     E    +E      E       +S   S
|------------------------------------------------------|
|-------------------------12---(12)\---15------(15)----|
|-14b16==14r(14)-12-------12---(12)\---14b16r==(14)p12-|
|-------------------14---------------------------------|
|------------------------------------------------------|
|------------------------------------------------------|


w/Rhy Fig 2 (1st bar) x2
                     ~~~
          |---3---|
   E      S  +S   S  Q     E    +E       E     S  S
|---------------------------------------------------|
|-------------------------12---(12)\----------------|
|-14b16==14r(14)-12-------12---(12)\-------------12-|
|-------------------14-----------------/14----14----|
|---------------------------------------------------|
|---------------------------------------------------|
|
|         PM               PM--------|
|  E      E          E. S  S S   S   S   S  S  S  S
|---------------------------------------------------|
|---------------------------------------------------|
|--4-----------------4--4----------------9s10-10-10-|
|--3-----------------2--2---------------------------|
|----------------------------------------7s=8--8--8-|
|---------0----------------0-0---0---0--------------|



  T  T  T  T  T  T  T  T  T   T  T  T  T  T  T   T  T  T  T   T  T  S   T  T  S    T  T  S    T
|-----------------------------------------------------------------------------------------------|
|-----------------------------------------------------------------------------------------------|
|14p12----12-14p12-14p12-----12-14p12-14p12s11-/12h14p12s11-/12h14p12--12h14p12---12h14p12---12h|
|------14----------------14---------------------------------------------------------------------|
|-----------------------------------------------------------------------------------------------|
|-----------------------------------------------------------------------------------------------|
|
|                                                   PM----------------|
| S     S     E           Q                         S     S      S    S    S     S    S     S
|-----------------------------------------------------------------------------------------------|
|-----------------------------------------------------------------------------------------------|
|10s===12----12S==========9------------------------------------------------9s===10---10s===12---|
|-----------------------------------------------------------------------------------------------|
|-8s===10----10S==========7------------------------------------------------7s====8----8s===10---|
|---------------------------------------------------0-----0------0----0-------------------------|


w/Rhy Fig 2 last bar
                  |----3-----|
   T  T  S  S  S  S     +S   S  S  S  +E     E    E       +S   S
|----------------------------------------------------------------|
|------------------------------------------------15------(15)----|
|-14p12----12-14-14b16r(14)p12----12-(12)\-------14b16r==(14)p12-|
|-------14---------------------14--------------------------------|
|----------------------------------------------------------------|
|----------------------------------------------------------------|
|
|                                      PM------|
|  S     E     S  Q                    S   S S S  S    S   S   S
|----------------------------------------------------------------|
|----------------------------------------------------------------|
|-10-----9-----7--9----------------------------------------------|
|-------------------------------------------------5----5---5---5-|
|--8-----7-----5--7-------------------------------5----5---5---5-|
|--------------------------------------0---0-0-0--3----3---3---3-|


w/Rhy Fig 2A (1st bar) x3
                     ~~
          |---3---|
   E      S  +S   S  Q   E  +E     E    S  S
|--------------------------------------------|
|-----------------------12-(12)\-------------|
|-14b16==14r(14)p12-----12-(12)\-/16---16-16-|
|-------------------14-----------------------|
|--------------------------------------------|
|--------------------------------------------|


                                             ~~~~~~~
               |---------6----------|
   S  S  S  S  S      +S   S  S  S  S  S  S  E  +S   e    S
|-----------------------------------------------------------|
|-15----15-17-17pb19r(17)p15-17p15----15h17-15-(15)-12---12-|
|----16----------------------------16---------------12---12-|
|-----------------------------------------------------------|
|-----------------------------------------------------------|
|-----------------------------------------------------------|


  S  e    S S  e  S  S  S  S  S  S  e    S
|------------------------------------------|
|---12---12---12-------------------12---12-|
|---12---12---12-12-14p12----------12---12-|
|-------------------------14p12-14---------|
|------------------------------------------|
|------------------------------------------|


 2/4                                      4/4
  Gtrs III, IV
  G5   E    E5        Em              Cmaj7/E
  e    E    Q          Q.              E    +W
  |    |    |          |               |     |
  /    o    /          /               /     /

  Gtr V
  S  e    S S  E  S    E   +E       E  E    +Q    E.  S  +Q    E.  S
|-------------------|--------------------|---------------------------:
|---12---12---12----|-12--(12)b12.5---12-|-(12)--12--12-(12)--12--11-:
|---12---12---12----|-12--(12)b12.5-0-12-|-(12)----------------------:
|----------------14-|--------------------|---------------------------:
|-------------------|--------------------|---------------------------:
|-------------------|--------------------|---------------------------:


   +W                W
    |
    /

   +Q    Q  Q  Q    +W
|-----------------:--------*|
|-(11)--11s=8--8--:-(8)----*|
|-----------------:--------*|
|-----------------:--------*|
|-----------------:--------*|
|-----------------:--------*|



x x x x x x x x x x x x x x x x x x x x x x x x x x x x x x x x


10. Prince charming

Gtr I (Eb Ab Db Gb Bb Eb) - 'James Hetfield - Rhythm w/dist'
Gtr II (Eb Ab Db Gb Bb Eb) - 'Kirk Hammett - Rhythm w/dist'
Gtr III (Eb Ab Db Gb Bb Eb) - 'Kirk Hammett - Lead w/dist'

Intro
  Freely approx Q=140
 4/4
  Gtr I
                                           ~~
                                 |-3-|               |-3-|
  Q   E   E  S S Q.     +H.      E E E   E Q.   +Q   E E E
|---------------------:----------------:-------------------:
|---------------------:----------------:-------------------:
|---------------------:----------------:-------------------:
|------------0-0-2----:-(2)------------:-5-----------------:
|----(5)s17\-0-0-2----:-(2)------0h5h7-:---7----(7)--0h5h7-:
|----(5)s17\-0-0-0----:-(0)------------:-------------------:


                                                    E5
                                   Gtr II
  W                  W                H       Q   E E
                                                    |
                                                    /

                       ~~~~~~~~~~~~~~~~~~
  q  q  Q      E E   E Q.   +H       +H       Q.    E
|------------------|---------------|------------------||
|------------------|---------------|------------------||
|-------5b5.5------|---------------|------------------||
|-5--5--5b5.5------|-5-------------|--------/12\------||
|--------------7-5-|---7----(7)----|-(7)----/12\------||
|------------------|---------------|----------------0-||


  A Tempo Q=200
  +H       H             W                      W
   |
   /

                            PM                     PM
  +Q   E E E Q      E   +E  E E E E Q      E   +E  E E E E Q      E
|---------------------|----------------------|----------------------|
|---------------------|----------------------|----------------------|
|---------------------|----------------------|----------------------|
|------------5b5.5----|-------------5b5.5----|-------------5b5.5----|
|------0h5h7----------|-------0h5h7----------|-------0h5h7----------|
|-(0)---------------0-|-(0)-0--------------0-|-(0)-0--------------0-|


                                                                       D5
   H        Q       E E     +W                     +H..                E
                      |      |                      |                  |
                      /      /                      /                  /

      PM                        PM                      PM
  +E  E E E E Q       E     +E  E E E E Q      E   +E   E E E E Q      E
|-----------------------||-----------------------|-----------------------|
|-----------------------||o----------------------|-----------------------|
|-----------------------||-----------------------|-----------------------|
|-------------5b5.5-----||--------------5b5.5----|--------------5b5.5----|
|-------0h5h7-----------||o-------0h5h7----------|--------0h5h7----------|
|-(0)-0---------------0-||--(0)-0--------------0-|-(0)--0--------------0-|
                         |-Riff A

                                        C5
  +W                    +H..            E   +W
   |                     |              |    |
   /                     /              /    /

      PM                                        PM
  +E  E E E E Q  E      +Q    E E E E E E   +E  E E E E Q      E
|---------------------|-------------------|----------------------|
|---------------------|-------------------|----------------------|
|---------------------|-------------------|----------------------|
|-------------5--7b9==|=(7)r--7p5-7p5-----|-------------5b5.5----|
|-------0h5h7---------|---------------7---|-------0h5h7----------|
|-(0)-0---------------|-----------------0-|-(0)-0--------------0-|


                                            1.
                      D5                     G5    A5   E
  +H..                E   +W                 H     Q.   E
   |                  |    |                 |     |    |
   /                  /    /                 /     /    o

       PM                     PM
  +E   E E E E Q      E   +E  E E E Q  E E   q  q  E Q  E
|-----------------------|------------------|---------------||
|-----------------------|------------------|--------------o||
|-----------------------|------------------|---------------||
|--------------5b5.5----|------------------|-5--5--5h7-----||
|--------0h5h7----------|-------0h5h7--5---|-5--5--5h7----o||
|-(0)--0--------------0-|-(0)-0----------7-|------------0--||
                                                end Riff A-|

  2.
  Gtr I
  q  q  E Q  E   +W           +H..       E   +H.      Q     E Q  E Q  Q
|--------------|------------|------------0-|-(0)---------|---------------||
|--------------|------------|------------0-|-(0)---------|---------------||
|--------------|------------|--------------|-------------|---------------||
|-5--5--5h7----|------------|--------------|-------------|----5--5-------||
|-5--5--5h7--2-|-(2)--------|-(2)----------|-------------|-/7------7--5--||
|------------0-|-(0)--------|-(0)----------|-------------|---------------||
|
| Gtr II
| q  q  E Q  E   +W           +W              W             E Q  E Q  Q
|--------------|------------|--------------|-------------|---------------||
|--------------|------------|--------------|-------------|---------------||
|--------------|------------|--------------|-------------|---------------||
|-5--5--5h7----|------------|--------------|--x\---------|----5--5-------||
|-5--5--5h7--2-|-(2)--------|-(2)----------|--x\---------|-/7------7--5--||
|------------0-|-(0)--------|-(0)----------|--x\---------|---------------||


 Verse 1
  Gtrs I, II
     PM|     PM|                       PM|     PM|
  Q  E E E E E E   q  q  Q.   E   +Q   E E E E E E
|----------------|--------------|------------------|
|----------------|--------------|------------------|
|----------------|--------------|------------------|
|--------5-------|-5--5--7------|----------5-------|
|-2------5-7-----|-5--5--7----2-|-(2)------5-7-----|
|-0--0-0---7-0-0-|------------0-|-(0)--0-0---7-0-0-|
|-Rhy Fig 1

                      PM|     PM|
  q  q  E Q  E   +Q   E E E E E E   q  q  Q.   E
|--------------|------------------|--------------|
|--------------|------------------|--------------|
|--------------|------------------|--------------|
|-5--5--5h7----|----------5-------|-5--5--7------|
|-5--5--5h7--2-|-(2)------5-7-----|-5--5--7----2-|
|------------0-|-(0)--0-0---7-0-0-|------------0-|


       PM|     PM|
  +Q   E E E E E E   Q.   E +Q   E E
|------------------|-----------------|
|------------------|-----------------|
|------------------|-----------------|
|----------5-------|-5----6-(6)--7---|
|-(2)------5-7-----|-5----6-(6)--7-2-|
|-(0)--0-0---7-0-0-|---------------0-|
                       end Rhy Fig 1-|

Rhy Fig 1 (1st 7 bars only)


              PM~~~~~~~~ PM|       ~~~
  Q.   E +Q   E E   +Q   E E E E E E
|-----------------|------------------|
|-----------------|------------------|
|---------------5-|-(5)--------5---5-|
|-5----6-(6)------|------7-5-7-------|
|-5----6-(6)--7---|------------------|
|-----------------|------------------|


 ~~~~~ PM--|              PM--|
  +Q   E E E E E E   +Q   E E E E Q      E Q  E Q  Q
|------------------|------------------|---------------||
|------------------|------------------|---------------||
|-(5)--------5---5-|-(5)--------5-----|---------------||
|------7-5-7-------|------7-5-7---7\--|----5--5-------||
|------------------|------------------|-/7------7--5--||
|------------------|------------------|---------------||


   Verses 2, 3 + 4
    $
||--
||o-
||-- Rhy Fig 1
||--
||o-
||--


w/Rhy Fig 1 (1st 6 bars only)
  Gtr II
       PM|   PM--|       PM      PM         PM|   PM--|       PM      PM
  +Q   E E E E E E   E E E E E E E E   +Q   E E E E E E   E E E E E E E E
|------------------|-----------------|------------------|-----------------|
|------------------|-----------------|------------------|-----------------|
|------------------|-----------------|------------------|-----------------|
|----------5-------|---------5h7-----|----------5-------|---------5h7-----|
|-(2)------7-------|-5h7-------------|----------7-------|-5h7-------------|
|-(0)--0-0---0-0-0-|-----0-0-----0-0-|-(0)--0-0---0-0-0-|-----0-0-----0-0-|



       PM|   PM--|         PM|     PM
  +Q   E E E E E E    E  E E E E E E E
|------------------|-------------------|
|------------------|-------------------|
|------------------|-------------------|
|----------5-------|-----------5h7-----|
|------------7-----|--5h=7-------------|
|-(0)--0-0-----0-0-|-------0-0-----0-0-|
|
|      PM|     PM|
| +Q   E E E E E E    q    q   Q.    E
|------------------|-------------------|
|------------------|-------------------|
|------------------|-------------------|
|----------5-------|--5----5---7-------|
|-(2)------5-7-----|--5----5---7-----2-|
|-(0)--0-0---7-0-0-|-----------------0-|
|-substitute on D.S.


       PM|     PM--|                   ~
  +Q   E E  E  E E E    Q.    E +Q   E E
|--------------------|-------------------|
|--------------------|-------------------|
|--------------------|-----------------5-|
|-----------7--------|--5-----6-(6)------|
|-----------5--------|--5-----6-(6)--7---|
|-(0)--0-0-----0-0-0-|-------------------|
|
|      PM|       PM|                   ~
| +Q   E E  E  E E E    Q.    E +Q   E E
|--------------------|-------------------|
|--------------------|-------------------|
|--------------------|-----------------5-|
|-----------5--------|--5-----6-(6)------|
|-(2)-------5--7-----|--5-----6-(6)--7---|
|-(0)--0-0-----7-0-0-|-------------------|
|
|                                      ~
| +Q   E E +Q    E E   +Q   E E +Q   E E
|--------------------|-------------------|
|--------------------|-------------------|
|--------------------|-----------------5-|
|--------------------|-------------------|
|--------------------|-------------------|
|-(0)----0-(0)-----0-|-(0)----0-(0)------|


  Gtrs I, II
   ~~~ PM        ~~~~~~~~ PM--|     ~~~~~~~~ PM--|
  +Q   E E E E E E   +Q   E E E E E E   +Q   E E E E Q      E Q  E Q  E E
|------------------|------------------|------------------|----------------||
|------------------|------------------|------------------|----------------||
|-(5)--------5---5-|-(5)--------5---5-|-(5)--------5-----|----------------||
|------7-5-7-------|------7-5-7-------|------7-5-7---7\--|----5--5--------||
|------------------|------------------|------------------|-/7------7--5-2-||
|------------------|------------------|------------------|--------------0-||


 Chorus
  Gtrs I, II
  E5                     D5                         C5
  +W          +H..       E   +W          +H..       E
   |           |         |    |           |         |
   /           /         /    /           /         /
|-----------|--------------|-----------|--------------|


                         D5              G5   A5   E5
  +W          +H..       E   +W          H    Q.   E
   |           |         |    |          |    |    |
   /           /         /    /          /    /    /
|-----------|--------------|-----------|-------------|


w/Riff A
                                             D5
  +W                     +H..                E
   |                      |                  |
   /                      /                  /
|----------------------|-----------------------|



                                            C5
  +W                       +H..             E
   |                        |               |
   /                        /               /
|-----------------------|---------------------|



                                             D5
  +W                     +H..                E   +W
   |                      |                  |    |
   /                      /                  /    /
|----------------------|-----------------------|------------------|


                            To Coda
  Gtr I
                               PM|
   q   q  E E E E   q  q  E E  E E   Q.    E +Q   E E
|-----------------|----------------|------------------|
|-----------------|----------------|------------------|
|-----------------|----------------|------------------|
|--5---5--5h7-5---|-5--5--5h7------|-5-----6-(6)--7---|
|--5---5--5h7-5-7-|-5--5--5h7------|-5-----6-(6)--7---|
|---------------7-|------------0-0-|----------------0-|
|
| Gtr II
|  H.         E E   q  q  E Q.       Q   Q    Q   E E
|-----------------|----------------|------------------|
|-----------------|----------------|------------------|
|-(7)-------------|----------------|------------------|
|-(7)---------5---|-5--5--5h7------|------------------|
|-(5)---------5-7-|-5--5--5h7------|------------------|
|---------------7-|----------------|-0--------------0-|


  1.
  Riff A (1st 7 bars only)



  Gtr I
            PM
  q  q  E E E E   +W            H     Q.   E
|---------------|------------|--0------------|
|---------------|------------|--------0------|
|---------------|------------|-------------0-|
|-5--5--5h7-----|------------|---------------|
|-5--5--5h7---2-|-(2)--------|---------------|
|-----------0-0-|-(0)--------|---------------|



   \0.5   /
  +Q     +Q   +H        E Q  E Q  Q
|--------------------|----------------||
|--------------------|---------------o||
|-(0)----(0)--(0)----|----------------||
|--------------------|----5--5--------||
|--------------------|-/7------7--5--o||
|--------------------|----------------||


  2.
  E
  Gtrs I, II
  W          +W              +W                 +W
  |           |               |                  |
  o           /               /                  /

  Gtr III
                                            ~~~~~~~~           ~
  W           H    Q  E  E   +Q   E E E E E E   +Q   E E E E E E
|----------|---------------|------------------|------------------|
|----------|---------------|------------------|------------------|
|----------|---------------|------------------|------------------|
|----------|----------2----|------5---5-------|------5---5-------|
|----------|------------/7-|-(7)----7---7-5-7-|-(7)----7---7-5-7-|
|----------|---------------|------------------|------------------|


                                           Guitar Solo
                                      F#5
  +W                 +H..              E     W
   |                  |                |
   /                  /                /

   ~~~           ~~~~~~~~~
  +Q   E E E E E E   +Q.      E  Q.    E    +Q   E E Q   E E
|------------------|---------------------||------------------|
|------------------|---------------------||------------------|
|------------------|---------------------||------------------|
|------5---5-------|---------------------||------4---4-----4-|
|-(7)----7---7-5-7-|-(7)-----------------||------------------|
|------------------|----------xs=x\---/2-||-(2)----2-----2---|
|
| Gtr I                                  Gtrs I, II
|                                                PM|     PM|
| +W                  E   Q.     Q.    E    +Q   E E E E E E
|------------------|---------------------||------------------|
|------------------|---------------------||------------------|
|------------------|-/4---2--------------||----------2-------|
|------------------|------------/9\----4-||-(4)------2-4-----|
|------------------|------------/9\----4-||-(4)--------4-----|
|-(0)--------------|-------------------2-||-(2)--2-2-----2-2-|
                                          |-Rhy Fig 2

  +Q   q  Q.   E    E  Q   E Q   E E   +Q   q  H
|----------------|-------------------|----------------|
|----------------|-------------------|----------------|
|------2--4------|-------------------|------4--2------|
|-(4)-----2------|-----4-----4-----4-|-(4)--4--2------|
|--------------2h|==4----------------|----------------|
|----------------|---------2-----2---|----------------|
|
|                        PM|     PM|
|  q   q  E Q  E   +Q    E E E E E E    q   q  E Q  E
|----------------|-------------------|----------------|
|----------------|-------------------|----------------|
|--2---2--2h4----|-----------2-------|--2---2--2h4----|
|--2---2--2h4--4-|-(4)-------2-4-----|--2---2--2h4--4-|
|--------------4-|-(4)---------4-----|--------------4-|
|--------------2-|-(2)---2-2-----2-2-|--------------2-|
   end Rhy Fig 2-|

w/Rhy Fig 2 x1.5
                            ~~
   Q   Q   E Q   E   Q  E E Q.   E    E  Q   E Q   E E
|------------------|---------------|-------------------|
|------------------|---------------|-------------------|
|----------2-------|--------2------|-------------------|
|------4-----4-----|-4--2---2------|-----4-----4-----4-|
|--4---------------|------4------2h|==4----------------|
|----------------2-|---------------|---------2-----2---|



  +Q   Q    Q.      E   +Q   Q   E Q   E   Q   E E Q.    E    E  Q   E Q   E E
|---------------------|------------------|-----------------|-------------------|
|---------------------|------------------|-----------------|-------------------|
|-----------2---------|------------------|---------2-------|-------------------|
|-(4)-------2-------4-|-(4)--4-----4-----|-4---2---2-------|-----4-----4-----4-|
|------4--------------|------------------|-------4-------2h|==4----------------|
|---------------------|----------2-----2-|-----------------|---------2-----2---|
|
| Gtr II
|                   ~~~~~~~~ PM|   PM--|     PM--|   PM--~~
|  Q.    E +Q   E a E   +Q   E E E E E E   E E E E E E E E
|---------------------|------------------|-----------------|
|---------------------|------------------|-----------------|
|--2-----3-(3)--4-----|----------2-------|-2-------2-------| w/Rhy Fig 2A x2
|--2-----3-(3)--4-2h4-|-(4)--4-4---4-4-4-|---4-4-4---4-4-4-|
|---------------------|------------------|-----------------|
|---------------------|------------------|-----------------|
|                     |-Rhy Fig 2A          end Rhy Fig 2A-|
| Gtr I
|  Q.    E +Q   E   E
|---------------------|
|---------------------|
|--2-----3-(3)--4-----| w/Rhy Fig 2 x3.5
|--2-----3-(3)--4---4-|
|-------------------4-|
|-------------------2-|
|-Rhy Fill 1        --|


  +Q    E E H          E  Q   E Q   E E   +Q    E E Q   E E
|-------------------|-------------------|-------------------|
|-------------------|-------------------|-------------------|
|-----------2-------|-------------------|-----------2-------|
|-(4)-------2-------|-----4-----4-----4-|-(4)-------2-------|
|-------2h4---------|--4----------------|-------2h4-----4p2-|
|-------------------|---------2-----2---|-------------------|



                    |-w/Rhy Fill 1
   E  Q   E Q   E E   +E  E E   +E   Q   Q
|-------------------|---------------------------|
|-------------------|---------------------------|

|-------------------|-----2-4b5r(4)--2----------|
|-----4-----4---2-4-|-(4)-----------------------|
|--4----------------|---------------------------|
|---------2---------|---------------------------|
|
|  ~~~  PM|   PM--|                          ~
| +Q    E E E E E E    Q.        E  +Q   E a E
|-------------------|---------------------------|
|-------------------|---------------------------|
|-----------2-------|--2---------3--(3)--4------|
|-(4)---4-4---4-4-4-|--2---------3--(3)--4-2h4--|
|-------------------|---------------------------|
|-------------------|---------------------------|


w/Rhy Fig 2 + 2A x3
                                  ~~~~~~~~~          ~~~
   Q       +Q      E      +Q      E    +E   E  E  E  Q    E  E
|-----------------------------------|--------------------------|
|-----------------------------------|--------------------------|
|-16b18===(16)r---14b15==(14)r------|--------------------------|
|-----------------------------------|--------------------------|
|--------------------------------16-|-(16)-16-14h16-16---14-16-|
|-----------------------------------|--------------------------|


                                    ~~~~~~~~~          ~~~
   Q       +Q      Q          +E    E    +E   E  E  E  Q    E  E
|-------------------------------------|---------------------------|
|-16b17===(16)r---14b14.5====(14)r----|---------------------------|
|-16b17===(16)r---14b14.5====(14)r----|---------------------------|
|-------------------------------------|---------------------------|
|----------------------------------16-|-(16)-16-14-16-16---14-16--|
|-------------------------------------|---------------------------|


   Q       +Q      Q          +E    E    +Q         +Q      Q          +E    S  S
|-------------------------------------|-------------------------------------------|
|-16b17===(16)r---14b14.5====(14)r-16-|-(16)b17====(16)r---14b14.5====(14)r-------|
|-16b17===(16)r---14b14.5====(14)r-16-|-(16)b17====(16)r---14b14.5====(14)r-16p14h|
|-------------------------------------|-------------------------------------------|
|-------------------------------------|-------------------------------------------|
|-------------------------------------|-------------------------------------------|


   S   S  E  E  E  Q       E  E    E   E  E  E        +Q     E   E
|-------------------------------|-----------------------------------|
|-----------16---------------16-|-16--16-16-14b14.5==(14)r\---------|
|-16p=14----16----14b15------16-|-16--16-16-14b14.5==(14)r\--2/-----|
|--------16----16---------16----|-----------------------------------|
|-------------------------------|--------------------------------7--|
|-------------------------------|-----------------------------------|
|
|  ~~~       PM|        PM---|                                   ~~
| +Q         E  E  E    E  E  E    Q.        E        +Q     E   E
|-------------------------------|-----------------------------------|
|-------------------------------|-----------------------------------|
|------------------2------------|--2---------3--------(3)----4------|
|-(4)--------4--4-------4--4--4-|--2---------3--------(3)----4------|
|-------------------------------|-------------------------------/7--|
|-------------------------------|-----------------------------------|
|
|            PM|           PM|                                   ~~
| +Q         E  E  E    E  E  E    Q.        E        +Q     E   E
|-------------------------------|-----------------------------------|
|-------------------------------|-----------------------------------|
|------------------2------------|--2---------3--------(3)----4------|
|-(4)--------------2----4-------|--2---------3--------(3)----4------|
|-(4)-------------------4-------|-------------------------------/7--|
|-(2)--------2--2----------2--2-|-----------------------------------|


  Gtrs I, II, III
   ~~~           ~~~~~~~~           ~~~~~~~~           ~~~~~~~~             ~
  +Q   E E E E E E   +Q   E E E E E E   +Q   E E E E E E   +Q   E E E E E a E
|------------------|------------------|------------------|--------------------|
|------------------|------------------|------------------|--------------------|
|------------------|------------------|------------------|--------------------|
|------5---5-------|------5---5-------|------5---5-------|------5---5---------|
|-(7)----7---7-5-7-|-(7)----7---7-5-7-|-(7)----7---7-5-7-|-(7)----7---7-5-7s9-|
|------------------|------------------|------------------|--------------------|


   ~~~           ~~~~~~~~           ~~~~~~~~
  +Q   E E E E E E   +Q   E E E E E E   +Q   E E E E Q      E Q  E Q  Q
|------------------|------------------|------------------|-----------------||
|------------------|------------------|------------------|-----------------||
|------------------|------------------|------------------|-----------------||
|------7---7-------|------7---7-------|------7---7-------|----7--7---------||
|-(9)----9---9-7-9-|-(9)----9---9-7-9-|-(9)----9---9-7\--|-/9------9--7\---||
|------------------|------------------|------------------|-----------------||


   Bridge - Half Time Feel
    Gtrs I, II     Gtr II  Gtrs I, II
                             PM  PM|   PM|
    H    Q  Q    H    H      E E E E E E E E
||-------------|-----------|-----------------|
||o------------|-----------|-----------------|
||-------2-----|------2----|-----------------|
||--4----2-----|-4----2----|---4-----3-----2-|
||o-4----------|-4---------|-----------------|
||--2----------|-2---------|-2---2-2---2-2---|


  1.,2.,3.          4.
  Gtr II
  PM|                PM|
  E E q  Q.   E      E E q  H      +H..                   E
|----------------||--------------|--------------------------||
|---------------o||--------------|--------------------------||
|--------5-------||---------5----|-(5)----------------------||
|--------5----4--||---------5----|-(5)----------------------||
|-----4--3----4-o||------4--3----|-(3)--------------------2-||
|-2-2---------2--||--2-2---------|------------------------0-||
|
| Gtr I
| PM|                PM|
| E E q  Q.   E      E E q  H      +Q.     E   E   E   E  E
|----------------||--------------|--------------------------||
|---------------o||--------------|--------------------------||
|--------5-------||---------5----|-(5)----------------------||
|--------5----4--||---------5----|-(5)----------------------||
|-----4--3----4-o||------4--3----|-(3)----------------------||
|-2-2---------2--||--2-2---------|--------<4>-<4>-<4>-<4>-0-||


    Gtr II
    E5                                         D5
    +W                     +H..                E
     |                      |                  |
     /                      /                  /
    Gtr I
        PM                      PM
    +E  E E E E Q      E   +E   E E E E Q      E
||-----------------------|-----------------------|
||o--
||-- w/Riff A (1st 7 bars)
||--
||o-
||--


                                        C5
  +W                    +H..            E
   |                     |              |
   /                     /              /
|---------------------|--------------------|


                                                1.
                                             D5
  +W                     +H..                E   +W
   |                      |                  |    |
   /                      /                  /    /
|----------------------|-----------------------|------------------|



                   2.
                                      D.S. al Coda
  G5    A5   E                         G5    A5   E5
  H     Q.   E      +W                 H     Q.   E
  |     |    |       |                 |     |    |
  /     /    o       /                 /     /    /

                        PM
  q  q  E Q  E      +E  E E E Q  E E   q  q  E Q  E
|---------------||-------------------|--------------||
|--------------o||-------------------|--------------||
|---------------||-------------------|--------------||
|-5--5--5h7-----||-------------------|-5--5--5h7----||
|-5--5--5h7----o||--------0h5h7--5---|-5--5--5h7--2-||
|------------0--||--(0)-0----------7-|------------0-||


  &
  Gtr I            Gtr III
  Q.    E +Q   E E   Q    E  E  E  E E  E   E  E E  E      +Q      E  E
|------------------|----------------------|-----------------------------|
|------------------|----------------------|-----------------------------|
|------------------|----/12-12-12-12---12-|---12---12b13==(12)r---------|
|-5-----6-(6)--7---|----------------------|-----------------------14-12-|
|-5-----6-(6)--7-2-|----------------------|-----------------------------|
|----------------0-|----------------------|-----------------------------|
|
| Gtr II                                           Gtr I          Gtrs I, II
| Q   Q    Q   E E   W                      H               E   E  E  E
|------------------|----------------------|-----------------------------|
|------------------|----------------------|-----------------------------|
|------------------|----------------------|-----------------------------|
|------------------|----------------------|-----------------x---x-------|
|----------------2-|----------------------|-----------------x---x-----2-|
|-0--------------0-|----------------------|-----------------x---x-----0-|


  Gtrs I, II
  +W                   H..             E
   |                   |               |
   /                   /               /

  Gtr III
   ~~~                        ~~~~
            |--3--|
   H.       E  E  E    Q     +H     E  E
|-------------------|--------------------|
|----------------14-|--------------------|
|----------------14-|-12----(12)------12-|
|-14-------12h14----|--------------------|
|-------------------|--------------------|
|-------------------|--------------------|


   +W                            +H..         E
    |                             |           |
    /                             /           /

   +Q   E  E  +Q    +E      E    +H.       E  E
|-----------------------------|-----------------|
|-----------------------------|--------------12-|
|-(12)----14-(14)--(14)b16-12-|-(12)---------12-|
|-----------------------------|-----------------|
|-----------------------------|-----------------|
|-----------------------------|-----------------|


   +H..                   E    +H..          E
    |                     |     |            |
    /                     /     /            /

                          ~~~~~~~~~~
   +H       +Q         E  E    +H.        E  E
|---------------------------|------------------|
|-(12)-----(12)b12.5--------|------------14-12-|
|-(12)-----(12)b12.5--------|------------14-12-|
|---------------------14-14-|-(14)-------------|
|---------------------------|------------------|
|---------------------------|------------------|


   +Q.    E  +Q.    E    +Q.    E  +Q.     E
    |     |   |     |     |     |   |      |
    /     /   /     /     /     /   /      /

   +Q.    E  +Q.    E    +Q.    E  +Q   E  E
|---------------------|-------------------12-----||
|-(12)---14-(14)---15-|-(15)---14-(14)----15b17==||
|-(12)---14-(14)---15-|-(15)---14-(14)-----------||
|---------------------|--------------------------||
|---------------------|--------------------------||
|---------------------|--------------------------||


 Outro Solo
w/Riff A
  Gtr II
   +W
    |
    /
           ~~~~~~~~~~~~~~
   +Q      Q        +E    E      E  E
|-(12)----12-------(12)--12--------12-----|
|-(15)r---15b17====(15)r--------15-15b17==|
|-----------------------------------------|
|-----------------------------------------|
|-----------------------------------------|
|-----------------------------------------|


                            D5/E
   +H..                      E        +W
    |                        |         |
    /                        /         /

   +Q      H              E  E        +E    E  E  E  q    E  E
|-(12)----12-----------------------|--------------------------------|
|-(15)r---15b17-------------15b17==|=(15)r-15-12--------------------|
|----------------------------------|-------------14-12---12-14pb16==|
|----------------------------------|--------------------------------|
|----------------------------------|--------------------------------|
|----------------------------------|--------------------------------|


                          C5/E
   +H..                     E    +W
    |                       |     |
    /                       /     /

                                      ~~~~~~~~~~~~
   +Q     +Q    Q.         +E     E   Q.      +Q         E  E
|------------------------------|------------------------------|
|------------------------------|------------------------------|
|-(14)r==(14)--14pb16r====(14)-|-12---------------------------|
|------------------------------|-----14------(14)-------12h14-|
|------------------------------|------------------------------|
|------------------------------|------------------------------|


                                     D5/E
  +H..                               E
   |                                 |
   /                                 /

   E    E  E  E  +Q             +Q
|--------------------------------------|
|------------14-(14)b15========(14)r---|
|-12------12-14-(14)b16========(14)r---|
|------14------------------------------|
|--------------------------------------|
|--------------------------------------|


  +W
   |
   /

   E   E  E  E      +E    a   +S   S  S  S  E
|---------------------------------------------|
|---------------------------------------------|
|-12-----12-14b16==(14)-(14)r(14)p12h14p12----|
|-----14-----------------------------------14-|
|---------------------------------------------|
|---------------------------------------------|


                              |-w/Riff A (1st 7 bars)
                            E5
  +H..                      E   +W
   |                        |    |
   /                        /    /

              PM    ~~~
   E    E  E  E  a  Q    Q       E  E E E E E      E  E
|-----------------------------|-------------------------|
|-----------------------------|-------------------------|
|-12--------------------------|-------------------[4]---|
|------14-12----12h14---14\---|-----------4h5---------5-|
|------------14---------------|-----5-7-5---------------|
|-----------------------------|-------------------------|


                       D5                                            C5
  +H..                 E   +W                     +H..               E
   |                   |    |                      |                 |
   /                   /    /                      /                 /

                                                   ~~~~              ~
   E   E E E E E     Q      q    q   Q   E E       Q.     E +E E E a E
|------------------------|----------------------|----------------------|
|------------------------|-------5--------------|----------------------|
|------------4-----------|--4-------------------|--------------7---7h9-|
|--------4-5---5---------|---------------4-5----|--7------9-(9)--------|
|--7---5-------------7---|-----------7----------|----------------------|
|------------------------|----------------------|----------------------|


                                                                               D5
  +W                               +H..                                         E
   |                                |                                           |
   /                                /                                           /

   ~~~
                       |---3---|    |----3----|
  +H          Q        E  E    E    E    E    E  E  S  S  S  S  S      S  S  S  S  S
|--------------------------------|---------------------------------------------------|
|-----------/12-------15p12------|-12h==15p==12----12h15p12----12h====15p12----12h15p|
|-(9)-------------------------14-|--------------14----------14--------------14-------|
|--------------------------------|---------------------------------------------------|
|--------------------------------|---------------------------------------------------|
|--------------------------------|---------------------------------------------------|


  +W
   |
   /

                                        |---3---|
   E   S  S  +S  S  S  S  +S   S  S  S  E  E    E
|---------------------------------------------------|
|-12--15p12-(12)12h15p12-(12)-15p12-12-15p12--------|
|----------------------------------------------14---|
|---------------------------------------------------|
|---------------------------------------------------|
|---------------------------------------------------|



                                       E5
   H                      Q.            E
   |                      |             |
   /                      /             /

                  ~~~~~~~~~~~
   S  S  S  S  E  E      +E  +E     E   E
|-----------------------------------------|
|-12h15p12----12-15b17==(15)(15)r\--------|
|----------14----------------------(7)s14-|
|-----------------------------------------|
|-----------------------------------------|
|-----------------------------------------|
|
|
|  q           q          E   Q         E
|-----------------------------------------|
|-----------------------------------------|
|-----------------------------------------|
|--5-----------5----------5h==7-----------|
|--5-----------5----------5h==7---------2-|
|---------------------------------------0-|

w/Rhy Fig 1 (1st 6 bars)
   W                                   W
   Q        E    E      +Q     E  E    E  +S   S  S  S  E  E   E  E  E
|-----------------------------------|-----------------------------------|
|----------15---15-----(15)---15----|-----------------------------------|
|-14b16===(14)r-14b15==(14)------14-|-14r(14)p12h14p12----12--14-12-----|
|-----------------------------------|------------------14---------------|
|-----------------------------------|-------------------------------14s=|
|-----------------------------------|-----------------------------------|



                                                    ~~
   Q    E  E  E  E E  E    +Q        +E    E  E  E  Q
|---------------12------|-----------------14------------|
|------12----15-12---14-|-(14)b15===(14)r-14-14-12------|
|------12-12-14------14-|-(14)b16===(14)r----14-12------|
|-----------------------|--------------------------14---|
|--9/-------------------|-------------------------------|
|-----------------------|-------------------------------|



   +Q     E  E  E  E E  E   E  E E  E  E   E  E  E
|-------------------------|------------------------|
|--------12-12-12-12---14-|---14------12--------14-|
|--------12-12-12-12---14-|---14---12--------12-14-|
|-(14)\-------------------|---------------14-------|
|-------------------------|------------------------|
|-------------------------|------------------------|



   E     +E   E  E  E   Q       E    S   S  E  E  E  E  Q   E
|------------------------------12-|---------------------------|
|-14b15r(14)-12----------------12-|-15p=12--------------------|
|-14b15r(14)-12----12--14b16------|--------14-12----12--------|
|---------------14----------------|--------------14----14s==6-|
|---------------------------------|---------------------------|
|---------------------------------|---------------------------|
|
|         PM-|          PM---|              PM--------------|
| +E      E   E  E +E   E    E  E   +E      E  E  E  E  E E E
|---------------------------------|---------------------------|
|---------------------------------|---------------------------|
|---------------------------------|---------------------------|
|---------------------------------|---------------------------|
|-(2)-----2---2--2-(2)--2----2--2-|-(2)-----2--2--2--2--2-2-2-|
|-(0)-----0---0--0-(0)--0----0--0-|-(0)-----0--0--0--0--0-0-0-|

w/Rhy Fig 1 (1st 5 bars)
    S   S  S  S  E  S  S  S  S  E  S  S  S  S
|---------------------------------------------|
|---------------------------------------------|
|---------------------------------------------|
|---------------14-------------14-------------|
|---------------------------------------------|
|-/12--12-12-12----12-12-12-12----12-12-12-12-|



   E  E E  E  +E   E  E  E    S   S  S  S  E  S  S  S  S  E  S  S  S  S
|--------------------------|--------------------------------------------|
|--------------------------|--------------------------------------------|
|-----------------14-12----|--------------------------------------------|
|-14-14---12-(12)----------|--------------14-------------14-------------|
|-----------------------14-|--------------------------------------------|
|---------10-(10)----------|-12--12-12-12----12-12-12-12----12-12-12-12-|


   E  E Q   E  E  E  E    S   S  S  S  Q    E  Q   E
|----------------------|------------------------------|
|----------------------|------------------------------|
|----------12-14-------|------------------------------|
|-14-14-------14-12----|--------------14---12-14------|
|-------------------14-|------------------------------|
|----------------------|-12--12-12-12-----------------|



   TP              TP
   W               W
|---------------|------------------|
|-17s===========|=12s==============|
|---------------|------------------|
|---------------|------------------|
|---------------|------------------|
|---------------|------------------|
|
|                      PM  PM|   PM-
|  q  q  Q.   E   +Q   E E E E E E
|---------------|------------------|
|---------------|------------------|
|---------------|------------------|
|--5--5--7------|------------------|
|--5--5--7----2-|-(2)--2-2-2-2-2-2-|
|-------------0-|-(0)--0-0-0-0-0-0-|


  TP                                           ~~
  H..             E   +W            H..        E
|-------------------|------------|---------------|
|-5s==============0-|-(0)--------|--0------------|
|-------------------|------------|---------------|
|-------------------|------------|---------------|
|-------------------|------------|------------/7-|
|-------------------|------------|---------------|
|
|-|     PM|   PM|                              ~~
| E   E E E E E E E   +W           +H..        E
|-------------------|------------|---------------|
|-------------------|------------|---------------|
|-------------------|------------|---------------|
|-------------------|------------|---------------|
|-2---2-2-2-2-2-2-2-|-(2)--------|-(2)--------/7-|
|-0---0-0-0-0-0-0-0-|-(0)--------|-(0)-----------|


  Gtrs I, II
   ~~~           ~~~~~~~~           ~~~
  +Q   E E E E E E   +Q   E E E E E E
|------------------|------------------|
|------------------|------------------|
|------------------|------------------|
|------5---5-------|------5---5-------|
|-(7)----7---7-5-7-|-(7)----7---7-5-7-|
|------------------|------------------|


                                Gtrs I, II, III
 ~~~~~
  +Q   E E E E Q      H      Q  E  E    +H      +H
|------------------|-----------------|------------------*|
|------------------|-----------------|------------------*|
|------------------|--------------12-|-(12)----(12)\----*|
|------5---5-------|----5--5------12-|-(12)----(12)\----*|
|-(7)----7---7-5\--|-/7------7--5--2-|--(2)-------------*|
|------------------|---------------0-|--(0)-------------*|
                      E Q  E Q  E  E    +H       H


x x x x x x x x x x x x x x x x x x x x x x x x x x x x x x x x


11. Low man's lyric

tr I (Eb Ab Db Gb Bb Eb) - 'James Hetfield - Rhythm clean electric w/chorus'
Gtr II (Eb Ab Db Gb Bb Eb) - 'Accordian arr. for Gtr.'
Gtr III (Eb Ab Db Gb Bb Eb) - 'Kirk Hammett - Rythm steel string acoustic'
Gtr IV (Eb Ab Db Gb Bb Eb) - 'Kirk hammett - Lead /Rhythm w/light dist'
Gtr V (Eb Ab Db Gb Bb Eb) - 'James Hetfield - Rhythm w/dist'

Intro
  Q=132
 3/4
  Gtr I
  W        W         H    +E  E   E Q.   Q    H    E E
|--------|--------||------------|-0---------|-----------|
|--------|--------||------------|---2-------|-----------|
|--------|--------||------------|--------2--|-----------|
|--------|--------||----------2-|-----------|-----------|
|--------|--------||-0----(0)---|-----------|--------2--|
|--------|--------||------------|-----------|-3----3----|
                   |-Rhy Fig 1

  E Q.   Q    H    E E   E Q.   Q    Q  Q  Q    Q  Q  Q
|-0---------|----------|-0---------|----0-----|----0-----|
|---3-------|----------|---3-------|-------0--|-------0--|
|--------0--|-2------2-|--------2--|----------|----------|
|-----------|-0----0---|-----------|----------|----------|
|-----------|----------|-----------|----------|----------|
|-----------|----------|-----------|-0--------|-3--------|
                                           end Rhy Fig 1-|

w/Rhy Fig 1
  Gtr II
   H     E  E    Q    Q   Q    H    E E    Q    Q  Q
|--------7--9-|-10----9------|------7-9-|-10----9--7--|
|-10----------|----------10--|-8--------|-------------|
|-------------|--------------|----------|-------------|
|-------------|--------------|----------|-------------|
|-------------|--------------|----------|-------------|
|-------------|--------------|----------|-------------|
|-Riff A


   H    E E    Q    Q   Q    H     E E    Q  Q   Q
|-------7-9-|-10----9--10--|-7-----7-9-|-10--9------||
|-10--------|--------------|-----------|--------10--||
|-----------|--------------|-----------|------------||
|-----------|--------------|-----------|------------||
|-----------|--------------|-----------|------------||
|-----------|--------------|-----------|------------||
                                         end Riff A-|


   Verse 1
Rhy Fig 1 + Riff A x2

w/Riff A x2
     H    E E    E E E E  E E   Q  Q  E E    H     E E
||------------|---------------|-------3s5-|--3-------3-|
||o-----------|--3p2--------2-|-------3s5-|--3---------|
||----------2-|------2----2---|-----------|--------0---|
||--------2---|--------2------|-----------|------------|
||o--0--------|---------------|----2------|------------|
||------------|---------------|-3---------|------------|
 |-Rhy Fig 1A


   H    E E    E E Q   Q    Q  Q.    E    Q  Q   E E
|-----------|--3p2--------|----0-----0-|-----3---3-3--||
|-----------|------3------|----0-----0-|-----3---3-3-o||
|-----------|----------2--|----1-------|-----0---0-0--||
|--0----0-0-|-------------|----2-------|-----0--------||
|-----------|-------------|------------|-------------o||
|-----------|-------------|-0----------|--3-----------||
                                       end Rhy Fig 1A-|


   Chorus
    Gtr I
 |-Rhy Fig 2
    Am                    Em
    H.         Q   H      Q   E E Q     Q   E E Q
    |          |   |      |   | | |     |   | | |
    /          /   /      /   / / /     /   / / /

    Gtr III
    H.        +H.         H.           +H.
||--0-------|-(0)-------|-0----------|-(0)----------|
||o-1-------|-(1)-------|-0----------|-(0)----------|
||--2-------|-(2)-------|-0----------|-(0)----------|
||--2-------|-(2)-------|-2----------|-(2)----------|
||o-0-------|-(0)-------|-2----------|-(2)----------|
||----------|-----------|-0----------|-(0)----------|


  Am                      Em                E G A C
  H.         Q   E E Q    Q   E E Q     Q   E E E E
  |          |   | | |    |   | | |     |   | | | |
  /          /   / / /    /   / / /     /   o o o o

  H.        +H.           H.           +H.
|-0-------|-(0)---------|-0----------|-(0)----------|
|-1-------|-(1)---------|-0----------|-(0)----------|
|-2-------|-(2)---------|-0----------|-(0)----------|
|-2-------|-(2)---------|-2----------|-(2)----------|
|-0-------|-(0)---------|-2----------|-(2)----------|
|---------|-------------|-0----------|-(0)----------|


  A   Am                   G
  Q   Q  Q     Q   Q  Q    Q   E E Q     Q   E E Q
  |   |  |     |   |  |    |   | | |     |   | | |
  o   /  /     /   /  /    /   / / /     /   / / /

  H.          +H.          H.           +H.
|-0---------|-(0)--------|-3----------|-(3)---------|
|-1---------|-(1)--------|-3----------|-(3)---------|
|-2---------|-(2)--------|-0----------|-(0)---------|
|-2---------|-(2)--------|-0----------|-(0)---------|
|-0---------|-(0)--------|-2----------|-(2)---------|
|-----------|------------|-3----------|-(3)---------|


                                       end Rhy Fig 2-|
  Cadd9                      B5
  Q   E E Q     Q   E E Q    Q   Q  Q     Q   Q  Q
  |   | | |     |   | | |    |   |  |     |   |  |
  /   / / /     /   / / /    /   /  /     /   /  /

  H.           +H.           H.          +H.
|-3----------|-(3)---------|-----------|-------------||
|-3----------|-(3)---------|-----------|------------o||
|-0----------|-(0)---------|-4---------|-(4)---------||
|-2----------|-(2)---------|-4---------|-(4)---------||
|-3----------|-(3)---------|-2---------|-(2)--------o||
|------------|-------------|-----------|-------------||


Rhy Fig 2 (1st 14 bars)

|-Rhy Fig 3
  B5                                  A B C A
  Gtrs I, III
  Q  Q  Q    Q  Q  Q    Q  Q  Q    Q  E E E E
  |  |  |    |  |  |    |  |  |    |  | | | |
  /  /  /    /  /  /    /  /  /    /  o o o o
|----------|----------|----------|------------|


  Gtr I
  B  B5                             end Rhy Fig 3-|
  Q  Q  Q    Q  Q  Q     Q   Q   Q     Q   Q   Q
  |  |  |    |  |  |     |   |   |     |   |   |
  o  /  /    /  /  /     /   /   /     /   /   /

  Gtr III
  Q  Q  Q    Q  Q  Q     Q   Q   Q     Q   Q   Q
|----------|----------|-------------|-------------||
|----------|----------|-------------|-------------||
|-4--4--4S=|=8--8--8S=|=11--11--11--|-12--12--12--||
|----------|----------|-------------|-------------||
|-2--2--2S=|=6--6--6S=|==9---9---9--|-10--10--10--||
|----------|----------|-------------|-------------||
|-Riff B                               end Riff B-|

   Verse 2
w/Rhy Fig 1 + Riff A
    Gtr III
|-Rhy Fig 1B
    A                            G
     Q  Q  Q      Q   E E  Q     Q  Q  Q      Q  E E Q
     |  |  |      |   | |  |     |  |  |      |  | | |
     /  /  /      /   / /  /     /  /  /      /  / / /
|-------------|---------------|-----------|-------------|


                                           end Rhy Fig 1B-|
  D                          E             G
   Q  Q  Q      Q   Q   Q    H.             H.
   |  |  |      |   |   |    |              |
   /  /  /      /   /   /    /              /
|------------|-------------|-------------|---------------|


Rhy Fig 1 + 1B + Riff A

   Chorus
    $
w/Rhy Fig 2
    Gtr III
    Q   Q  Q     H.         Q  Q   Q    H.
||------------|--0--------|-----------|-0-----------|
||o-----------|--1--------|-----------|-0-----------|
||---------2--|-----------|--------0--|-------------|
||------2-----|-----------|----2------|-------------|
||o-0---------|-----------|-0---------|-------------|
||------------|-----------|-----------|-------------|
||-Rhy Fig 2A
|
|   Gtr IV on D.S. only
|   H.          +H.         W           W
||------------|-----------|-----------|-------------|
||o-----------|-----------|-----------|-------------|
||--2---------|-(2)-------|-----------|-------------|
||--2---------|-(2)-------|-----------|-------------|
||o-0---------|-(0)-------|-----------|-------------|
||------------|-----------|-----------|-------------|



  Q   Q  Q    H.           Q  Q   Q    Q  E E E E
|-----------|-0----------|-----------|-0----------|
|-----------|-1----------|-----------|-0----------|
|--------2--|------------|--------0--|-0----------|
|-----2-----|------------|----2------|------------|
|-0---------|------------|-0---------|--------0-3-|
|-----------|------------|-----------|----0-3-----|



  Q  Q  Q    H.          Q  Q   Q    H.
|----------|-0---------|-----------|-3----------|
|----------|-1---------|-----------|-3----------|
|-------2--|-----------|-----------|-0----------|
|----2-----|-----------|--------0--|------------|
|-0--------|-----------|----2------|------------|
|----------|-----------|-3---------|------------|


                          1.
  Q  Q   Q    H.           Q  Q  Q    Q  Q  Q
|-----------|-0----------|----------|-----------||
|-----------|-0----------|----------|----------o||
|--------0--|------------|-4--4--4--|-4--4--4---||
|----2------|------------|-4--4--4--|-4--4--4---||
|-3---------|------------|-2--2--2--|-2--2--2--o||
|-----------|------------|----------|-----------||
                                 end Rhy Fig 2A-|


  2.
  Rhy Fig 3 and Riff B



 Interlude
w/Rhy Fig 1A + Riff A x2
  Gtr IV
   ~~~                                               ~~~
   Q.   E E E   a  Q   Q    Q     Q.    +E   E  E    H.
|-------------|-----------------|-----------------|-------------|
|-------------|-----------------|------------8s10s|==8----------|
|---------6---|-6h=7---6--------|-4-----(4)/-7s=9s|==7----------|
|-/7----7---7-|--------7----7S==|=5-----(5)/------|-------------|
|-------------|-----------------|-----------------|-------------|
|-------------|-----------------|-----------------|-------------|



    Q.    E  E  E    a  Q    Q   Q     E  E  E   E  E  E    E  E  E  E  E  E
|-----------------|-----------------|--------------------|-------------------|
|-----------------|-----------------|--------------------|-------------------|
|-----------11----|-11h12---11------|-------13-----14----|-16----14----13h14-|
|-/12----12----12-|-------------12--|-14-14-----14----14-|----14----14-------|
|-----------------|-----------------|--------------------|-------------------|
|-----------------|-----------------|--------------------|-------------------|



                                                             ~~~
   a  Q   +E    E E E   a  Q   Q    Q     Q.    +E   E  E    H.
|---------------------|-----------------|-----------------|-------------|
|---------------------|-----------------|------------8s10s|==8----------|
|-12h14--(14)\----6---|-6h=7---6--------|-4-----(4)/-7s=9s|==7----------|
|----14--(14)\-/7---7-|--------7----7S==|=5-----(5)/------|-------------|
|---------------------|-----------------|-----------------|-------------|
|---------------------|-----------------|-----------------|-------------|




    Q.    E  E  E    a  Q    Q   Q     E  E  E   E  E  E    E  E  E  E  Q
|-----------------|-----------------|--------------------|--------------------||
|-----------------|-----------------|--------------------|--------------------||
|-----------11----|-11h12---11------|-------13-----14----|-16----14----13\----||
|-/12----12----12-|-------------12--|-14-14-----14----14-|----14----14--------||
|-----------------|-----------------|--------------------|--------------------||
|-----------------|-----------------|--------------------|--------------------||


|-Miss out ou D.S.                                            --|
    Gtr V
|-Rhy Fig 4A                                     end Rhy Fig 4A-|
    A5  G           A5  F#          F5
    q   q    q      q   q    q      q   q    q      q   q  q
    |   |    |      |   |    |      |   |    |      |   |  |
    /   o    /      /   o    /      /   /    /      /   /  /

    Gtr I
    E E E E +E  E   E E E E +E  E   E E E E +E  E   E E Q  E E
||----------------|---------------|---------------|-------------||
||o-------1-(1)---|-------0-(0)---|---------------|---0--------o||
||------2-------2-|-----2-------2-|-------2-(2)-0h|=2---2--2-0--||
||----2-----------|---2-----------|-----3---------|-------------||
||o-0-------------|-0-------------|---3-----------|------------o||
||----------------|---------------|-1-------------|-------------||
||-Rhy Fig 4                                      end Rhy Fig 4-|
|
|   Gtr IV
|       ~               ~                               ~
|   Q   H           Q   H           H       +E  E   E E H
||----------------|---------------|---------------|-------------||
||o---------------|---------------|---------------|---0--------o||
||--2-------------|-2-------------|-------------0h|=2---2-------||
||--2-------------|-2-------------|-3-------(3)---|-------------||
||o-0-------------|-0-------------|-3-------(3)---|------------o||
||------3---------|-----2---------|-1-------(1)---|-------------||
 |-Rhy Fig 5                                      end Rhy Fig 5-|


   Bridge
Rhy Fig 4 + 4A + 5 x2

w/Rhy Fig 4 + 4A x2                                                 To Coda
        ~                                                    ~
    Q   H           Q   E    +E  +Q      H       +E  E   E E H
||----------------|--------------------|---------------|-------------||
||o---------------|--------------------|---------------|---0--------o||
||--2-------------|-2------------------|-------------0h|=2---2-------||
||--2-------------|-2------------------|-3-------(3)---|-------------||
||o-0---3---------|-0---5b6==(5)r(5)---|-3-------(3)---|------------o||
||----------------|--------------------|-1-------(1)---|-------------||


  Gtrs I, V
|-Rhy Fill 1A                        end Rhy Fill 1A-|
  E5
  Q   Q  Q     Q   Q  Q     Q   Q  Q     Q   Q  Q
  |   |  |     |   |  |     |   |  |     |   |  |
  /   /  /     /   /  /     /   /  /     /   /  /

  Gtr IV
  H.          +H.          +H.          +H.
|-----------|------------|------------|-------------||
|-----------|------------|------------|-------------||
|-----------|------------|------------|-------------||
|-2---------|-(2)--------|-(2)--------|-(2)---------||
|-2---------|-(2)--------|-(2)--------|-(2)---------||
|-0---------|-(0)--------|-(0)--------|-(0)---------||
|-Rhy Fill 1                         end Rhy Fill 1-|

 Verse 3
w/Riff A x2 + Rhy Fig 1A (1st 4 bars)
  Gtr IV
   H    Q      Q   Q    Q     Q  Q  E E    Q   Q   Q
|-----------|---------------|-3--3------|--------------|
|--2--------|---------------|-3--3------|-/7--/7-------|
|--2----2---|--2---2----2---|-0--0------|-/7--/7--/7---|
|--2----2---|--2---2----2---|-0---------|--------------|
|--0----0---|--0---0----0---|-2---------|--------------|
|-----------|---------------|-3-----3s5-|--------------|



      ~
   Q  H        +H      +Q      E Q.   Q      E Q.     Q
|------------|---------------|---0----0---|----3------3--|
|------------|---------------|---0----0---|----3------3--|
|-/7--7------|-(7)-----(7)\--|---1----1---|----0------0--|
|------------|---------------|---2----2---|----0------0--|
|------------|---------------|---2----2---|----2------2--|
|------------|---------------|---0----0---|----3------3--|
|
|  H     E E    E E Q   Q      E Q.   Q      E Q.     Q
|------------|--3p2----------|---0----0---|----3------3--|
|------------|------3--------|---0----0---|----3------3--|
|------------|----------2----|---1----1---|----0------0--|
|--0-----0-0-|---------------|---2----2---|----0------0--|
|------------|---------------|---2----2---|----2------2--|
|------------|---------------|---0----0---|----3------3--|
                             |-Rhy Fill 2               --|

w/Rhy Fig 1 A (1st 6 bars)
   H.           Q   Q    Q     Q  Q  E E    H     Q
|------------|---------------|-3--3------|------------|
|--2---------|---------------|-3--3--5---|--3---------|
|--2---------|--2---2----2---|-0--0--4s5-|--4---------|
|--2---------|--2---2----2---|-0---------|------------|
|--0---------|--0---0----0---|-2---------|------------|
|------------|---------------|-3---------|------------|



                                          D.S. al Coda
   H.          +H.           E Q.   Q      E Q.     Q
|------------|-------------|---0----0---|----3------3--||
|--3---------|-(3)---------|---0----0---|----3------3--||
|--2---------|-(2)---------|---1----1---|----0------0--||
|--0---------|-(0)---------|---2----2---|----0------0--||
|------------|-------------|---2----2---|----2------2--||
|------------|-------------|---0----0---|----3------3--||
                           |-w/Rhy Fill 2



&
Rhy Fill 1 + 1A


   Outro
 Rhy Fig 1 + Riff A x2

w/Riff A x2
                PM----------|            PM----|
   H.           Q  Q   Q    Q  Q  Q      Q  Q  Q
|------------|-10--9------|-----------|-10--9--7--|
|------------|--------10--|-8---------|-----------|
|------------|------------|-----------|-----------|
|------------|------------|-----------|-----------|
|--0---------|------------|-----------|-----------|
|------------|------------|-----------|-----------|


   PM           PM----------|            PM----|
   Q  Q  Q      Q  Q   Q    Q  Q  Q      Q  Q  Q
|-10---------|-10--9--10--|-7---------|-10--9--7--|
|------------|------------|-----------|-----------|
|------------|------------|-----------|-----------|
|------------|------------|-----------|-----------|
|------------|------------|-----------|-----------|
|------------|------------|-----------|-----------|


                PM----------|            PM----|
   Q  Q  Q      Q  Q   Q    Q  Q  Q      Q  Q  Q
|------------|-10--9------|-----------|-10--9--7--|
|-10---------|--------10--|-8---------|-----------|
|------------|------------|-----------|-----------|
|------------|------------|-----------|-----------|
|------------|------------|-----------|-----------|
|------------|------------|-----------|-----------|


   PM           PM----------|            PM----|
   Q  Q  Q      Q  Q   Q    Q  Q  Q      Q  Q  Q
|-10---------|-10--9--10--|-7---------|-10--9--7--|
|------------|------------|-----------|-----------|
|------------|------------|-----------|-----------|
|------------|------------|-----------|-----------|
|------------|------------|-----------|-----------|
|------------|------------|-----------|-----------|


    Gtr II
     H    E E    Q  Q   Q    H    E E    Q  Q  Q     H    E E
||--------7-9-|-10--9------|------7-9-|-10--9--7--|-------7-9--|
||o-10--------|--------10--|-8--------|-----------|-10---------|
||------------|------------|----------|-----------|------------|
||------------|------------|----------|-----------|------------|
||o-----------|------------|----------|-----------|------------|
||------------|------------|----------|-----------|------------|


              1.,2.                     3.
   Q  Q   Q    H    E E    Q  Q  Q       H.        +Q   Q  Q
|-10--9--10--|-7----7-9-|-10--9--7---||--7-------|-(7)---------*|
|------------|----------|-----------o||----------|-------------*|
|------------|----------|------------||----------|-------------*|
|------------|----------|------------||----------|-------------*|
|------------|----------|-----------o||----------|-------------*|
|------------|----------|------------||----------|-------------*|


x x x x x x x x x x x x x x x x x x x x x x x x x x x x x x x x x x x


12. Attitude

Transcribed by www.mikesguitarsite.co.uk

Words and Music by James Hetfield & Lars Ulrich

E5       0 2 x x x x
A5       5 7 7 x x x
G5       3 5 5 x x x
E5VII    x 7 9 9 x x
B5       x 2 4 4 x x
C5       x 3 5 5 x x
D5       x 5 7 7 x x


Gtr I (Eb Ab Db Gb Bb Eb) - 'James Hetfield - Rhythm w/dist'
Gtr II (Eb Ab Db Gb Bb Eb) - 'Kirk Hammett - Rhythm w/dist'
Gtr III (Eb Ab Db Gb Bb Eb) - 'Kirk Hammett - Lead / Rhythm w/dist'

Intro
  Freely approx Q=160                         A Tempo Q=160
 4/4
  Gtr I                                       Gtrs I, II
                           ~~~~~~~~~            PM             ~~
   E      +Q   a +E  E E E Q    +H.       Q     E E E E E E E  E
|-------|---------------------|---------------|------------------|
|-------|---------------------|---------------|------------------|
|-/7b9==|=(7)--7r(7)-5-7-5----|---------------|------------------|
|-------|------------------7--|-(7)-----------|---5---5---5---/7-|
|-------|---------------------|----------12\--|---5---5---5---/7-|
|-------|---------------------|----------12\--|-0-3---3---3---/5-|


  Gtr II
  +W           +W                     +W
|------------|----------------------|---------------------|
|------------|----------------------|---------------------|
|------------|----------------------|---------------------|
|-(7)--------|-(7)------------------|-(7)-----------------|
|-(7)--------|-(7)------------------|-(7)-----------------|
|-(5)--------|-(5)------------------|-(5)-----------------|
|            |-Rhy Fill 1
| Gtr I
|  ~~~~~~~~~~~~~~~~~~~~~~~                             ~
| +W           +H     +E  E E  E      +Q   a +E  E E E Q
|------------|----------------------|---------------------|
|------------|----------------------|---------------------|
|------------|----------------/7b9==|=(7)--7r(7)-5-7-5----|
|-(7)--------|-(7)----(7)-----------|------------------7--|
|-(7)--------|-(7)----(7)-5s0-------|---------------------|
|-(5)--------|-(5)----(5)-----------|---------------------|


  +W                  +H..                E      +Q   a +E  E E E E E
|-------------------|--------------------------|-----------------------||
|-------------------|--------------------------|-----------------------||
|-------------------|---------------------7b9==|=(7)--7r(7)-5-7-5---9--||
|-(7)---------------|-(7)----------------------|------------------7-9--||
|-(7)---------------|-(7)----------------------|--------------------7--||
|-(5)---------------|-(5)----------------------|-----------------------||
|                                                       end Rhy Fill 1-|
|  ~~~
| +H.      E   E      +Q    a +E  E E E E E      +Q   a +E  E E E E E
|-------------------|--------------------------|-----------------------||
|-------------------|--------------------------|-----------------------||
|-------------------|---------------------7b9==|=(7)--7r(7)-5-7-5---9--||
|-(7)------5\-/7b9==|=(7)---7r(7)-5-7-5--------|------------------7-9--||
|-------------------|-------------------7------|--------------------7--||
|-------------------|--------------------------|-----------------------||


    Gtrs I, II
          PM|                 PM|
    +Q    E E E E E E   +Q    E E E E E E
||--------------------|-------------------|
||o-------------------|-------------------|
||--(9)\------------9-|-(9)\------------9-|
||--(9)\------4-5-5-9-|-(9)\------4-5-5-9-|
||o-(7)\------5-5-5-7-|-(7)\------5-5-5-7-|
||--------0-0---------|-------0-0---------|
 |-Rhy Fig 1

        PM|                   PM
  +Q    E E E E E E   +E  E E E E E E E
|-------------------|--------------------||
|-------------------|-------------------o||
|-(9)\--------------|-------------7---9--||
|-(9)\------4-5-5-5-|-(5)-7-7---7-7---9--||
|-(7)\------5-5-5-5-|-(5)-7-7---7-5---7-o||
|-------0-0-------3-|-(3)-5-5-0-5--------||
                           end Rhy Fig 1-|

w/Rhy Fig 1 x2
  Gtr III
   H         E  E  E  E    +Q    Q    E  E  E  E
|-----------------------|------------------------|
|-----------15-15-15-12-|-(12)\------15-15-15-12-|
|-----------14-12-14-12-|-(12)\------14-12-14-12-|
|-----------------------|------------------------|
|-----------------------|------------------------|
|-----------------------|------------------------|



   +Q    Q    E  E  E  E    +E   E  E  E  S  S  E E  E
|------------------------|--------------------------12-|
|-(12)\------15-15-15-12-|-(12)-14-14---------------12-|
|-(12)\------14-12-14-12-|-(12)-14-14-12-14-14-14------|
|------------------------|-----------------------------|
|------------------------|-----------------------------|
|------------------------|-----------------------------|



   +Q    Q    E  E  E  E    +Q    Q    E  E  E  E
|-(12)\------------------|------------------------|
|-(12)\------15-15-15-12-|-(12)\------15-15-15-12-|
|------------14-12-14-12-|-(12)\------14-12-14-12-|
|------------------------|------------------------|
|------------------------|------------------------|
|------------------------|------------------------|
|-Fill 1


   +Q    Q    E  E  E  E    +E   E  E  E  S  S  E E  E
|------------------------|--------------------------12-|
|-(12)\------15-15-15-12-|-(12)-14-14---------------12-|
|-(12)\------14-12-14-12-|-(12)-14-14-12-14-14-14------|
|------------------------|-----------------------------|
|------------------------|-----------------------------|
|------------------------|-----------------------------|



                                         Verses 1 + 2
  E5VII                                        E5
  Gtr II
    W                  +W                 +Q   q  Q  E E
    |                   |                  |   |  |  | |
    /                   /                  /   /  /  / /

  Gtr III
                 TP     TP
   +H.           Q      W                  W
|-(12)---------------|----------------||-----------------|
|-(12)----------12s==|==8\------------||o----------------|
|--------------------|----------------||-----------------|
|--------------------|----------------||-----------------|
|--------------------|----------------||o----------------|
|--------------------|----------------||-----------------|
|                          end Fill 1-|
| Gtr I
|                       TP      PM--|                PM|
|  +H     +E  E  E E    H     E E E E      E E q  Q  E E
|--------------------|----------------||-----------------|
|--------------------|----------------||o----------------|
|--(9)----(9)--------|----------------||-----------------|
|--(9)----(9)--------|----------------||-----------------|
|--(7)----(7)-7--7S6-|--6\----2-------||o--1---2--2------|
|--------------------|----------0-0-3-||-----3-0--0--0-0-|
|-Rhy Fill 2           end Rhy Fill 2-||-Rhy Fig 2


  Gtr II
  A5     G5                 E5          G5    A5
   E E E E +H          +Q   q  Q  E E   E E E E +H
   | | | |  |           |   |  |  | |   | | | |  |
   / / / /  /           /   /  /  / /   / / / /  /

  Gtr I
               PM--|              PM|               PM--|
   E E E E +E  E E E    E E q  Q  E E   E E E E +E  E E E
|--------------------|----------------|-------------------|
|--------------------|----------------|-------------------|
|--------------------|----------------|-------------------|
|-/7-7-7-5-(5)-------|----------------|-5-5-5-7-(7)-------|
|--------------------|--1---2--2------|-------------------|
|-/5-5-5-3-(3)-0-0-3-|----3-0--0--0-0-|-3-3-3-5-(5)-0-0-3-|
                                            end Rhy Fig 2-|

       E5          A5     G5                  E5
  +Q   q  Q  E E    E E E E +H          +Q    q  Q  E E
   |   |  |  | |    | | | |  |           |    |  |    |
   /   /  /  / /    / / / /  /           /    /  /    /

             PM|                PM--|
   E E q  Q  E E    E E E E +E  E E E    E  E q  Q  E E
|----------------|--------------------|-----------------|
|----------------|--------------------|-----------------|
|----------------|--------------------|-----------------|
|----------------|-/7-7-7-5-(5)-------|-----------------|
|--1---2--2------|--------------------|--1----2--2----2-|
|----3-0--0--0-0-|-/5-5-5-3-(3)-0-0-3-|-----3-0--0----0-|
|
|  W                W                    Q    q  Q  E E
|----------------|--------------------|---------------7-|
|----------------|--------------------|-----------------|
|----------------|--------------------|---------------7-|
|----------------|--------------------|-----------------|
|----------------|--------------------|-(2)---2--2------|
|----------------|--------------------|-(0)---0--0------|
                                      |-Gtr II substitutes on repeat (continues on 3rd staff)

  Gtr II
             PM--|               PM|                PM--|
  +H     +E  E E E    E  E q  Q  E E    E E E E +E  E E E
|------------------|-----------------|--------------------|
|------------------|-----------------|--------------------|
|------------------|-----------------|--------------------|
|------------------|-----------------|-/7-7-7-5-(5)-------|
|-(2)----(2)-------|--1----2--2------|-/7-7-7-5-(5)-------|
|-(0)----(0)-0-0-3-|-----3-0--0--0-0-|-/5-5-5-3-(3)-0-0-3-|
|                  |-Rhy Fig 3
| Gtr I
|            PM--|
| +H     +E  E E E
|------------------|
|------------------|
|------------------| w/Rhy Fig 2 x1.25
|------------------|
|-(2)----(2)-------|
|-(0)----(0)-0-0-3-|
|
|                                PM|
| +W                 +Q    q  Q  E E    W
|-(7)--------------|-(7)-------------|--------------------|
|------------------|-----------------|--------------------|
|-(7)--------------|-(7)-------------|--------------------|
|------------------|-----------------|--------------------|
|------------------|-------2--2------|--------------------|
|------------------|-------0--0--0-0-|--------------------|


            PM|               PM--|             PM|
  E E q  Q  E E   E E E E +E  E E E   E E q  Q  E E
|---------------|-------------------|---------------|
|---------------|-------------------|---------------|
|---------------|-------------------|---------------|
|---------------|-5-5-5-7-(7)-------|---------------|
|-1---2--2------|-5-5-5-7-(7)-------|-1---2--2------|
|---3-0--0--0-0-|-3-3-3-5-(5)-0-0-3-|---3-0--0--0-0-|
                      end Rhy Fig 3-|-Rhy Fig 3A


               PM--|             PM|
   E E E E +E  E E E   E E q  Q  E E   E E E E +E  E E E
|--------------------|---------------|-------------------||
|--------------------|---------------|-------------------||
|--------------------|---------------|-------------------||
|-/7-7-7-5-(5)-------|---------------|-5-5-5-7-(7)-------||
|-/7-7-7-5-(5)-------|-1---2--2------|-5-5-5-7-(7)-0-3-0-||
|-/5-5-5-3-(3)-0-0-3-|---3-0--0--0-0-|-3-3-3-5-(5)-------||
|                                         end Rhy Fig 3A-|
|
|              PM--|             PM|
|  E E E E +E  E E E   E E q  Q  E E   E E E E +E  E E E
|--------------------|---------------|-------------------||
|--------------------|---------------|-------------------||
|--------------------|---------------|-------------------||
|-/7-7-7-5-(5)-------|---------------|-5-5-5-7-(7)-------||
|--------------------|-1---2--2------|-------------0-3-0-||
|-/5-5-5-3-(3)-0-0-3-|---3-0--0--0-0-|-3-3-3-5-(5)-------||
                                     |-Fill 3

 Pre-Chorus- Half Time Feel
  E Q   E Q   E E   +E  E Q  E Q.       E Q   E Q   E E
|-----------------|-------------------|-----------------|
|-3-----3-----3---|-----3----3--------|-3-----3-----3---|
|---0-----0-----0-|-(0)---0----0------|---0-----0-----0-|
|-----------------|-------------------|-----------------|
|-----------------|-------------------|-----------------|
|-----------------|-------------------|-----------------|
||-Rhy Fig 4
|         PM                                    PM|
| E E E E E E Q     +H       E E  E E   E E E E E E Q
|-----------------|-------------------|-----------------|
|-----------------|-------------------|-----------------|
|-7-7-7-8-----5---|-(5)---------------|-7-7-7-8-----5---|
|-7-7-7-8---0-5---|-(5)---------------|-7-7-7-8-----5---|
|-5-5-5-6-0-0-3---|-(3)------3-0--3-0-|-5-5-5-6-0-0-3---|
|-----------------|-------------------|-----------------|


                                                          PM
  +E  E Q   E  Q.       E Q   E Q   E E   +E  E E E E E E E
|---------------------|-----------------|-------------------||
|-----3-----3---------|-3-----3-----3---|-------------------||
|-(0)---0------0------|---0-----0-----0-|-(0)---------------||
|---------------------|-----------------|-----5---5---5-----||
|---------------------|-----------------|-----5---5---5-----||
|---------------------|-----------------|-----3---3---3---0-||
|                                             end Rhy Fig 4-|
|                               PM         PM
| +H       +E  E  E E   E E E E E E Q      E  E E E E E E E
|---------------------|-----------------|-------------------||
|---------------------|-----------------|-------------------||
|-(5)------(5)--------|-7-7-7-8-----5---|-------------------||
|-(5)------(5)--------|-7-7-7-8---0-5---|-----5---5---5---5-||
|-(3)------(3)-0--3-0-|-5-5-5-6-0-0-3---|-----5---5---5---5-||
|---------------------|-----------------|--0--3---3---3---3-||


 Chorus- End H/T Feel
  $
  Gtrs I, II
          PM|          PM------|   PM          PM|
  E E E E E E Q    +E  E E E E E E E   E E E E E E Q
|----------------|-------------------|----------------|
|----------------|-------------------|----------------|
|----------------|-------------------|----------------|
|-7-7-7-8-----5--|-(5)-----------5---|-7-7-7-8-----5--|
|-7-7-7-8-----5--|-(5)-----------5---|-7-7-7-8-----5--|
|-5-5-5-6-0-0-3--|-(3)-0-0-0-0-0-3-0-|-5-5-5-6-0-0-3--|
|-Rhy Fig 5

      PM------|   PM          PM|          PM------|   PM
  +E  E E E E E E E   E E E E E E Q    +E  E E E E E E E
|-------------------|----------------|-------------------|
|-------------------|----------------|-------------------|
|-------------------|----------------|-------------------|
|-(5)-----------5---|-7-7-7-8-----5--|-(5)-----------5---|
|-(5)-----------5---|-7-7-7-8-----5--|-(5)-----------5---|
|-(3)-0-0-0-0-0-3-0-|-5-5-5-6-0-0-3--|-(3)-0-0-0-0-0-3-0-|


                  1.
          PM|      PM
  E E E E E E Q    E E E E E E E E
|----------------|-----------------|
|----------------|-----------------|
|----------------|-----------------|
|-7-7-7-8-----5--|---5---5---5---7-|
|-7-7-7-8-----5--|---5---5---5---7-|
|-5-5-5-6-0-0-3--|-0-3---3---3---5-|
                     end Rhy Fig 5-|

  Gtr II
  +W                  +H..                E      +Q   a +E  E E E E E
|-------------------|--------------------------|-----------------------|
|-------------------|--------------------------|-----------------------|
|-------------------|---------------------7b9==|=(7)--7r(7)-5-7-5---9--|
|-(7)---------------|-(7)----------------------|------------------7-9--|
|-(7)---------------|-(7)----------------------|--------------------7--|
|-(5)---------------|-(5)----------------------|-----------------------|
|-Rhy Fill 4                                            end Rhy Fill 4-|
|
| Gtr I
| +H.      E   E      +Q    a +E  E E E E E      +Q   a +E  E E E E E
|-------------------|--------------------------|-----------------------|
|-------------------|--------------------------|-----------------------|
|-------------------|---------------------7b9==|=(7)--7r(7)-5-7-5---9--|
|-(7)------5\-/7b9==|=(7)---7r(7)-5-7-5--------|------------------7-9--|
|-(7)---------------|-------------------7------|--------------------7--|
|-(5)---------------|--------------------------|-----------------------|
|-Rhy Fill 4A                                          end Rhy Fill 4A-|


Rhy Fig 1

Rhy Fig 1 + Fill 1


                                                  2.,D.S.
  E5
  Gtr II
    W                      +W                     W
    |                       |
    /                       /
  Gtr I                                       Gtrs I, II
                                        PM--------|
   +H     +E  +E   E +E     E E E E  E  E E E     E E E E E E E E
|------------------------|---------------------||-----------------|
|------------------------|--------------------o||-----------------|
|--(9)----(9)-(9)s=8-(8)s|==7s6s5--------------||-----------------|
|--(9)----(9)-(9)s=8-(8)s|==7s6s5--------------||---5---5---5---5-|
|--(7)----(7)-(7)s=6-(6)s|==5s4s3-3s13\-------o||---5---5---5---5-|
|------------------------|--------------0-0-3--||-0-3---3---3---3-|


w/Rhy Fig 5
  Gtr III
   E  E  E  E  Q   Q    +E  E E E E E E E    E  E  E  E  Q    Q
|---------------------|-------------------|----------------------|
|-10-10-10-11-11S==8--|-(8)-8-8-8-8-8-8-8-|-10-10-10-11-11S==15--|
|---------------------|-------------------|----------------------|
|--7--7--7--8--8S==5--|-(5)-5-5-5-5-5-5-5-|--7--7--7--8--8S==12--|
|---------------------|-------------------|----------------------|
|---------------------|-------------------|----------------------|



   +E   E  E  E  E  E  Q      E  E  E  E  Q   Q    +E  E E E E E E E
|--------------------------|---------------------|-------------------|
|-(15)-15-15-15-15-15-15S==|=10-10-10-11-11S==8--|-(8)-8-8-8-8-8-8-8-|
|--------------------------|---------------------|-------------------|
|-(12)-12-12-12-12-12-12S==|==7--7--7--8--8S==5--|-(5)-5-5-5-5-5-5-5-|
|--------------------------|---------------------|-------------------|
|--------------------------|---------------------|-------------------|


                                    To Coda
   E  E  E  E  Q    Q     +E   E E E E E E E
|----------------------|---------------------|
|-10-10-10-11-11S==15--|-(15)\---------------|
|----------------------|---------------------|
|--7--7--7--8--8S==12--|-(12)\-5---5---5---7-|
|----------------------|-------5---5---5---7-|
|----------------------|-------3---3---3---5-|


w/Fills 4 +4A
  +W                  +W                         +H.              Q
|-------------------|--------------------------|-----------------------|
|-------------------|--------------------------|-----------------------|
|-------------------|--------------------------|-----------------------|
|-(7)---------------|-(7)----------------------|-(7)-------------------|
|-(7)---------------|-(7)----------------------|-(7)-------------------|
|-(5)---------------|-(5)----------------------|-(5)-------------------|
|-Rhy Fill 6                                            end Rhy Fill 6-|


Rhy Fig 1


 Interlude - H/T Feel
        E5
  Gtr III
  +Q    Q    Q       E  E     Q     Q        Q     E  E
   |    |    |          |     |     |        |        |
   /    /    /          /     /     /        /        /

  Gtr II
        PM|             ~~~~~~~~~~
  +Q    E E  Q       E  E    +Q     E  E  a  E  E  E  E
|-------------------------|-----------------------------|
|-----------15------15----|-----------------------------|
|-(9)\------14b16---14-12-|-(12)---------------12-14----|
|-(9)\--------------------|--------14-12-12h14-------14-|
|-(7)\--------------------|-----------------------------|
|-------0-0---------------|-----------------------------|
|
| Gtr I
|       PM|
| +Q    E E  E    E  E  E    +Q     E  E     E  E  E  E
|-------------------------|-----------------------------|
|------------7h===8--8--8-|--(8)\-----------------------|
|-(9)\------------------9-|--(9)\---------------7--9----|
|-(9)\--------------------|--------/9--7-----9--------9-|
|-(7)\--------------------|-----------------------------|
|-------0-0---------------|-----------------------------|


   +Q    Q    Q       E  E
    |    |    |          |
    /    /    /          /

         PM|             ~~
   +Q    E E  Q       E  E
|--------------------------|
|------------15------15----|
|------------14b16---14-12-|
|-(14)\--------------------|
|--------------------------|
|--------0-0---------------|
|
|        PM|
|  +Q    E E  E    E  E  E
|--------------------------|
|-------------7h===8--8--8-|
|------------------------9-|
|--(9)\--------------------|
|--------------------------|
|--------0-0---------------|


    Q     Q        Q     E  E
    |     |        |        |
    /     /        /        /

    ~~~~~
   +Q     E  E  a  E  E  E  E
|-----------------------------|
|-----------------------------|
|-(12)---------------12-14----|
|--------14-12-12h14-------14-|
|-----------------------------|
|-----------------------------|
|
|  +Q     E  E     E  E  E  E
|-----------------------------|
|--(8)\-----------------------|
|--(9)\---------------7--9----|
|--------/9--7-----9--------9-|
|-----------------------------|
|-----------------------------|


   +Q    Q    Q       E  E     Q     Q        Q     E  E
    |    |    |          |     |     |        |        |
    /    /    /          /     /     /        /        /

         PM|             ~~~~~~~~~~
   +Q    E E  Q       E  E    +Q     E  E  a  E  E  E  E
|--------------------------|------------------------------|
|------------15------15----|------------------------------|
|------------14b16---14-12-|-(12)---------------12-14-----|
|-(14)\--------------------|--------14-12-12h14-------14--|
|--------------------------|------------------------------|
|--------0-0---------------|------------------------------|
|
|        PM|
|  +Q    E E  E    E  E  E    +Q     E  E     E  E  E  E
|--------------------------|------------------------------|
|-------------7h===8--8--8-|--(8)\------------------------|
|------------------------9-|--(9)\---------------7--9-----|
|--(9)\--------------------|--------/9--7-----9--------9--|
|--------------------------|------------------------------|
|--------0-0---------------|------------------------------|


   +Q      Q     Q     E  E    +Q      Q     Q     E  E
    |      |     |        |     |      |     |        |
    /      /     /        /     /      /     /        /

   +Q      E  E  E  E  E  E    +Q      E  E  E  E  Q
|---------------------------|---------------------------|
|---------------------------|---------------------------|
|------------------12-14----|------------------12-------|
|-(14)\--/14-12-14-------14-|-(14)\--/14-12-14----14\---|
|---------------------------|---------------------------|
|---------------------------|---------------------------|
|
|  +Q      E  E  E  E  E  E    +Q      E  E  E  E  E  E
|---------------------------|---------------------------|
|---------------------------|---------------------------|
|-------------------7--9----|-------------------7-------|
|--(9)\---/9--7--9--------9-|--(9)\---/9--7--9-----9--7-|
|---------------------------|---------------------------|
|---------------------------|---------------------------|


    W
    |
    /

                         ~~~~
    E  E E  E E  E      +E   +E
|---------------------------------|
|---------------------------------|
|-----12---12---12-----(12)-(12)\-|
|-/14-----------------------------|
|---------------------------------|
|---------------------------------|
|
|   E  E E  E E  Q           +E
|---------------------------------|
|---------------------------------|
|-----12---12---12b13=======(12)r-|
|-/14-----------------------------|
|---------------------------------|
|---------------------------------|


   +W                                 +W
    |                                  |
    /                                  /

    E  E E  E E  E      +Q             E  E E  E E  E        +Q
|----------------------------------|-----15---15---15-------(15)\-------|
|-----15---15---15-----(15)\-------|-/17--------------------------------|
|-/16------------------------------|------------------------------------|
|----------------------------------|------------------------------------|
|----------------------------------|------------------------------------|
|----------------------------------|------------------------------------|
|
|   E  E E  E E  Q            +E       E  E E  E E  Q              +E
|----------------------------------|------------------------------------|
|----------------------------------|-----15---15---15b15.5========(15)r-|
|-----12---12---12b13========(12)r-|-/16--------------------------------|
|-/14------------------------------|------------------------------------|
|----------------------------------|------------------------------------|
|----------------------------------|------------------------------------|


  Gtr III
  PM                                   PM----------|
  E E E E E E E E   +H..       E    E  E  E   E  E  E  E  E
|-----------------|--------------|--------------------------||
|-----------------|--------------|--------------------------||
|-----------------|--------------|--------------------12-14-||
|---5---5---5---7-|-(7)----------|--------------12-14-------||
|---5---5---5---7-|-(7)--------0-|----10-12--14-------------||
|-0-3---3---3---5-|-(5)----------|-12-----------------------||
|
| Gtrs I, II
| PM                                                PM---|
| E E E E E E E E   +H..       E    Q     Q      E  E  E  E
|-----------------|--------------|--------------------------||
|-----------------|--------------|--------------------------||
|-----------------|--------------|--------------------------||
|---5---5---5---7-|-(7)----------|--------------------------||
|---5---5---5---7-|-(7)----------|--------------------------||
|-0-3---3---3---5-|-(5)--------xs|==xs====x\--------0--0--3-||


 Guitar Solo
w/Rhy Fig 3 x2
           ~~~~~~~       ~~~~~~~~~       ~~~~~~~
   Q    E  E  +E   E  E  E    +E   E  E  E  +E   E  E  E
|--------------------------|-----------------------------|
|------15------------15----|---------15------------15----|
|-16------16-(16)-16----16-|-(16)-16----16-(16)-16----16-|
|--------------------------|-----------------------------|
|--------------------------|-----------------------------|
|--------------------------|-----------------------------|


      ~~         ~~
   E  Q    E  E  Q    E    E  E  E  E  E   E  E  E
|-----------------------|--------------------------|
|-15---------15---------|-15-------15-15--15-15-12-|
|----16---16----16---16-|----16-16-16-16--16-16-13-|
|-----------------------|--------------------------|
|-----------------------|--------------------------|
|-----------------------|--------------------------|


                                                  ~~~
   E  E  E  E  E  E  E  E    E  E  E  E  E   E E  E
|-------------------------|-------------------------|
|-15-15-15-14-14-14-12-12-|-------------------------|
|-16-16-16-14-14-14-12-12-|-------------------------|
|-------------------------|-14-14-12-14-----12---14-|
|-------------------------|-------------------------|
|-------------------------|-------------------------|


 ~~~~~~                                       ~~~~~~~
   +E   E  E  E  +Q        +Q        E  E  E  E  +E   E  E  E
|---------------------------------|---------------------------|
|------------14-(14)b15===(14)r---|---------------------12-14-|
|---------12-14-(14)b15===(14)r---|-12------------------12-14-|
|-(14)-14-------------------------|----14-12-14-(14)-14-------|
|---------------------------------|---------------------------|
|---------------------------------|---------------------------|


  E5
  Gtrs I, II
   Q          Q             E    E   E  E
   |          |             |    |   |  |
   /          /             /    /   /  /

  Gtr III
   E     +E   E  E  a      +E   +E   E  E
|-----------------------------------------|
|-14b15r(14)-12-14-14b15==(14)r(14)-12-14-|
|-14b15r(14)-12-14-14b16==(14)r(14)-12-14-|
|-----------------------------------------|
|-----------------------------------------|
|-----------------------------------------|


         G5
           Q        H.
           |        |
           /        /

   a      +E   +E   E   E  E  E      +E    E
|-----------------------------------------12-|
|-14b15==(14)r(14)------------------------12-|
|-14b16==(14)r(14)-12-----12-14b16==(14)r----|
|----------------------14--------------------|
|--------------------------------------------|
|--------------------------------------------|


  B5                                     C5          B5              C5
   Q     Q            E  E  E     E    E  E     E  E  E       E    E  E
   |     |            |  |  |     |    |  |     |  |  |       |    |  |
   /     /            /  /  /     /    /  /     /  /  /       /    /  /

   E  E  E      +E    E  E  E     E    E  E     E  E  E      +E    E  E
|-12-12--------------12-------------|----------12-----------------12----|
|-12-12-15b17==(15)r-12-12-15b16-12-|-12-15b17-12-12-15b17==(15)r-12-15-|
|-----------------------------------|-----------------------------------|
|-----------------------------------|-----------------------------------|
|-----------------------------------|-----------------------------------|
|-----------------------------------|-----------------------------------|


         E5
           Q        Q             E    E   E  E
           |        |             |    |   |  |
           /        /             /    /   /  /

   a      +E   +E   E  E  a      +E   +E   E  E
|------------------------------------------------|
|-14b15==(14)r(14)-12-14-14b15==(14)r(14)-12-14--|
|-14b16==(14)r(14)-12-14-14b16==(14)r(14)-12-14--|
|------------------------------------------------|
|------------------------------------------------|
|------------------------------------------------|


         G5
           Q        H.
           |        |
           /        /

   a      +E   +E   E   E  a      +E   +E   E  E
|------------------------------------------------|
|-14b15==(14)r(14)-12--14-14b15==(14)r(14)-------|
|-14b16==(14)r(14)-12--14-14b16==(14)r(14)-12----|
|---------------------------------------------14-|
|------------------------------------------------|
|------------------------------------------------|


  B5                                      D5                       E5VII
   Q          Q       E     E  E  E         Q        Q     Q     E  E
   |          |       |     |  |  |         |                       |
   /          /       /     /  x  x         /                       /

   E  E      +E    E  S  S  E  E  E        +E   +E   E  E  E  E  E  E
|-----------------12--------------------|---------------------------------|
|-----------------12-15p12----12-14b15==|=(14)r(14)-12----12-15p12-12-----|
|-12-14b16==(14)r----------14-12-14b15==|=(14)r(14)-12----12-------14b16==|
|---------------------------------------|--------------14-----------------|
|---------------------------------------|---------------------------------|
|---------------------------------------|---------------------------------|


w/Rhy Fig 1 x2
  Gtr III
   +Q     a  +E   E  E  E  E  E        +Q       E  E  a      +E   +E   E  E
|-----------------------------------|---------------------------------------|
|-(12)-----------------------12-----|-(12)\----------14b15==(14)r(14)-12-14-|
|-(14)---14r(14)-12----12-14-14b16==|=(14)r\------12-14b16==(14)r(14)-12-14-|
|-------------------14--------------|---------/14---------------------------|
|-----------------------------------|---------------------------------------|
|-----------------------------------|---------------------------------------|


   +E       +E    E  E  E  E  E  E        +E    E  E  E  E     E  E  E
|--------------------------------------|----------12----------12-------------|
|-(14)b15==(14)r-----------------------|-------12----12-15b17----12-15b17====|
|-(14)b16==(14)r-12----12-14-12-14b16==|=(14)r-------------------------------|
|-------------------14-----------------|-------------------------------------|
|--------------------------------------|-------------------------------------|
|--------------------------------------|-------------------------------------|


                            ~~~~~~~~~~~~~~
   +Q     E      +E      E  Q       E        +Q       E  E  E  E  E  E
|--------12-----(12)\------12------12-----|-(12)\----------12-12-12-12-----|
|-(15)r--15b17==(15)r\-/15-15b17---15b17==|=(15)r\------12-12-12-12-15b17==|
|-----------------------------------------|---------/14--------------------|
|-----------------------------------------|--------------------------------|
|-----------------------------------------|--------------------------------|
|-----------------------------------------|--------------------------------|


                                                                     PM
   +Q       q        S  +S   E  E  E          +E    E  E  E  E  Q    E
|-(12)\------------------------------------|---------------------------|
|-(15)r\-----------------------------------|---------------------------|
|---------/14b16====14r(14)p12----12b12.5==|=(12)r---------------------|
|------------------------------14----------|-------14-12-------12------|
|------------------------------------------|-------------14-13------14-|
|------------------------------------------|---------------------------|


w/Rhy Fill 2
  Gtr II
  E5VII
   W                      +W
   |                       |
   /                       /

       ~~~~~~~~~~~~~~~~~~~~~~~
   E   Q.    +H           +W
|----------------------|----------------||
|----------------------|----------------||
|----------------------|----------------||
|-12h=14----(14)-------|-(14)-----------||
|----------------------|----------------||
|----------------------|----------------||



 Bridge
                        A5    G5                          G5    A5
   +Q    Q       H      E E E E +Q   +Q     W             E E E E +Q   +Q
    |                   | | | |  |    |                   | | | |  |    |
    /                   / / / /  /    /                   / / / /  /    /

    ~~~~
   +Q.      +E   H      W                   W             W
|---------------------|-------------------|-------------|-------------------|
|---------------------|-------------------|-------------|-------------------|
|---------------------|-------------------|-------------|-------------------|
|-(14)-----(14)\------|-------------------|-------------|-------------------|
|---------------------|-------------------|-------------|-------------------|
|---------------------|-------------------|-------------|-------------------|
|
|                                  PM---|                            PM---|
|   E  E Q       H      H        E E  E E   E E Q  H      H        E E  E E
|---------------------|-------------------|-------------|-------------------|
|---------------------|-------------------|-------------|-------------------|
|---------------------|-------------------|-------------|-------------------|
|---------------------|-------------------|-------------|-------------------|
|---1--2--------------|-------------------|-1-2---------|-------------------|
|------0--------------|------------0--0-3-|---0---------|------------0--0-3-|


                A5    G5                          E5
  Gtr II
  W             E E E E +Q   +Q     H       Q   E E   +W
                | | | |  |    |                   |    |
                / / / /  /    /                   /    /

  Gtr I
                           PM---|                                PM--|
  E E Q  H      H        E E  E E   E E E Q   Q   E   +H     +E  E E E
|-------------|-------------------|-----------------|------------------|
|-------------|-------------------|-----------------|------------------|
|-------------|-------------------|-----------------|------------------|
|-------------|-------------------|-----------------|------------------|
|-1-2---------|-------------------|-1-2-----------2-|-(2)----(2)-------|
|---0---------|------------0--0-3-|---0-----------0-|-(0)----(0)-0-0-3-|


  E E E E E E E E    E E E E  E  E E E   E E E E E E E E   E E E E  E  E E E
  | | | |   | | |      | | |  |  |   |   | |   | | |   |   | |   |     | | |
  x x x x   x x x      x x x  x  x   x   x x   x x x   x   x x   x     x x x

                                 PM--|                                 PM--|
  E E E Q   Q   E    E E E E +E  E E E   E E E Q   Q   E   E E E E +E  E E E
|-----------------|--------------------|-----------------|-------------------|
|-----------------|--------------------|-----------------|-------------------|
|-----------------|--------------------|-----------------|-------------------|
|---------------x-|-/7-7-7-5-(5)-------|---------------x-|-5-5-5-7-(7)-------|
|-1-2-----------x-|--------------------|-1-2-----------x-|-------------------|
|---0-----------x-|-/5-5-5-3-(3)-0-0-3-|---0-----------x-|-3-3-3-5-(5)-0-0-3-|


w/Rhy Fig 3A
  Gtr II
            PM|                PM--|             PM|
  E E q  Q  E E    E E E E +E  E E E   E E q  Q  E E   E E E E +E  E E E
|---------------|--------------------|---------------|-------------------||
|---------------|--------------------|---------------|-------------------||
|---------------|--------------------|---------------|-------------------||
|---------------|-/7-7-7-5-(5)-------|---------------|-5-5-5-7-(7)-------||
|-1---2--2------|--------------------|-1---2--2------|-------------0-3-0-||
|---3-0--0--0-0-|-/5-5-5-3-(3)-0-0-3-|---3-0--0--0-0-|-3-3-3-5-(5)-------||


 Pre-Chorus
w/Rhy Fig 4
  Gtr I
          PM            PM----|                  PM
  E E E E E E Q     +E  E E E E E  E E   E E E E E E Q
|-----------------|--------------------|-----------------|
|-----------------|--------------------|-----------------|
|-7-7-7-8-----5---|-(5)----------------|-7-7-7-8-----5---|
|-7-7-7-8---0-5---|-(5)-0-0-0-0--------|-7-7-7-8---0-5---|
|-5-5-5-6-0-0-3---|-(3)-0-0-0-0-0--3-0-|-5-5-5-6-0-0-3---|
|-----------------|--------------------|-----------------|


                                             D.S. al Coda
      PM----|                  PM|        PM
  +E  E E E E E  E E   E E E E E E Q      E  E E E E E E E
|--------------------|-----------------|-------------------||
|--------------------|-----------------|-------------------||
|-(5)----------------|-7-7-7-8-----5---|-------------------||
|-(5)-0-0-0-0--------|-7-7-7-8-----5---|-----5---5---5---5-||
|-(3)-0-0-0-0-0--3-0-|-5-5-5-6-0-0-3---|-----5---5---5---5-||
|--------------------|-----------------|--0--3---3---3---3-||


  &
w/Rhy Fill 6
  Gtr II
   W                  +H..                E      +Q   a +E  E E E Q
|-------------------|--------------------------|-----------------------|
|-------------------|--------------------------|-----------------------|
|-------------------|---------------------7b9==|=(7)--7r(7)-5-7-5------|
|-(7)---------------|-(7)----------------------|------------------7\---|
|-(7)---------------|-(7)----------------------|-----------------------|
|-(5)---------------|-(5)----------------------|-----------------------|
|
| Gtr I
|  H.      E   E      +Q    a +E  E E E E E      +Q   a +E  E E E Q
|-------------------|--------------------------|-----------------------|
|-------------------|--------------------------|-----------------------|
|-------------------|---------------------7b9==|=(7)--7r(7)-5-7-5------|
|-(7)------5\-/7b9==|=(7)---7r(7)-5-7-5--------|------------------7\---|
|-(7)---------------|-------------------7------|-----------------------|
|-(5)---------------|--------------------------|-----------------------|


  Gtrs I, II
                 ~~
    E  E E  E E  Q   +E       E  E E  E E  E  +Q
|-------------------------|------------------------------|
|-------------------------|-----15---15---15-(15)\-------|
|-----12---12---12--(12)\-|-/16--7----7----7-------(7)b9-|
|-/14--5----5----5---(5)\-|--/9--------------------------|
|--/7---------------------|------------------------------|
|-------------------------|------------------------------|
    E  E E  E E  Q   +E       E  E E  E E  Q       +E


  H.=H
                   E5
                 Gtr II
  W                W             +W
                   |              |
                   /              /

                 Gtr I
  E E E E E Q.     H.      E E    Q   Q  H
|----------------|-------------|--------------*|
|----------------|-------------|--------------*|
|----------------|-------------|--------------*|
|---5---5---5----|---------2-2-|--2/----------*|
|---5---5---5----|-2-------2-2-|--2/----------*|
|-0-3---3---3----|-0-------0-0-|--------------*|


x x x x x x x x x x x x x x x x x x x x x x x x x x x x x x x x

13. Fixxxer


The official tuning for this song is Standard Eb, but I translated it to Drop D
for those of you who only do Standard and Drop D.  Listen to the CD for timing.

Fixxxer
As performed on "ReLoad"
Music by James Hetfield, Kirk Hammett, and Lars Ulrich
Lyrics by James Hetfield

Drop D tuning
h           hammer on
p           pull off
b           bend
r           release
x           muffled strings
~           vibrating
/           slide up
\           slide down
James       Guitar 1
Kirk        Guitar 2

James' Intro
Distorted guitar w/ wah pedal, repeat a bunch of times
e[-10b12---------------------------------13b15-----
B[-------------------------------------------------
G[-------------------------------------------------
D[-------------------------------------------------
A[-------------------------------------------------
D[-------------------------------------------------

Kirk's Intro 1 (x4)
Clean guitar w/ wah pedal
e[-------------------------------------------------------
B[-------------------------------------------------------
G[-------------------------------------------------------
D[------4h6-4~~~-----------------------------------------
A[-6~~~--------------------------------------------------
D[-------------------------------------------------------

Kirk's Intro 2 (x5, last 3 times w/o muffled strings)
Clean guitar w/ wah pedal
e[-------------------------------------------------------
B[-------------------------------------------------------
G[-------------------------------------------------------
D[--------4----------------------------------------------
A[-4h6~~~---6~~~----x---x--xxxx--------------------------
D[-------------------------------------------------------

Both guitars      End intro
Distortion, wah pedal off
e[-------------------------------------------------------
B[-------------------------------------------------------
G[-------------------------------------------------------
D[-------------------------------------------------------
A[-4h6-2h4-1h2-------------------------------------------
D[-------------4h6---------------------------------------

Both guitars    Main riff (x4)
e[-------------------------------------------------------
B[-------------------------------------------------------
G[-------------------------------------------------------
D[--------------------------------------3h4--------------
A[-1-1--6p4-6~~-------7~~--1-1--6p4-6~~-----4~~~---------
D[-1-1----------7p6-7------1-1---------------------------

On the third time, Kirk goes off into this
e[-------------------------------------------------------
B[-------------------------------------------------------
G[---------------------------------------1h3-------------
D[------4p3-4~~~------6~~~------4p3-4~~~-----3~~~--------
A[-1-1----------4p3-4------1-1---------------------------
D[-1-1---------------------1-1---------------------------

Both guitars      Verse Part 1 (x2)
e[-------------------------------------------------------
B[-------------------------------------------------------
G[-------------------------------------------------------
D[-3h4-x-8-8-x-4p3-x-8-8-x-3h4-x-8-8-x--3h4p3------------
A[-----x-6-6-x-----x-6-6-x-----x-6-6-x--------4~~~-------
D[-------------------------------------------------------
                  
Both guitars      Verse Part 2 (x2) 
e[-------------------------------------------------------
B[-------------------------------------------------------
G[-------------------------------------------------------
D[-1h2-x-6-6-x-2p1-x-6-6-x-1h2-x-6-6-x--1h2p1------------
A[-----x-4-4-x-----x-4-4-x-----x-4-4-x--------2~~~-------
D[-------------------------------------------------------

Kirk     End verse
Clean guitar
e[-----------------------------------------------------
B[-----------2-----------------------------------------
G[-----------------------------------------------------
D[----1--4---------------------------------------------
A[-----------------------------------------------------
D[-1---------------------------------------------------

James' Chorus (x2)
Distortion
e[-------------------------------------------------------
B[-------------------------------------------------------
G[-------------------------------------------------------
D[---------4h6-6b8r6-4----------4h6-6b8r6-4--------------
A[-1----4h6-------------4----4h6-------------------------
D[-1--------------------4--------------------------------

e[-------------------------------------------------------
B[-------------------------------------------------------
G[-------------------------------------------------------
D[-6-------4h6-6b8r6-4----4----------3-------------------
A[-4----4h6---------------2----------1-------------------
D[-------------------------------------------------------

Kirk's Chorus (x2)
Clean guitar
e[------------------------------------------------------
B[---------2-------------2------------------------------
G[----------------------------------6-------------------
D[---1--4----------1--4-----------6---6-----------------
A[------------------------------4-----------------------
D[-1-------------4--------------------------------------

e[------------------------------------------------------
B[------------------------------------------------------
G[-----4--------3---------------------------------------
D[---4---4----3---3-------------------------------------
A[-2--------1-------------------------------------------
D[------------------------------------------------------

Both guitars end chorus on this
Distortion
e[-------------------------------------------------------
B[-------------------------------------------------------
G[-------------------------------------------------------
D[-------------------------------------------------------
A[-4h6-2h4-1h2-------------------------------------------
D[------------4h6----------------------------------------

Main Riff

Verse

Chorus

Both guitars     Interlude
Distortion
Play this twice
e[---------------------------
B[---------------------------
G[--------11-----------------
D[-11-13--11-13---xx---------
A[-11-13-----13---xx---------
D[---------------------------

Then continue with this
e[-------------------------------------------------------
B[-------------------------------------------------------
G[--------11------------11-----------11------------------
D[-11-13--11-13--11-13--11-13--11-13-11-13---------------
A[-11-13-----13--11-13-----13--11-13----13---------------
D[-------------------------------------------------------


SLIDE SOLO

James
Distortion
Open on this        Then this twice
e[----------------]----------------------------------------------
B[----------------]----------------------------------------------
G[----------------]----------------------------------------------
D[----------------]---------------------------------------5h6----
A[-4h6-2h4-1h2----]-3-3--8p6-8~~~-----9~~~--3-3--8p6-8~~~-----6--
D[------------4h6-]-3-3-----------9p8-------3-3------------------

Then he plays the main riff three times

Kirk
e[-------------------------------21\---------------------
B[-8/10----8/10----8/10----8/10--------------------------
G[-8/10----8/10----8/10----8/10--------------------------
D[-------------------------------------------------------
A[-------------------------------------------------------
D[-------------------------------------------------------

e[-8/11----8/11--14\13--8/11------------8/11-------------
B[-8/11----8/11---------8/11------------8/11-------------
G[----------------------------11\10/11--------11\--------
D[-------------------------------------------------------
A[-------------------------------------------------------
D[-------------------------------------------------------

e[-------------------------------------------------------
B[-----------------------------------10/11---------------
G[-11\10/11-----------/13--11\10/11--------10\-----------
D[-----------11\10/11------------------------------------
A[-------------------------------------------------------
D[-------------------------------------------------------

e[-14\13/14-------------16\------------------------------
B[------------14\13/14-----------------------------------
G[-------------------------------------------------------
D[-------------------------------------------------------
A[-------------------------------------------------------
D[-------------------------------------------------------

James
e[-------------------------------------------------------
B[-------------------------------------------------------
G[-------------------------------------------------------
D[-------------------------------------------------------
A[-1-1--6p4-6~~~-----7~~~--------------------------------
D[-1-1-----------7p6-------------------------------------

e[-------------------------------------------------------
B[-------------------------------------------------------
G[-------------------------------------------------------
D[-------------------------------------------------------
A[-1-1--6p4-6--1-1--6p4-6----7p9-7-----13p11-13----------
D[-1-1---------1-1---------------------------------------

Kirk
e[-------------------------------------11\10/11----------
B[---------------------------11\10/11--------------------
G[-----11\10/11-----11\10/11-----------------------------
D[-------------------------------------------------------
A[-------------------------------------------------------
D[-------------------------------------------------------


GUITAR SOLO

James    Part 1 (x4)
e[-------------------------------------------------------
B[-------------------------------------------------------
G[------4------------------------------------------------
D[-4-6--4-6-----4h6-6b8r6-4~~~---------------------------
A[-4-6----6--4h6-----------------------------------------
D[-------------------------------------------------------

James    Part 2
e[-------------------------------------------------------
B[-------------------------------------------------------
G[------4---------------4--------------------------------
D[-4-6--4-6--------4-6--4-6----------1-------------------
A[-4-6----6--xxxx--4-6----6--xxxxxx--1-------------------
D[-----------xxxx------------xxxxxx--1-------------------

Kirk   (All 18s are 16s bent to 18s)
e[-------------------------------------------------------
B[-16b18-18-18-16b18-18-18-16b18-18-18-16b18-14b16-------
G[-------------------------------------------------------
D[-------------------------------------------------------
A[-------------------------------------------------------
D[-------------------------------------------------------
                              Wah-pedal!
e[--------------18b20b21-16-]----------------------------
B[-16b18-14b16--------------]----------------------------
G[--------------------------]------11h13-13b15r13-11-----
D[--------------------------]-11h13----------------------
A[--------------------------]----------------------------
D[--------------------------]----------------------------

e[-------------------------------------------------------
B[-------------------------------------------------------
G[------11h13-13b15r13-11------11h13-13b15r13-11---------
D[-11h13------------------11h13--------------------------
A[-------------------------------------------------------
D[-------------------------------------------------------

e[-------------------------------------------------------
B[-------------------------------------------------------
G[-13b15r13-11-13b15r13-11-13b15r13-11-------------------
D[-------------------------------------------------------
A[-------------------------------------------------------
D[-------------------------------------------------------

e[-------16----------------------16----------------------
B[-16-18----18~~~~---------16-18----18~~~~---------------
G[-------------------------------------------------------
D[-------------------------------------------------------
A[-------------------------------------------------------
D[-------------------------------------------------------

e[-------------------------------------------------------
B[-------------------------------------------------------
G[-13b15-13b15-13b15-------------------------------------
D[-------------------13~~~~~~~---------------------------
A[-------------------------------------------------------
D[-------------------------------------------------------

POST SOLO

Kirk
Clean guitar w/ wah pedal
Play this x3      Then this
e[--------------]-----------------------------------------
B[--------------]-----------------------------------------
G[--------------]-----------------------------------------
D[-----4h6-4~~~-]----4h6b8r6-4~~-----4--------------------
A[-6~~~---------]-6~~------------4h6---6--xxx-------------
D[--------------]-----------------------------------------

e[-------------------------------------------------------
B[-------------------------------------------------------
G[-------------------------------------------------------
D[------4-----4-6b8r6-----4------------------------------
A[-4h6~~--6~~---------4h6----4h6-2h4-1h2-----------------
D[---------------------------------------4h6-------------

e[-------------------------------------------------------------------
B[-------------------------------------------------------------------
G[-------------------------------------------------------------------
D[-----4---11h13-13p11--11-11-13-----4---11h13-13p11-----11-13p11----
A[-4h6--6------------------------4h6--6---------------13----------13-
D[-------------------------------------------------------------------
                             Wah pedal off, distortion on
e[-------------------------]------------------------------
B[-------------------------]------------------------------
G[-------------------------]------------------------------
D[-----4-------4-------4---]------------------------------
A[-4h6---6-4h6---6-4h6---6-]-4h6-2h4-1h2------------------
D[-------------------------]------------4h6---------------

Kirk's Bridge (x6)
Clean guitar 
e[-------------------------------------------------------
B[--------2-------------------2--------------------------
G[-------------------------------------------------------
D[---1--4----------------1--4----------------------------
A[-------------------------------------------------------
D[-1-------------------1---------------------------------

James' Bridge (x6)
Distorion
e[-------------------------------------------------------
B[-------------------------------------------------------
G[-------------------------------------------------------
D[-------4h6-6b8r6-4--------4h6-6b8r6-4------------------
A[-1--4h6-------------1--4h6-----------------------------
D[-1------------------1----------------------------------

Chorus


Kirk's Outro part 1  (x4)
Clean guitar
e[-------------------------------------------------------
B[--------2---------------------2------------------------
G[-------------------------------------------------------
D[---1--4------------------1--4--------------------------
A[-------------------------------------------------------
D[-1---------------------1-------------------------------

James' Outro part 1  (x4)
Distortion
e[--------------------------------------------------------
B[--------------------------------------------------------
G[--------------------------------------------------------
D[-------4h6-6b8r6-4--------------------------------------
A[-1--4h6--------------1---4h6-2h4-1h2--------------------
D[-1-------------------1---------------4h6----------------

Ending
Both guitars
Distortion
e[-------------------------------------------------------
B[-------------------------------------------------------
G[-------------------------------------------------------
D[------------------------------------------1-1----------
A[-4h6-2h4-1h2------1-1---6p4-6~~------7~~--1-1----------
D[-------------4h6--1-1----------7p6-7------1-1----------

That's it.

Song Structure:
Note...Names in parenthesees = who plays lead guitar

James' Intro (Continue playing under Kirk's)
Intro part 1 (Kirk)
Intro part 2 (Kirk)
End Intro
Main riff
Verse
Chorus (James)
Main riff
Verse
Chorus (James)
Interlude
Slide solo (Kirk)
Guitar solo (Kirk)
Post solo
Bridge (James)
Chorus  (James)
Outro (James)
Ending

x x x x x x x x x x x x x x x x x x x x x x x x x x x x x x x x x x x x
comments
print report bad tab
2 comments total.
0 reply
agoramilio wrote on January 4 2011, 06:01 pm

this tab confuses me...so many numbers and letters

0 reply
NYOstatus wrote on September 24 2013, 01:01 pm

Yea it takes a while to focus on which part to play. Try reading the tabs as the song plays first to get an idea of what it should sound like

I want to post or [tab]
guest
You may want to rate the tab now too:
select rating
Please do not post tabs as comments. Select "correction" instead!