Oops, an error
Loading. Please wait.

Reload Tab

ver2
ver2

Album

More versions @911Tabs.com
8,429 views 1 this week
2 commentsread comments
1 2 3 4 5
worth learning
x 7
Autoscroll
+/-
esc
set tempo
stop
Contributor
Hey! There's an official Ultimate Guitar app which is ideal
for learning songs when you're away from computer. Get the app
WARNING: You are trying to view
                                    content from Ultimate-Guitar.com
                                    in an unauthorized application,
                                    which is prohibited.

                                    Please use an official Ultimate
                                    Guitar Tabs application for iPhone,
                                    iPad or Android to access legitimate
                                    chords, guitar, bass, and drum tabs
                                    from Ultimate-Guitar.com database.

                                    Type "ultimate guitar tabs" in Apple
                                    App Store's or Android Market's
                                    search to find the application.
             ______ _________ ___ ___  ___   _ _______
      /\    /| ____\\_  ____//| | | |  | |  / \\      \  
     /  \  / | |_     | |   / | | | |  | | / /_\\  o  _\ 
    /_   \/  |  _|    | |  / o| | | |  | || | __ | __ \
      / /\/| | |___   | | / _ | |_| |_ | | \\/ / | | \ \
     / /   | |_____|  |_|/_/ ||___|___||_|  \_/  | |  \ \
    / /__  |/                                     \| __\ \
   /    /                                            \    \
  /    /                  **Reload**                  \    \
  |   /                  **PolyGram**                  \   |
  |  /                     **1997**                     \  |
  | /                                                    \ |
  |/                                                      \|


   

  Collected By Yokim (joachimcarlsen@hotmail.com)


  Songs:                             Tabbed By:             Time
=============================================================================
  1.  Fuel                           Unknown                4:29
  2.  The Memory Remains             Travis Grady           4:39
  3.  Devil`s Dance                  Christopher J. Rizzo   5:18
  4.  The Unforgiven II              x_myzery_x             6:36  
  5.  Better Than You                Unknown                5:21
  6.  Slither                        Unknown                5:13
  7.  Carpe Diem Baby                Unknown                6:12
  8.  Bad Seed                       Mark Lavalle           4:05
  9.  Where The Wild Things Are      Andrew M. Reasoner     6:52
  10. Prince Charming                Mathew Meldrum         6:04
  11. Low Man`s Lyric                Matt Rasmussen         7:36
  12. Attitude                       Unknown                5:16
  13. Fixxxer                        Unknown                8:15
==============================================================================




                             FUEL
                   -----------------------   
                         By Unknown 
                   www.Ultimate-Guitar.Com
                   -----------------------


  This song is originally played in Standard Eb tuning, 
  but I am translating it to Drop D

  Fuel
  As performed on "ReLoad"
  Music by James Hetfield, Kirk Hammett, and Lars Ulrich
  Lyrics by James Hetfield

  h        hammer on
  p        pull off
  b        bend
  r        return
  ~        vibrating
  /        slide up
  PM       palm muting
  x        muffled strings
  Harm.    Natural harmonics
  James    Guitar 1
  Kirk     Guitar 2
  Both     D'uh

  Whole song is played w/ distortion

Intro
e[------------------------------]-----------------
B[------------------------------]-----------------
G[------------------------------]-----------------
D[------------------------------]-4/6-6-6-4-------
A[-1-------1--------1---1-------]-x-x-x-x-x-------
D[-4p1-1-1-4p1-1-1--4p1-4p1-1-1-]-4/6-6-6-4-------

Main riff (The note in parenthesees would make it sound more like the actual
recording, but you'd have to be a very quick plucker)
e[----------------------------------------------------------
B[----------------------------------------------------------
G[----------------------------------------------------------
D[-------6-6-6-4-------6-6-6-4-------6-6-6-4-------6-6-6-4--
A[-0h4h6---------0h4h6---------0h4h6---------0h4h6----------
D[-(6)-----------(6)-----------(6)-----------(6)------------

Intro

Verse (James, x2, add main riff in between each time and before chorus)
e[-----------------------------------------------
B[-----------------------------------------------
G[-----------------------------------------------
D[-1-----------------1--------1------------------
A[-1--------4--------1--------1------8---7---6---
D[-1--------4--------1--------1------8---7---6---

Kirk                     w/ wah pedal 
e[---------------------]--------------------------
B[---------------------]--------------------------
G[---------------------]-/13-13-11--/13-13-11-----
D[-1-----------------1-]-/13-13-11--/13-13-11-----
A[-1--------4--------1-]--------------------------
D[-1--------4--------1-]--------------------------

Pre-chorus (James)
e[-----------------------------------------------
B[-----------------------------------------------
G[-----------------------------------------------
D[-----------------------------------------------
A[-----------------------------------------------
D[-1-1-2-2-3-3-4-4-5-5-6-6-7-7-8-8---------------
  Harm............................

Chorus (Both)     x6            x2       x2
e[------------------------]------------[-------------
B[------------------------]------------[-------------
G[------------------------]------------[-------------
D[------------------------]--4---------[--6----------
A[-6p4-4-6-6---6p4-4-6-6--]----6-6---6-[----8-8---8--
D[------------------------]------------[-------------

In some live versions, James plays this...
e[----------------------------------------------------------------
B[----------------------------------------------------------------
G[----------------------------------------------------------------
D[----------------------------------------------------------------
A[-1--------6--------4--------6--------1------4------6------9-----
D[-1--------6--------4--------6--------1------4------6------9-----

Intro

Main riff

Verse

Main riff

Pre-chorus

Chorus

Interlude  (James x8, Kirk x4)
e[-----------------------------------------------
B[-----------------------------------------------
G[-----------------------------------------------
D[-----------------------------------------------
A[-6--6----4-------------6--6----4--------4------
D[-6--6----4----1-1-1-1--6--6----4----1-1-4------
               PM......              PM..

Pre-solo (Kirk, w/ wah pedal, x4)
e[-------------------------------------------------------
B[-------------------------------------------------------
G[-13-13-13--11--------11-------13-13-13--11--------11---
D[-13-13-13--11--13-13-11-13----13-13-13--11--13-13-11---
A[---------------13-13----13------------------13-13------
D[-------------------------------------------------------
   
    x3                  Wah pedal off   x3
e[--------------------]---------------------------
B[--------------------]---------------------------
G[--------13-13-13-11-]-13b15r13p11---------------
D[-/11h13-------------]-------------13------------
A[--------------------]---------------------------
D[--------------------]---------------------------

GUITAR SOLO (Kirk)
e[--------------------11-------11----14b16-14p13-14p13--------------------
B[-14b16-16~~~--14b16----14b16-------------------------14-----------------
G[--------------------------------------------------------13--11-10-11----
D[---------------------------------------------------------------------11-
A[------------------------------------------------------------------------
D[------------------------------------------------------------------------

e[--------------------------------------------------13-14-16---
B[--------------------------14p13----13----13-14-16------------
G[--------------11----13h15-------15----13---------------------
D[-11-11--11h13----13------------------------------------------
A[-------------------------------------------------------------
D[-------------------------------------------------------------

e[-16b18-18-18r16~~~~~--/8-6---/8-6-----------------------------
B[-----------------------x-x----x-x-----------------------------
G[----------------------/8-6---/8-6-----------------------------
D[-----------------------------------6b8-6b8-6b8-6b8--6p4-------
A[--------------------------------------------------------4-6---
D[--------------------------------------------------------------

e[-/8-6---/8-6-----11---15-15-15----
B[--x-x----x-x-----x----x--x--x-----
G[-/8-6---/8-6-----11---15-15-15----
D[----------------------------------
A[----------------------------------
D[----------------------------------

e[----------------------------------------------------------
B[----------------------------------------------------------
G[------------------------------------------11--11p8--------
D[-------13p11----13p11------------------------------11/13--
A[-11h13-------13-------13--11-13-11-13-11------------------
D[----------------------------------------------------------

e[-----------------------------------------------
B[-----------------------------------------------
G[-----------------------------------------------
D[---------------------11-11b13r11---------------
A[-11--13-11-13-11-13----------------------------
D[-----------------------------------------------

Post-solo (Kirk, James plays chords version of chorus under this)
e[---------------------------------------------------
B[---------------------------------------------------
G[-8~~~~~~-8--10h11--8~~~~~~-8--10h11-11/13-8~~~~~~--
D[---------------------------------------------------
A[---------------------------------------------------
D[---------------------------------------------------

e[-----------------------------------------------
B[-----------------------------------------------
G[-8--10h11-11/13--11p10-11~~~--8p6-8~~~~~~------
D[-----------------------------------------------
A[-----------------------------------------------
D[-----------------------------------------------

e[-------------------------------------------------------
B[-------------------------------------------------------
G[-8--10h11-11/13--11p10-11--10p8-10--8p6-8~~~-6~~~------
D[-------------------------------------------------------
A[-------------------------------------------------------
D[-------------------------------------------------------

Chorus

Intro

Main riff

Intro


Done.

Song structure:
Intro
Main riff
Intro
Verse
Main riff
Intro
Verse
Main riff
Intro
Pre-chorus
Chorus
Intro
Main riff
Intro
Verse
Main riff
Intro
Verse
Main riff
Intro
Pre-chorus
Chorus
Intro
Interlude
Pre-solo
GUITAR SOLO
Post-solo
Chorus
Intro
Main riff
Intro

I know the song structure may look somewhat confusing, but just play it along
with the actual recording and you'll get it down in no time.  METALLICA FOREVER!!!!!
  
=============================================================================
=============================================================================
                         

                         THE MEMORY REMAINS    
                       ----------------------- 
                          By Travis Grady
                       www.Ultimate-Guitar.Com
                       -----------------------  
  

  THIS IS THE CORRECTED TAB.  I FOUND SOME MISTAKES AND I
  DIDN'T TAB THE HIGH SCREECHY PART.  I CHANGED 'EM THE BEST
  I COULD AND INCLUDED THE SCREECHY PART.

  Tab symbols:

  \  - slide
  pm - palm mute
  b  - bend
  r  - release
    )\
  b/   \ - gradual bend and release
  p  - pull off
  ~  - tremelo
  h  - hammer on
  Harm  - harmonics
  x  - fret hand mutting
  tr~ - trill


tune guitars down 1/2 step


Intro
       pm   pm     pm    pm     pm        rest
Eb------------------------------------------|
Bb------------------------------------------|
Gb------------------------------------------|
Db--7/9----9----7/9----9----7/9----9--9-----|
Ab--5/7----7----5/7----7----5/7----7--7--3--|
Eb-----0-0--0-0----0-0--0-0----0-0-------1--|
Fortune fame, mirror vane.......

Verse
The verse is divided into three different parts.  
It is the same basic riff just a little different on the endings.  
Kirk plays his riff along with Jaymz' three diffenent riffs.  
I'll put all the different parts together at the end.

Jaymz  (Riff 1)                                Riff Ending

Eb------------------------------------------|  |-----------|
Bb------------------------------------------|  |-----------|
Gb------------------------------------------|  |-----------|
Db-----------------5--7h8p7-5---------------|  |--5-----4--|
Ab------7~~5--7--7------------7-------------|  |-----2-----|
Eb--0-0-------------------------------------|  |-3-------0-|

Kirk

Eb------------------------------------------|
Bb------------------------------------------|
Gb----------------12-14h15p14---------------|
Db------14~~12-14-------------14------------|
Ab------------------------------------------|
Eb--0-0-------------------------------------|

Jaymz (Riff 2)

Eb------------------------------------------|
Bb------------------------------------------|
Gb------------------------------------------|
Db-----------------5-7h8p7-5-8~~------------|
Ab------7~~5--7--7--------------------------|
Eb----0-------------------------------------|

Jaymz (Riff 3)
                  pm......
Eb------------------------------------------|
Bb------------------------------------------|
Gb------------------------------------------|
Db-----------------------5------------------|
Ab------5h7--7---------5--------------------|
Eb----0---------0--5h7----------------------|

Here is the layout of the three different verse patterns:
After the intro:  Riff 1 (2x), Riff Ending (muted scratch,
                                              harmonics)
First part of verse:  Riff 1, Riff 2, Riff Ending
Second part of verse:  Riff 2, Riff 3, Riff Ending

Chorus

       pm   pm     pm    pm     pm
Eb----------------------------------------------|
Bb----------------------------------------------|
Gb----------------------------------------------|
Db--7/9----9----7/9----9----7/9----9------------|
Ab--5/7----7----5/7----7----5/7----7--7\5--7\5--|
Eb-----0-0--0-0----0-0--0-0----0-0----5\3--5\3--|
Fortune fame, mirror vane.......

       pm   pm     pm    pm     pm        rest
Eb------------------------------------------|
Bb------------------------------------------|
Gb------------------------------------------|
Db--7/9----9----7/9----9----7/9----9--9-----|
Ab--5/7----7----5/7----7----5/7----7--7--3--|
Eb-----0-0--0-0----0-0--0-0----0-0-------1--|
   Fortune......................but the memory remains


This fill is played after the chorus and before Jaymz starts in on the second verse.  
Riff 1 is played under this fill.  Try playing this fill through the neck pickup.  
Sounds almost exactly like the CD.

      /
    b/                            b        b   b
Eb---------------------------------------------------------|
Bb--------------------------------15-------15--15----------|
Gb--14--12------------12----12-14-14-12----14--14-12----12-|
Db----------14~~12-14----14-------------14-----------14----|
Ab---------------------------------------------------------|
Eb---------------------------------------------------------|

        b           b
Eb--------------------------------12~~12-----------------|
Bb------15----------15------12-15--------12--------------|
Gb--14--14-12----12-14---14-----------------12-----------|
Db------------14-------------------------------14---14---|
Ab-------------------------------------------------------|
Eb-------------------------------------------------------|

Eb-------------------------|
Bb---12-12--12-12-12--15---|
Gb---12-12--12-12-12--14---|
Db-------------------------|
Ab-------------------------|
Eb-------------------------|

                * bend this note up a full step and back
 Guitar 1         down really fast.
Eb------------------|
Bb------6~------8---|  This is the little interlude before
Gb----5---5---7-----|  the "Aye, ya, da, duh, oi, whatever"
Db--3-------5-------|  part.
Ab------------------|
Eb------------------|

Guitar 2
Eb---------------------------|
Bb---------------------------|
Gb-------10-----------12-----|
Db----10----10-----12----12--|
Ab--8-----------10-----------|
Eb---------------------------|
"Dance little tin goddess"

The "Da, da, da" part has about five guitars playing under it, so I'm gonna try
and tab them the best I can.

This is rhythm part under the "Aye, da, da, da" part.

Eb-----------------------------------|
Bb-----------------------------------|
Gb-----------------------------------|
Db--2--4-----2-4-2--2--4--5--2-4-2---|
Ab--2--4--5--0-2-2--2--4--5--0-2-2---|
Eb--0--2--5------0--0--2--3------0---|

These next two parts are played together with the "Da, da, da" part.  It's
exactly the same as what she sings.

Eb-----------------------------------------------------|
Bb-----------------------------------------------------|
Gb-----------------------------------------------------|
Db---------------------7-7-9p7-------------------------|
Ab--7-9-10-9--10-9-5-----------9-7---7-9-10-9--10-9-10-|
Eb-----------------------------------------------------|

Eb---------------|
Bb---------------|
Gb---------------|
Db--7-7-9p7------|
Ab----------9-7--|
Eb---------------|

Eb-------------------------------------------------------|
Bb------------------------10-10-12p10--------------------|
Gb--9-11-12-11--12-11-7---------------12-9---9-11-12-11--|
Db-------------------------------------------------------|
Ab-------------------------------------------------------|
Eb-------------------------------------------------------|

Eb-------------------------------|
Bb-------------10-10-12p10-------|
Gb--12-11-12---------------12-9--|
Db-------------------------------|
Ab-------------------------------|
Eb-------------------------------|

Finally figured out the high screechy part!!!  One guitar
plays the high ass part while the other doubles it lower.
The high part is played with some kind of messed up pitch
shifter effect or something.

Guitar 1
Eb--------12--------14-15----------15--------17----14--|
Bb-----12----12--12-------12----15----12-/15----12-----|
Gb---------------------------12------------------------|
Db--14-------------------------------------------------|
Ab-----------------------------------------------------|
Eb-----------------------------------------------------|

Guitar 2

Eb-----------------------------------------------------|
Bb-----------------------------------------------------|
Gb----------------------0------------------------------|
Db--------2----------4---------------0--------7-----4--|
Ab-----2-----2---2---------2-----0-----2--/5-----2-----|
Eb--0-------------------------3------------------------|


   pm.............................................
Eb-----------------------------------------------------|
Bb-----------------------------------------------------|
Gb-----------------------------------------------------|
Db--5-5-5-5-5-5-5-5-5-5-5-5-5-5-5-5-5-5-5-5-5-5-5-5----|
Ab--5-5-5-5-5-5-5-5-5-5-5-5-5-5-5-5-5-5-5-5-5-5-5-5----|
Eb--3-3-3-3-3-3-3-3-3-3-3-3-3-3-3-3-3-3-3-3-3-3-3-3----|
"Ash to ash, dust to dust, fade to black, but the memory remains"

Solo before the last "da, da, da" part.

 w/ wah                        b
Eb-3-3-3-3-3-3-3-0---0-3-5p3p0-5-------------|
Bb-------------------------------------------|
Gb--------------------------------2~2~0---0--|
Db--------------------------------------2----|
Ab-------------------------------------------|
Eb-------------------------------------------|
     b
Eb--------------|
Bb--15----------|
Gb--14-12----12-|
Db--------14----|
Ab--------------|
Eb--------------|
        b           b
Eb--------------------------------12~~12------------|
Bb------15----------15------12-15--------12---------|
Gb--14--14-12----12-14---14-----------------12------|
Db------------14-------------------------------14---|
Ab--------------------------------------------------|
Eb--------------------------------------------------|


Eb--------------|
Bb--------------|
Gb--15-----17---|
Db--14-----16---|
Ab--------------|
Eb--------------|


Fortune fame, mirror vane, gone insane, but the memory remains

Heavy rings on fingers wave
Another star denies the grave
See the nowhere crowd cry the nowhere tears of honor
Like the twisted vines that grow
That hide and swallow mansions whole
And dim the light of an already faded prima donna

chorus

Heavy rings on cigarettes
Up tp lips that time forgets
While the Hollywood sun sets behind your back
And can't the band play on?
Just listen, they play my song

Ash to ash
Dust to dust
Fade to black

chorus

Dance little tin goddess
da, da, da.....

/\/\/\/\/\/\/\/\/\/\/\/\/\/\/\/\/\/\/\/\/\/\/\/\/\/\/\/\/\/\

Question, comments, abuse?  Email trgrady@vt.edu.
Crush your breakfast on a mirror

=============================================================================
=============================================================================


Devils Dance Tab by Metallica, www.Ultimate-Guitar.Com



Date: Fri, 14 Nov 1997 19:19:41 -0500 (EST)
From: Christopher J Rizzo 
Subject: Devil's Dance - Metallica



                    METALLICA-DEVIL'S DANCE
                    -----------------------
                        Transcribed by 
                     Christopher J. Rizzo
                    -----------------------
                           11/13/97

This is based on the track from ReLoad. This is in 4/4 time but parts
of it have a strong swing feel. Also notice the guitars are tuned at 
standard pitch except for the low E string which is tuned down to D. 
Remember for the best crunch down-pick EVERYTHING! The lyrics are
at the end of the tab.

TUNING: Drop-D

Intro:
 
  (Intro bass riff tabbed for guitar)
E|------------------------------------|
B|------------------------------------|
G|------------------------------------| REPEATS
D|------------------------------------| THROUGHOUT
A|------------------------------------| INTRO
D|--6~--0---0---0-3-0---0-5-3-0-3-5---|


E|-----------|--------------|----------|---------------|
B|-----------|--------------|----------|---------------|
G|-----------|--------------|----------|---------------| PLAY 
D|-----------|--------------|----------|---------------|  1X
A|--8-8------|--8-8-8-8-8---|--8-8-----|--0-0-0-0------|
D|--8-8------|--8-8-8-8-8---|--8-8-----|--0-0-0-0------|
    x x         x x x x        x x        m m m m

   
E|---------------------------------|
B|---------------------------------|
G|---------------------------------| PLAY
D|---------------------------------|  8X
A|--0-0-0-0---0-0---0-0---0-0--0---|
D|--0-0-0-0---0-0---0-0---0-0--0---|
    m m m m   m m   m m   m m  m 
   
E|-----------------------------------------------------|
B|-----------------------------------------------------|
G|-----------------------------------------------------|
D|-----------------------------------------------------|
A|--0--------------------------------------------------|
D|--0--------------------------------------------------|
    ^ Let Ring out about 16 beats.... 

  
E|-------------|------------|-----------|--------------|
B|-------------|------------|-----------|--------------|
G|-------------|------------|-----------|--------------|
D|-------------|------------|-----------|--------------|
A|-/5----------|-/5---------|-/5--------|-/5-----------|
D|-----6~------|-----5~-----|-----6~----|-----5~-------|


Main Riff: with swing feel.
       
E|------------------------|---------------------------|
B|------------------------|---------------------------|
G|------------------------|---------------------------| PLAY
D|------------------------|---------------------------|  2X
A|--5-----------5---------|--5------------5-----------|
D|------6~----------5~----|------6~----------5--3p0---|


E|-------|
B|-------|
G|-------| PLAY
D|-------|  1X
A|-------|
D|--3p0--|

Verse:

E|-------------------------------|
B|-------------------------------|
G|-------------------------------| PLAY
D|-------------------------------|  3X
A|--0-0-0-0---0-0-----0---0---0--|
D|--0-0-0-0---0-3-----0---0---0--|
    m m m m   m       m   m   m

E|-------------------------------|
B|-------------------------------|
G|-------------------------------| PLAY
D|-------------------------------|  1X
A|--0-0-0-0---0-0----------------|
D|--0-0-0-0---0-3-----5b6r5--3---|
    m m m m   m 
                     
E|-------------------------------|--------------------------------|
B|-------------------------------|--------------------------------|
G|-------------------------------|--------------------------------| PLAY
D|-------------------------------|--------------------------------|  1X
A|--3-3-3-3---3-3---3-3---3-3--3-|--3-3-3-3---3-3---3-3-----------|
D|--3-3-3-3---3-3---3-3---3-3--3-|--3-3-3-3---3-3---3-3-5b6r5--3--|
    m m m m   m m   m m   m m       m m m m   m m   m m

E|-------------------------------|
B|-------------------------------|
G|-------------------------------| PLAY
D|-------------------------------|  1X
A|--0-0-0-0---0-0-----0---0---0--|
D|--0-0-0-0---0-3-----0---0---0--|
    m m m m   m       m   m   m

E|-------------------------------|
B|-------------------------------|
G|-------------------------------| PLAY
D|-------------------------------|  1X
A|--0-0-0-0---0-0----------------|
D|--0-0-0-0---0-3-----5b6r5--3---|
    m m m m   m 

E|-------------------------------|--------------------------|
B|-------------------------------|--------------------------|
G|-------------------------------|--------------------------| PLAY
D|-------------------------------|--------------------------|  1X
A|--3-3-3-3---3-3---3-3---3-3--3-|--2-2-2-2---2-2---2-2-----|
E|--3-3-3-3---3-3---3-3---3-3--3-|--2-2-2-2---2-2---2-2-----|
    m m m m   m m   m m   m m       m m m m   m m   m


Bridge:

E|---------------------------|----------------------------|
B|---------------------------|----------------------------|
G|---------------------------|----------------------------| PLAY
D|---------------------------|----------------------------|  1X
A|--5-----------5------------|---5-----------5------------|
D|------6~----------5~-------|-------6~----------5~--3p0--|


E|-------|
B|-------|
G|-------| PLAY
D|-------|  1X
A|-------|
D|--3p0--|


Chorus:

E|---------------------------------|---------------------------|
B|---------------------------------|---------------------------|
G|---------------------------------|---------------------------| PLAY
D|---------------------------------|---------------------------|  3x
A|--6-------6-------6-------6---3--|--0-----3-----3-----0--3---|
D|--6---6-6-6---6-6-6---6-6-6---3--|--0--0--3-----3-----0--3---|
        m m     m m     m m              m                   

E|------------------|
B|------------------|
G|------------------| PLAY
D|------------------|  1X
A|--6---------------|
D|--6---------------|


Repeat Main Riff
Repeat Verse
Repeat Bridge
Repeat Chorus

Solo Rhythm:

   
E|---------------------------------|
B|---------------------------------|
G|---------------------------------| PLAY
D|---------------------------------|  4X
A|--0-0-0-0---0-0---0-0---0-0--0---|
D|--0-0-0-0---0-0---0-0---0-0--0---|
    m m m m   m m   m m   m m  m 

E|---------------------------------|
B|---------------------------------|
G|---------------------------------| PLAY
D|---------------------------------|  3X
A|--3-3-3-3---3-3---3-3---3-3--3---|
D|--3-3-3-3---3-3---3-3---3-3--3---|
    m m m m   m m   m m   m m  m  

E|---------------------------------|
B|---------------------------------|
G|---------------------------------| PLAY
D|---------------------------------|  1X
A|--3-3-3-3---3-3---3-3------------|
D|--3-3-3-3---3-3---3-3--5b6r5--3--|
    m m m m   m m   m m    

E|-------------------------------|
B|-------------------------------|
G|-------------------------------| PLAY
D|-------------------------------|  4X
A|--0-0-0-0---0-0-----0---0---0--|
D|--0-0-0-0---0-3-----0---0---0--|
    m m m m   m       m   m   m

E|---------------------------------|---------------------------|
B|---------------------------------|---------------------------|
G|---------------------------------|---------------------------| PLAY
D|---------------------------------|---------------------------|  3x
A|--6-------6-------6-------6---3--|--0-----3-----3-----0--3---|
D|--6---6-6-6---6-6-6---6-6-6---3--|--0--0--3-----3-----0--3---|
        m m     m m     m m              m                   

E|------------------|
B|------------------|
G|------------------| PLAY
D|------------------|  1X
A|--6---------------|
D|--6---------------|


E|-------------|------------|-----------|--------------|
B|-------------|------------|-----------|--------------|
G|-------------|------------|-----------|--------------| PLAY 
D|-------------|------------|-----------|--------------|  1X
A|-/5----------|-/5---------|-/5--------|-/5-----------|
D|-----6~------|-----5~-----|-----6~----|-----5~-------|

      
E|------------------------|---------------------------|
B|------------------------|---------------------------|
G|------------------------|---------------------------| PLAY
D|------------------------|---------------------------|  1X
A|--5-----------5---------|--5------------5-----------|
D|------6~----------5~----|------6~----------5--3p0---|


E|------------------------|---------------------------|
B|------------------------|---------------------------|
G|------------------------|---------------------------| PLAY
D|------------------------|---------------------------|  1X
A|--5-----------5---------|--5-------6---------6--6---|
D|------6~----------5~----|------6~--6---------6--6---|


Repeat Verse
Repeat Bridge
Repeat Chorus
END


LYRICS:

Yeah, I feel you too
Feel, those things ya do
In your eyes I see a fire that burns just for you
That's running through
deep inside you know, seeds I plant will grow 

    One day we'll see
    The Dance come down to me
    Yeah come on come on now take the chance
    That's right
    Lets dance 

Snake, I am the snake
Tempting, that bite you take
Let me make your mind, leave yourself behind
Be not afraid
I've got what ya need, hunger I will feed 

    One day we'll see
    The dance come down to me
    Come on, come on now take a chance
    haha! 
    Come dance

Come dancin'
(solo)

    One day you will see
    The dance come down to me
    Come on, come on now take a chance
    
(more solo) 

Yeah, I feel you too
Feel, those things you do
In your eyes I see a fire that burns just for you
Thats running through
Deep inside you know, seeds I plant will grow 

   One day you'll see
   The dance come down to me
   Come on, come on now take a chance
   That's right
   Let's dance! 

Lyrics culled form Tim Meyers "Nothing Else Matters"
web page (http://www.satelink.net/~tmm/home.html).

==================================================================
Tabbed by Christopher J. Rizzo
cjr68797@pegasus.cc.ucf.edu
11/07/97
==================================================================
Notation:
 m = Palm mute note or chord above.
 x = Mute by gently placing left hand on string(s)
     and striking with pick.
 ~ = Vibrato or slight string bend.
 / = Slide up to note.
 \ = Slide down from note.
 p = Pull-off.
 b = Bend note.
 r = Release bend.
=============================================================================
=============================================================================

  

                    THE UNFORGIVEN II    
                 -----------------------
                     By x_myzery_x
                 www.Ultimate-Guitar.Com
                 -----------------------


  Song: Unforgiven II
  Artist: Metallica
  Album: I forget what it's called
  Transcripter: x_myzery_x

  THIS SONG KICKS ASS!!!!

  b = Bend
  h = Hammer
  r = Reverse bend
  p = Pull-off
  ~ = Vibration

  Intro:

  1st guitar play this [this was played by Kirk] :
|----------------------------------------------------------------|
|----------------------------------------------------------------|
|-2-2--4/5--7\5/7~-7/9\7--5/7\5--2-2--4/5--7\5/7~--7/9\7~--------|
|-2-2--4/5--7\5/7~-7/9\7--5/7\5--2-2--4/5--7\5/7~--7/9\7~--7/9\7-|   
|-0-0--2/3--5\3/5~-5/7\5--3/5\3--0-0--2/3--5\3/5~--5/7\5~--7/9\7-|    
|----------------------------------------------------------5/7\5-|

2nd guitar play this [this was played by jaymz] :
|----------------------------------------------------------------|
|----------------------------------------------------------------|
|-2-2--4/5--7\5/---7/9\7--5/7\5--5-2--4/5--7\5/----7/9\7~--------|
|-2-2--4/5--7\5/5~-7/9\7--5/7\5--5-2--4/5--7\5/5~--7/9\7~--7/9\7-|    
|-0-0--2/3--5\3/5~-5/7\5--3/5\3--3-0--2/3--5\3/5~--5/7\5~--7/9\7-|   
|---------------3~-----------------------------3~----------5/7\5-|

Verse 1:
|-------0----------------3-3------3--------------------|[This will  
|---------1------------1/3-3h5bp3---5bp3-0-0---1h3-1-0-| work as the
|-----2-------------0------------------------0---------| plucking 
|---2-------------2------------------------------------| style will 
|-0---------0-2-3--------------------------------------| always 
|------------------------------------------------------| change]    

Verse 2:
|-------0-----------3---3--------3--------------------|[This is a 
|---------1-------1---1---1--1/3---5bp3-0-0---1h3-1-0-| bit
|-----2-------------------------------------0---------| different]
|---2-------------------------------------------------|
|-0---------0-2-3-------------------------------------|
|-----------------------------------------------------|

Verse 3:
1st guitar.....
|-5---5---3---3---3---3----------|                                   
|-5---5---3---3---3---3---5---5--|                                   
|-5---5---5---5---5---5---5---5--|                                   
|--7---7---5---5---5---5--6---6--|                                
|--------------------------7---7-|                                   
|--------------------------------|   

2nd guitar.....
|------------------------------|[the echo level must be
|-6bp5~~~---------1h3~~~-------| high while playing this] 
|------------------------------|    
|------------------------------|
|------------------------------|
|------------------------------|

Verse 4:
|-1---1---1---1---3---3---1---1----0-|
|-3---3---3---3---3---3---3---3----0-|                                
|-2---2---2---2---2---2---2---2----2-|
|--0---0---0---0---0---0---0---0---2-|
|----------------------------------0-|
|------------------------------------|

Verse 5:
|-----1-----------------------------0-|
|-------3---------------------------0-|
|-------------2-3-------------------2-|
|---0-------0------------5-----3-5--2-|
|-0-------0----------2-3-----2------0-|
|-----------------3--------1----------|

Chorus:
|--------------------------------------------------------|
|-0h1--1--1--1--1p0--0--0--0--1h3--3--3--3--3p1--1--1--1-|
|-0----0--0--0--0----0--0--0--2----2--2--2--2----2--2--2-|
|--------------------------------------------------------|
|--------------------------------------------------------|
|--------------------------------------------------------|

|-----------------------------------------------------------|
|-0h1--1--1--1--1p0--0--0--0--1h3--3--3--3--3--1--0--1--0---|
|-0----0--0--0--0----0--0--0--2----2--2--2----------------2-|
|-----------------------------------------------------------|
|-----------------------------------------------------------|
|-----------------------------------------------------------|

Chorus fill in:
|-------------------|
|-------------------|
|-2-4-4/5-5-5-5-4-0-|
|-------------------|
|-------------------|
|-------------------|

Solo:
|----------------------------------------------|
|-----------------------------13-15br-13----13-|
|-2-2-4-5-7b-5h7p5-4-5----/14------------14----|
|----------------------5-----------------------|
|----------------------------------------------|
|----------------------------------------------|

|------15-----15-----15------------------|
|-15b----15b----15b----15b-15br-13----13-|
|----------------------------------14----|
|----------------------------------------|
|----------------------------------------|
|----------------------------------------|

|-15b--15b-15b-15b------17------------17--------|
|-------------------/17----17-20b-/17----17-20b-|
|-----------------------------------------------|
|-----------------------------------------------|
|-----------------------------------------------|
|-----------------------------------------------|

|-----17------------------------------------|
|-/17----17-20br-17----------19-17----19-17-|
|-------------------19-17----19-17----19-17-|
|-------------------------19-------19-------|
|-------------------------------------------|
|-------------------------------------------|

|---------------------------------|
|----19-17------------------19-17-|
|----19-17----17-19br-17----19-17-|
|-19-------19------------19-------|
|---------------------------------|
|---------------------------------|

End:
|------------------------------------------------------|
|------------------------------------------------------|
|--2-2~--2-2-4-4~---2~--2-7-7~--2-2~--2-4~~------------|
|--2-2~--2-2-4-4~---2~--2-7-7~--2-2~--2-4~~--5~~--2~~--|
|--0-0~--0-0-2-2~---0~--0-5-5~--0-0~--0-2~~--5~~--2~~--|
|--------------------------------------------3~~-------|


=============================================================================
=============================================================================


                             BETTER THAN YOU
                         -----------------------
                              By Unknown
                         www.ultimate-guitar.com
                         -----------------------


  Transcribed by www.mikesguitarsite.co.uk 
  Words and Music by James Hetfield & Lars Ulrich 

  Gtr I (Eb Ab Db Gb Bb Eb) - 'James Hetfield - Rhythm w/dist'
  Gtr II (Eb Ab Db Gb Bb Eb) - 'Kirk Hammett - Rhythm w/dist'
  Gtr III (Eb Ab Db Gb Bb Eb) - 'Kirk Hammett - Lead w/dist'
  Gtr IV (Eb Ab Db Gb Bb Eb) - 'James Hetfield - Lead w/dist'

  Intro
    Q=160
   4/4
    Gtr I
  W          W          W          Q   E   E  H
|----------|----------|----------|-----------------|
|----------|----------|----------|-----------------|
|----------|----------|----------|-----------------|
|----------|----------|----------|-----------------|
|----------|----------|----------|-----------------|
|----------|----------|----------|----<2>-<2>------|


                              Gtr II
  W             W               E E E E Q   Q    W               W
                                |   | | |
                                x   x x x

  H    E E Q    Q.   E E E Q    H       E E Q    Q.   E E E Q    H    E E Q
|-------------|---------------|----------------|---------------|-------------|
|-------------|---------------|----------------|---------------|-------------|
|-------------|---------------|----------------|---------------|-------------|
|------5-6-7--|-5------2------|---------5-6-7--|-5------2------|------5-6-7--|
|------5-6-7--|-5------2------|---------5-6-7--|-5------2------|------5-6-7--|
|------3-4-5--|-3----0-0------|---------3-4-5--|-3----0-0------|------3-4-5--|
              |-Rhy Fig 1        end Rhy Fig 1-|

w/Rhy Fig 1 x2
  Gtr II
    E    E    E    E    E    E    E    E     E   E   E   E   E   E   E   E
|-----------------------------------------|---------------------------------|
|-----------------------------------------|---------------------------------|
|-----------------------------------------|---------------------------------|
|-----------------------------------------|---------------------------------|
|-----------------------------------------|---------------------------------|
|-<12>-<12>-<12>-<12>-<12>-<12>-<10>-<10>-|-<9>-<9>-<9>-<9>-<8>-<8>-<7>-<7>-|


   E   E   E   E   E   E   E   E     E   E   E   E  E E Q
|---------------------------------|------------------------|
|---------------------------------|------------------------|
|---------------------------------|------------------------|
|---------------------------------|-----------------5-6-7--|
|---------------------------------|-----------------5-6-7--|
|-<7>-<7>-<6>-<6>-<6>-<5>-<5>-<5>-|-<5>-<4>-<4>-<3>-3-4-5--|


    Gtrs I, II
             PM--|     PM--|
    Q.   E E E E E   E E E E E E Q   4x
||-----------------|-----------------||
||o----------------|----------------o||
||-----------------|-----------------||
||--5------2-------|-2-------5-6-7---||
||o-5------2-------|-2-------5-6-7--o||
||--3----0-0-0-0-0-|-0-0-0-0-3-4-5---||
 |-Rhy Fig 2           end Rhy Fig 2-|


 Verse 1
  Gtr II
|-Rhy Fig 3A                                             end Rhy Fig 3A-|
  G5                 A5                 G5   E E5                G5G#A5
  Q  E E  E  E E E   Q  E E  E  E E E   Q.   E E E E E   E E E E E E Q
  |    |     |   |   |    |     |   |   |    | | | | |   | | | | | | |
  /    /     /   /   /    /     /   /   /    o / / / /   / / / / / / /

  Gtr I
                                                 PM--|     PM--|
  Q  E E +E  E Q     Q  E E +E  E Q     Q.   E E E E E   E E E E E E Q
|------------------|------------------|----------------|----------------|
|------------------|------------------|----------------|----------------|
|------------------|------------------|----------------|----------------|
|-5--5-5-(5)-5-5---|-7--7-7-(7)-7-7---|-5------2-------|-2-------5-6-7--|
|-5--5-5-(5)-5-5---|-7--7-7-(7)-7-7---|-5------2-------|-2-------5-6-7--|
|-3--3-3-(3)-3-3---|-5--5-5-(5)-5-5---|-3----0-0-0-0-0-|-0-0-0-0-3-4-5--|
|-Rhy Fig 3                                               end Rhy Fig 3-|


Rhy Fig 3 + 3A

|-Rhy Fig 4A
  G5                 A5                 C5                D5
  Q  E E  E  E E E   Q  E E  E  E E E   Q  E E +E  E Q    Q  E E    E  E Q
  |    |     |   |   |    |     |   |   |    |  |  | |    |    |    |  | |
  /    /     /   /   /    /     /   /   /    /  /  / /    /    /    /  / /

  Q  E E +E  E Q     Q  E E +E  E Q     Q  E E +E  E Q    Q  E E   +E  E Q
|------------------|------------------|-----------------|-------------------|
|------------------|------------------|-----------------|-------------------|
|------------------|------------------|-5--5-5-(5)-5-5--|-7--7---------7-0--|
|-5--5-5-(5)-5-5---|-7--7-7-(7)-7-7---|-5--5-5-(5)-5-5--|-7--7-7b9r(7)-7-0--|
|-5--5-5-(5)-5-5---|-7--7-7-(7)-7-7---|-3--3-3-(3)-3-3--|-5--5-5---(5)-5-0--|
|-3--3-3-(3)-3-3---|-5--5-5-(5)-5-5---|-3--3-3-(3)-3-3--|-5--5--------------|
|-Rhy Fig 4

                                                           end Rhy Fig 4A-|
  G5                 A5                F5                  G5X
  Q  E E  E  E E E   Q  E E  E  E Q     Q.     E +Q   Q     E E Q  H
  |    |     |   |   |    |     | |     |      |  |   |     |
  /    /     /   /   /    /     / /     /      /  /   /     /

  Q  E E +E  E Q     Q  E E +E  E Q     Q    Q    Q   Q     E E Q  E E Q
|------------------|-----------------|-------------------|----------------||
|------------------|-----------------|-------------------|----------------||
|------------------|-----------------|-10---10---10--10--|-12-------------||
|-5--5-5-(5)-5-5---|-7--7-7-(7)-7-7--|-10---10---10--10--|-12------5-6-7--||
|-5--5-5-(5)-5-5---|-7--7-7-(7)-7-7--|--8----8----8---8--|-10------5-6-7--||
|-3--3-3-(3)-3-3---|-5--5-5-(5)-5-5--|--8----8----8---8--|-10------3-4-5--||
                                                            end Rhy Fig 4-|

   Chorus
    Gtrs I, II                                       |-Gtr II plays notes in ()*
             PM--|     PM--|                   PM--|         PM|
    Q.   E E E E E   E E E E E E Q    Q.   E E E E E   E  E  E E E E Q
||-----------------|----------------|----------------|--------------------||
||o----------------|----------------|----------------|-------------------o||
||-----------------|----------------|----------------|--------------------||
||--5------2-------|-2-------5-6-7--|-5------2-------|-2-(2)-----5-6-7----||
||o-5------2-------|-2-------5-6-7--|-5------2-------|-2-(2)-----5-6-7---o||
||--3----0-0-0-0-0-|-0-0-0-0-3-4-5--|-3----0-0-0-0-0-|-0--0--0-0-3-4-5----||
                                                     |-*Rhy Fill 1

   Verse 2
w/Rhy Fig 3 x4
    Gtr II
                                                   PM|     PM|   PM
    Q.    E +E  E Q    Q.    E +Q    Q    Q.   E E E E E   E E E E E E Q
||-------------------|------------------|----------------|------------------||
||o-------0-(0)------|-------0-(0)------|----------------|-----------------o||
||--------------0----|---------------0--|----------------|------------------||
||--5-------------5--|-7----------------|-5------2-----2-|-----2---5-6-7----||
||o-5----------------|-7----------------|-5------2-----2-|-----2---5-6-7---o||
||--3----------------|-5----------------|-3----0-0-0-0-0-|-0-0-0-0-3-4-5----||
 |-Rhy Fig 5                                                  end Rhy Fig 5-|


w/Rhy Fig 4 + 4A
  Gtrs III, IV
  Q  E E +E  Q   E    H       +E   E  Q
|------------------|----------------------|
|------------8---8s|=10------(10)-10-10---|
|------7-(7)-------|----------------------|
|------------5---5s|==7-------(7)--7--7---|
|------5-(5)-------|----------------------|
|------------------|----------------------|
  Q  E E +E  Q   E    H       +E   E  Q



  Q.    E +Q    Q     E  E  E  E    E   E  E  E
|------------------|----------------------------|
|-8-----8-(8)---8S=|=10-10-10-10---10--10-10-10-|
|------------------|----------------------------|
|-5-----5-(5)---5S=|==7--7--7--7----7---7--7--7-|
|------------------|----------------------------|
|------------------|----------------------------|
  Q.    E +Q    Q     E  E  E  E    E   E  E  E



  Q.    E +Q    Q     Q  Q     E   E  E  E
|-------------------|----------------------|
|-8-----8-(8)---8S==|=5--5---/10--10-10-10-|
|-------------------|----------------------|
|-5-----5-(5)---5S==|=7--7-----7---7--7--7-|
|-------------------|----------------------|
|-------------------|----------------------|
  Q.    E +Q    Q     Q  Q     E   E  E  E



    Q.      E  +Q    Q     E E Q  H
|-----------------------|----------------||
|-/13------13-(13)--13S=|=15-------------||
|-----------------------|----------------||
|-/10------10-(10)--10S=|=12-------------||
|-----------------------|----------------||
|-----------------------|----------------||
    Q.      E  +Q    Q     E E Q  H


   Chorus
w/Rhy Fig 2 x2
                    1.                  2.
    Gtr II
             PM--|     PM--|                 PM|
    Q.   E E E E E   E E E E E E Q       E E E E E E Q
||-----------------|-----------------||------------------|
||o----------------|----------------o||----3-------------|
||-----------------|-----------------||----4-------------|
||--5------2-------|-2-------5-6-7---||--2-2-----5-6-7---|
||o-5------2-------|-2-------5-6-7--o||--2-------5-6-7---|
||--3----0-0-0-0-0-|-0-0-0-0-3-4-5---||--0---0-0-3-4-5---|


Rhy Fig 2 x2 (w/Rhy Fill 1 on last bar)


   Bridge
    $
      ~~     ~~                            ~~     ~~
    E Q.   E Q.     E E E   +E  Q  E E   E Q.   E Q.     H    H
||----------------|--------------------|---------------|------------||
||o---------------|--------------------|---------------|-----------o||
||--2-------------|-2-4-4b5r(4)-2--x-x-|-2-------------|------------||
||--2-4----2-4----|-2-4-4b5r(4)-2--x-x-|-2-4----2-4----|-2----3-----||
||o---4----2-4----|--------------------|---4----2-4----|-2----3----o||
||----------------|--------------------|---------------|-0----1-----||
 |-Rhy Fig 6                                          end Rhy Fig 6-|

  Gtr II
    ~~~~~~~~~~~~~~~~~~~~
  E Q.   +H         +H            E E E   +E
|-----------------|---------------------------|
|-4---------------|---------------4-6-6b7r(6)-|
|-4---------------|---------------4-6-6b7r(6)-|
|---6----(6)------|-(6)-----------------------|
|-----------------|---------------------------|
|-----------------|---------------------------|
|
| Gtr I
|   ~~       ~~
| E Q.    E  Q.      E  E E   +E  Q   E    E
|-----------------|---------------------------|
|-----------------|---------------------------|
|-4---------------|--4--6-6b7r(6)-4---x----x--|
|-4-6-----4--6----|--4--6-6b7r(6)-4---x----x--|
|---6-----4--6----|---------------------------|
|-----------------|---------------------------|
|-Rhy Fig 7

                              To Coda
    ~~~~~~~~~
  E Q.   +H         H.       +Q
|-----------------|-------------------|
|-4---------------|-4--------(4)b4.5--|
|-4---------------|-4--------(4)b4.5--|
|---6----(6)------|-------------------|
|-----------------|-------------------|
|-----------------|-------------------|
|
|   ~~       ~~
| E Q.    E  Q.     H     H
|-----------------|-------------------|
|-----------------|-------------------|
|-4---------------|-------------------|
|-4-6-----4--6----|-4-----5-----------|
|---6-----4--6----|-4-----5-----------|
|-----------------|-2-----3-----------|


                                                                Gtr III
    ~~     ~~                                        ~~
  E Q.   E Q.     E E E   +E  E E E E   E E   +Q   E Q.     H       E  E  Q
|---------------|---------------------|-------------------|------------------||
|-4------4------|-4-6-6b7r(6)-4---4---|-4-6b7r(6)--4------|-4------12-13-14--||
|-4------4------|-4-6-6b7r(6)-4---4h6-|-4-6b7r(6)--4------|-4------12-13-14--||
|---6------6----|---------------6-----|--------------6----|------------------||
|---------------|---------------------|-------------------|------------------||
|---------------|---------------------|-------------------|------------------||
|                                                           W
|
|   ~~     ~~                             ~~~~       ~~
| E Q.   E Q.     E E E   +E  Q   E E   E Q.       E Q.     E E Q   E  E  Q
|---------------|---------------------|-------------------|------------------||
|---------------|---------------------|-------------------|-4-6-4------------||
|-4-------------|-4-6-6b7r(6)-4---x-x-|-4-----------------|-4-6-4------------||
|-4-6----4-6----|-4-6-6b7r(6)-4---x-x-|-4-6--------4-6----|---------5--6--7--||
|---6----4-6----|---------------------|---6--------4-6----|---------5--6--7--||
|---------------|---------------------|-------------------|---------3--4--5--||
                                                               end Rhy Fig 7-|

 Guitar Solo
w/Rhy Fig 2 + 2A x4
  Gtr III
                     ~~      ~~~~~~~~~    ~~
   Q         +Q      Q    E  E    +E   E  Q    E  E  Q
|------------------------------|------------------------|
|-12b12.5===(12)r--------------|--------------12-13-14--|
|-12b12.5===(12)r--------------|--------------12-13-14--|
|-------------------14---12-14-|-(14)-14-14-------------|
|------------------------------|------------------------|
|------------------------------|------------------------|


                     ~~      ~~~~~~~~~
   Q         +Q      Q    E  E    +E   E  E  E  E     +E   E  E
|------------------------------|--------------------------------|
|-12b12.5===(12)r--------------|--------------------------------|
|-12b12.5===(12)r--------------|---------------14b16r(14)-12-14-|
|-------------------14---12-14-|-(14)-14-14-12------------------|
|------------------------------|--------------------------------|
|------------------------------|--------------------------------|


                     ~~      ~~~~~~~~~
   Q         +Q      Q    E  E    +E   E  E  E  E  E  E  E
|------------------------------|---------------------------|
|-12b12.5===(12)r--------------|---------------12----12-14-|
|-12b12.5===(12)r--------------|---------------12----12-14-|
|-------------------14---12-14-|-(14)-14-14-14----14-------|
|------------------------------|---------------------------|
|------------------------------|---------------------------|


                     ~~      ~~~~~~~~~    ~~
   Q         +Q      Q    E  E    +E   E  Q    E  E  E  E
|------------------------------|--------------------------|
|-12b12.5===(12)r--------------|--------------12----------|
|-12b12.5===(12)r--------------|--------------12----12----|
|-------------------14---12-14-|-(14)-14-14------------14-|
|------------------------------|-----------------14-------|
|------------------------------|--------------------------|


w/Rhy Fig 3 + 3A x2
  Gtr III
   E  E E  E  E   E E  E    E  E E  E  E   E E  E
|------------------------|------------------------|
|-12-12---12-----12---12-|-14-14---14-----14---12-|
|-12-12---12-----12---12-|-14-14---14-----14---12-|
|------------------------|------------------------|
|------------------------|------------------------|
|------------------------|------------------------|



                                                        ~~~~~~~~~~
   E     +E   E  E  E  E E  E        +E   +E   E  E  S  E.    +Q
|---------------------------------|--------------------------------|
|-14b15r(14)-12----12-14---14b15==|=(14)r(14)-12-------------------|
|-14b15r(14)-12----12-14---14b15==|=(14)r(14)-12----12-------------|
|---------------14----------------|--------------14----14----(14)--|
|---------------------------------|--------------------------------|
|---------------------------------|--------------------------------|



   E  E E  E  E   E E  E    E     +E   E  E  E   E  E E
|------------------------|------------------------------|
|-12-12---12-----12---12-|-14b15r(14)-12-14-------------|
|-12-12---12-----12---12-|-14b15r(14)-12-14-12----------|
|------------------------|----------------------14------|
|------------------------|-------------------------14---|
|------------------------|------------------------------|



   S  S  S  S  S  S  S  S  S  S  S  S  S  S  S  S    S  S  S  S  S  S  S  S  S  S  e  S  S  E
|-------------------------------------------------|-------------------------------------------|
|-------------------------------------------------|-------------------------------------------|
|-14p12----12-14p12-14p12----12-14p12-14p12----12-|-14p12----12-14p12-14p12----12-14-14p12----|
|-------14----------------14----------------14----|-------14----------------14-------------14-|
|-------------------------------------------------|-------------------------------------------|
|-------------------------------------------------|-------------------------------------------|


w/Rhy Fig 4 + 4A (1st 6 bars only)
   ~~~~~                          ~~~~~~~~~~~~~~~~~~~~
   H          E   E  E  E        +H.             +E   +E
|------------12---------------|---------------------------|
|-15b17----------15-12--------|---------------------------|
|-------------------12-14b16==|=(14)------------(14)r(14)-|
|-----------------------------|---------------------------|
|-----------------------------|---------------------------|
|-----------------------------|---------------------------|



                                                               ~~~~~~~~~~
   E      +E   E  E  S   E.   E  E        +E    E  E  E    S   E.    +Q
|--------------------------------------|------------------------------------|
|--------------------------------------|------------------------------------|
|-14pb15r(14)-12----12--14------14b16==|=(14)r-14-12------12----------------|
|----------------14--------------------|-------------14-------14----(14)----|
|--------------------------------------|------------------------------------|
|--------------------------------------|------------------------------------|


   E  S  S  E  E  S   S  E  E  S  S    E  E  S  S  E  E   E  E  E
|-----------------------------------|-----------------------------|
|-12----------12-----------12-------|----12-----------------12-14-|
|-12----------12-----------12-------|----12-----------------12-14-|
|----14p12-------14p=12-------14p12-|-14----14p12----12--14-------|
|----------14-----------14----------|-------------14--------------|
|-----------------------------------|-----------------------------|


                                                  D.S. al Coda
  F5                                  G5X
   Q.            E +Q     Q            E     E   Q        H
   |             |  |     |            |
   /             /  /     /            /

                                                          ~~
   E     +E   E  E  E  E  E     +E     Q        +E   +E   H
|-----------------------------------|--------------------------||
|-14b15r(14)-12----------17b19r(17)-|-17b19====(17)r(17)-15----||
|-14b15r(14)-12----12S14------------|--------------------------||
|---------------14------------------|--------------------------||
|-----------------------------------|--------------------------||
|-----------------------------------|--------------------------||
|
|  Q          Q     Q     Q            E     E   Q        H
|-----------------------------------|--------------------------||
|-----------------------------------|--------------------------||
|-10---------10----10----10---------|-12-----------------------||
|-10---------10----10----10---------|-12-----------------------||
|--8----------8-----8-----8---------|-10-----------------------||
|--8----------8-----8-----8---------|-10-----------------------||


  &
w/last 4 bars of Rhy Fig 7
    ~~     ~~~~~~~~~~~
  E Q.   E Q.     +H            E E E   +E
|---------------|---------------------------|
|-4------4------|---------------4-6-6b7r(6)-|
|-4------4------|---------------4-6-6b7r(6)-|
|---6------6----|-(6)-----------------------|
|---------------|---------------------------|
|---------------|---------------------------|


    ~~     ~~
  E Q.   E Q.     H.          +Q
|---------------|----------------------||
|-4------4------|-4-----------(4)b4.5--||
|-4------4------|-4-----------(4)b4.5--||
|---6------6----|----------------------||
|---------------|----------------------||
|---------------|----------------------||


   Chorus
   Rhy Fig 2 x4 (w/Rhy Fill 1 on 2nd and 4th time)

Rhy Fig 2 + 2A

Rhy Fig 2 + Rhy Fig 2 1st bar and Rhy Fill 1


w/Rhy Fig 2 x2
           PM|     PM|   PM                  PM|         PM|
  Q.   E E E E E   E E E E E E Q    Q.   E E E E E   E E E E E E Q
|----------------|----------------|----------------|----------------|
|----------------|----------------|----------------|----------------|
|----------------|----------------|--------------2-|-0-2------------|
|-5------2-----2-|-----2---5-6-7--|-5------2-----2-|-0-2-----5-6-7--|
|-5------2-----2-|-----2---5-6-7--|-5------2-------|---------5-6-7--|
|-3----0-0-0-0-0-|-0-0-0-0-3-4-5--|-3----0-0-0-0---|-----0-0-3-4-5--|


 Free Time
                       H.=H                          A Tempo Q=160
  G5                                                     G#A5
  Gtr II
  W             +W               +W             +H     E E Q
  |              |                |              |     | | |
  /              /                /              /     / / /

  Gtr I
        TP       TP               ~~~~~~~~~
  H    +H       +H     E E E E    H    +H       +H     E E Q
|-------------:----------------:--------------:---------------||
|-------------:----------------:--------------:---------------||
|-------------:----------------:--------------:---------------||
|-5----(5)----:-(5)----5-5-5-5-:--5----(5)----:-(5)----5-6-7--||
|-5----(5)----:-(5)----5-5-5-5-:--5----(5)----:-(5)----5-6-7--||
|-3----(3)----:-(3)----3-3-3-3-:--3----(3)----:-(3)----3-4-5--||


 Chorus
  Gtr III
|-Rhy Fig 8           end Rhy Fig 8-|
  E  E E E E E E E   E E E E E E E E
  |  | | | | | | |   | | | | | | | | |-w/Rhy Fig 8 x7
  x  x x x x x x x   x x x x x x x x

  Gtrs I, II
             PM--|     PM--|                      PM--|     PM--|
  Q.     E E E E E   E E E E E E Q     Q.     E E E E E   E E E E E E Q
|------------------|-----------------|------------------|-----------------|
|------------------|-----------------|------------------|-----------------|
|------------------|-----------------|------------------|-----------------|
|-5--------2-------|-2-------5-6-7---|-5--------2-------|-2-------5-6-7---|
|-5--------2-------|-2-------5-6-7---|-5--------2-------|-2-------5-6-7---|
|-3------0-0-0-0-0-|-0-0-0-0-3-4-5---|-3------0-0-0-0-0-|-0-0-0-0-3-4-5---|


w/Rhy Fig 2 x4
    Gtr II
                 PM|       PM|                      PM--|     PM--|
    Q.     E E E E E   E E E E E E Q     Q.     E E E E E   E E E E E E Q
||-------------------|-----------------|------------------|-------------------||
||o------------------|-----------------|------------------|------------------o||
||-------------------|-----------------|------------------|-------------------||
||--5--------2-2-2-2-|-2-2-2-2-5-6-7---|-5--------2-------|-2-------5-6-7-----||
||o-5--------2-2-2-2-|-2-2-2-2-5-6-7---|-5--------2-------|-2-------5-6-7----o||
||--3------0-0-0-0-0-|-0-0-0-0-3-4-5---|-3------0-0-0-0-0-|-0-0-0-0-3-4-5-----||



             PM|     PM|   PM                     PM|     PM
  Q.     E E E E E   E E E E E E Q     Q.     E E E E E   E E Q   E E  Q
|------------------|-----------------|------------------|------------------||
|------------------|-----------------|------------------|------------------||
|------------------|-----------------|------------------|------------------||
|-5--------2-----2-|-----2---5-6-7---|-5--------2-2-2-2-|-2-2-2---5-6--7---||
|-5--------2-----2-|-----2---5-6-7---|-5--------2-2-2-2-|-2-2-2---5-6--7---||
|-3------0-0-0-0-0-|-0-0-0-0-3-4-5---|-3------0-0-0-0-0-|-0-0-0---3-4--5---||
|
|            PM--|     PM--|                      PM|         PM
| Q.     E E E E E   E E E E E E Q     Q.     E E E E E   E E E E E Q.
|------------------|-----------------|------------------|------------------||
|------------------|-----------------|------------------|------------------||
|------------------|-----------------|----------------0-|---0---0---0------||
|-5--------2-------|-2-------5-6-7---|-5--------2-----0-|---0---0---0------||
|-5--------2-------|-2-------5-6-7---|-5--------2-------|------------------||
|-3------0-0-0-0-0-|-0-0-0-0-3-4-5---|-3------0-0-0-0---|------------------||


 Outro
w/Rhy Fig 2 + 2A x7
  Gtr III
                             ~~~~~~~~~                       ~~~
   E   E  E  E  Q         E  E    +E   E  E  E  Q         E  E
|------------------------------|-------------------------------|
|--------------12b12.5---------|---------------12b12.5---------|
|-12--14-12-14-12b12.5---------|------14-12-14-12b12.5---------|
|------------------------14-14-|-(14)--------------------14-14-|
|------------------------------|-------------------------------|
|------------------------------|-------------------------------|


 ~~~~~~                          ~~~~~~~~~                          ~~
   +E   E  S  S  E  Q         E  E    +E   E  S  S  E  Q         E  E
|----------------------------------|------------------------------------|
|------------------12b12.5---------|------------------------------------|
|------------------12b12.5---------|------------------12b12.5-----------|
|-(14)-14-14p12--------------14-14-|-(14)-14-14p12--------------14-14---|
|---------------14-----------------|---------------14-------------------|
|----------------------------------|------------------------------------|


    ~~~~                    ~~~~~~~~~
   +E   E  E  E  Q       E  E    +E   E  E  E  Q       E  E
|-----------------------------|-----------------------------|
|-----------------------------|------14-12-14---------------|
|------14-12-14-12b13---------|------14-12-14-12b13---------|
|-(14)------------------14-14-|-(14)------------------14-14-|
|-----------------------------|-----------------------------|
|-----------------------------|-----------------------------|


   +E     E  E  E  Q.           +E      E    E  E  E  Q.           +E
|------------------------------------|----------------------------------|
|-----------------12b12.5======(12)r-|---------------12b12.5======(12)r-|
|-----------------12b12.5======(12)r-|-12\-----------12b12.5======(12)r-|
|-(14)\-----12-14--------------------|---------12-14--------------------|
|-------/14--------------------------|-----/14--------------------------|
|------------------------------------|----------------------------------|


  E   E E  E E  E E  E   E  E    E  E    E  E    E  E
|----------------------|---------------------------------|
|----14---14---14---14-|---14b15---14b15---14b15---14b15r|
|----14---14---14---14-|---14b15---14b15---14b15---14b15r|
|----------------------|---------------------------------|
|----------------------|---------------------------------|
|----------------------|---------------------------------|


                                                  ~~~~~~~~~~
   +Q    E  E  E  E    E  E       +Q     E  E  S  E.    +Q
|------------------------------|-----------------------------|
|-(14)--12-------14b15---14b15r|=(14)------------------------|
|-(14)--12----12-14b15---14b15r|=(14)---12----12-------------|
|----------14------------------|-----------14----14----(14)--|
|------------------------------|-----------------------------|
|------------------------------|-----------------------------|


  E   S  S  E  E  E      +E   Q     E  S  S  E  E  Q        +E   E
|---------------------------------|--------------------------------|
|---------------------------------|--------------------------------|
|----------12-14-14b16==(14)r-----|---------12-14-14b16====(14)r---|
|----12h14------------------------|---12h14------------------------|
|---------------------------------|--------------------------------|
|---------------------------------|--------------------------------|

w/Rhy Fig 2A
                                                       ~~
  E   S  S  E  E  E     +E   E   E     E   E   E   E   H
|-----------------------------------|--------------------------|
|-----------------------------------|-----14--14---------------|
|----------12-14-14b16r(14)-12------|-12--14--14---------------|
|----12h14----------------------14--|-----------------11-------|
|-----------------------------------|--------------------------|
|-----------------------------------|--------------------------|
|
| Q.           E  E      E   E   E     E   E   E   E   E E Q
|-----------------------------------|--------------------------|
|-----------------------------------|--------------------------|
|-----------------------------------|--------------------------|
|-5---------------2-----------------|------------------5-6-7---|
|-5---------------2-----------------|------------------5-6-7---|
|-3------------0--0------0--<3>-<3>-|-<3>-<3>-<3>-<3>--3-4-5---|


w/Rhy Fig 2 x4
            ~~~~~~~       ~~~~~~~~~       ~~~~~~~
    Q    E  E  +E   E  E  E    +E   E  E  E  +E   E  E  E
|---------------------------|-----------------------------|
|-------15---------15-15----|---------15------------15----|
|-/16------16-(16)-------16-|-(16)-16----16-(16)-16----16-|
|---------------------------|-----------------------------|
|---------------------------|-----------------------------|
|---------------------------|-----------------------------|


             ~~~~~~~       ~~~~~~~~~       ~~~~~~~
   E   E  E  E  +E   E  E  E    +E   E  E  E  +E   E  E  E
|----------------------------|-----------------------------|
|-15-----15------------15----|---------15------------15----|
|-----16----16-(16)-16----16-|-(16)-16----16-(16)-16----16-|
|----------------------------|-----------------------------|
|----------------------------|-----------------------------|
|----------------------------|-----------------------------|


  G5        E  E5                                        G5    G#A5
  Gtr II
   Q.        E  E  E    E  E         E     Q       E       E   E  Q
   |         |  |  |       |               |       |       |   |  |
   /         o  /  /       /               /       /       /   /  /

                                                           ~~~~~
   E   E  E  E  E  Q       E        +E     Q       E      +Q      S  S  E
|--------------------------------|----------------------------------------|
|-15-----15----15-17b20---17b20==|=(17)r--17b20---17b19==(17)r---17p15----|
|-----16----16-------------------|-------------------------------------16-|
|--------------------------------|----------------------------------------|
|--------------------------------|----------------------------------------|
|--------------------------------|----------------------------------------|


  G5        E  E5                                G5    G#A5
   Q.        E  E  E    E E    E     E  Q          E   E Q
   |         |  |  |      |          |  |          |   | |
   /         o  /  /      /          /  /          /   / /

   E   E  E  E  E  Q.          S  S  E  E  E      +E   Q    E
|---------------------------|----------------------------------|
|-15------------------------|-------------15b17==(15)rs5s==17--|
|-----16-14-12-14-14b16-----|-14p12----12----------------------|
|---------------------------|-------14-------------------------|
|---------------------------|----------------------------------|
|---------------------------|----------------------------------|


 Free Time
  G5
  Gtr I
   H.                    Q            +Q      H             Q
   |                     |             |      |             |
   /                     /             /      /             /

  Gtr III
                                                    |------5------|
   S  E  S E  E  +E   E  E  a  a  E    E   E  E  E  E  E  E    E  E
|-19----17--------------------------:-------------------------------:
|------------20-(20)-19-20-19h20p19-:-17--19-17-15-14---------------:
|-----------------------------------:-----------------16-14s==12-14-:
|-----------------------------------:-------------------------------:
|-----------------------------------:-------------------------------:
|-----------------------------------:-------------------------------:
|
| Gtr II
|  W                                  +W
|-----------------------------------:-------------------------------:
|-----------------------------------:-------------------------------:
|-----------------------------------:-------------------------------:
|--5--------------------------------:-(5)---------------------------:
|--5--------------------------------:-(5)---------------------------:
|--3--------------------------------:-(3)---------------------------:


  +H           H                            +W
   |           |                             |
   /           /                             /

           ~~
                            |-----3-----|         |-3-|
   Q.      E  +E   a  a  E  E  E  a  a  E    E  E E E E Q  a Q
|-----------------------------------------:---------------------|
|-----------------------------------------:---------------------|
|-12b14---12-(12)-10h11h12s11-12-11h12p11s:==9s=7---------------|
|-----------------------------------------:-------9s7s5s7--7s9--|
|-----------------------------------------:---------------------|
|-----------------------------------------:---------------------|
|
| +W                                        +W
|-----------------------------------------:---------------------|
|-----------------------------------------:---------------------|
|-----------------------------------------:---------------------|
|-(5)-------------------------------------:-(5)-----------------|
|-(5)-------------------------------------:-(5)-----------------|
|-(3)-------------------------------------:-(3)-----------------|


                                   A Tempo Q=160
  G5                                     G#5A5    G5    E5
                                   Gtrs I, II
   Q.            E  H          +H      E  E  Q     H     Q    Q      W
   |             |  |           |      |  |  |     |     |
   /             /  /           /      /  /  /     /     /

                                ~~~                      ~~
  +Q   +Q          +Q.   +E    +H      E  E  Q     H     Q   +Q      W
|----------------------------:------------------|------------------|------*|
|----------------------------:------------------|------------------|------*|
|----------------------------:--------12-13-14--|-12---------------|------*|
|-(9)--(9)b10.5====(9)---(9)r:=(9)--------------|-------14--(14)\--|------*|
|----------------------------:------------------|------------------|------*|
|----------------------------:------------------|------------------|------*|
|
| +W                           +H      H           W                 W
|----------------------------:------------------|------------------|------*|
|----------------------------:------------------|------------------|------*|
|----------------------------:------------------|------------------|------*|
|-(5)------------------------:-(5)--------------|------------------|------*|
|-(5)------------------------:-(5)--------------|------------------|------*|
|-(3)------------------------:-(3)--------------|------------------|------*|

=============================================================================
=============================================================================


                           SLITHER
                   -----------------------
                          By Unknown
                   www.ultimate-guitar.com
                   -----------------------

  All guitars tune down 1 half step - Eb Ab Db Gb Bb Eb

  H = hammer on
  P = Pull off
  B = Bend
  p.m. = palm mute
  sim. = similar - play the rest of the notes with similar style

  Intro

Guitar I
"Don't go looking..." "Don't set..."      "Haven't I seen you...."  
|---------------------------------------------------------------------
|---------------------------------------------------------------------
|---4-3-2--x-x-x-x------------------7-6-5---------------4-3-2--2--2---
|---4-3-2--x-x-x-x--7-6-5--x-x-x-x--7-6-5---------------4-3-2--2--2---
|---2-1-0--x-x-x-x--7-6-5--x-x-x-x--5-4-3--3-0-3-0-3-0--2-1-0--0--0---
|-------------------5-4-3--x-x-x-x------------------------------------
|
|Guitar II
|---------------------------------------------------------------------
|---------------------------------------------------------------------
|---4-3-2---------------------------7-6-5---------------4-3-2--2--2---
|---4-3-2-----------7-6-5-----------7-6-5---------------4-3-2--2--2---
|---2-1-0-----------7-6-5-----------5-4-3---------------2-1-0--0--0---
|-------------------5-4-3---------------------------------------------



Guitar I
|----------------------------------------------------------------------
|----------------------------------------------------------------------
|----------------------------------------------------------------------
|---------5--7-----------5--7-----------5--7-----------5--8-----5------
|---7-/7-----------7-/7-----------7-/7-----------7-/7-----8-----5------
|---0--0--------0--0--0--------0--0--0--------0--0--0-----6--0--3--0---
|	      p.m.           p.m.           p.m.            p.m.  sim. 
|
|Guitar II
|----------------------------------------------------------------------
|----------------------------------------------------------------------
|----------------------------------------------------------------------
|------------------------------2--------------------------9--8--7------
|------------------------------2--------------------------9--8--7------
|------------------------------0--------------------------7--6--5--0---


Guitar I
Riff A
|----------------------------------------------------------------------
|----------------------------------------------------------------------
|----------------------------------------------------------------------
|---------5--7-----------5--7-----------5--7-----------5--8-----5------
|---7-/7-----------7-/7-----------7-/7-----------7-/7-----8-----5------
|---0--0--------0--0--0--------0--0--0--------0--0--0-----6--0--3--0---
|
|Guitar II
|----------------------------------------------------------------------
|----------------------------------------------------------------------
|----------------------------------------------------------------------
|---------5--7-----------5--7-----------5--7-----------5--9--8--7------
|---7-/7-----------7-/7-----------7-/7-----------7-/7-----9--8--7------
|---0--0--------0--0--0--------0--0--0--------0--0--0-----7--6--5--0---


Guitar I
"Ohhh, watch the puppets dancin' ....."
Riff B
|----------------------------------------------------------------------------------|
|----------------------------------------------------------------------------------|
|----------------------------------------------------------------------------------|
|--2--5---7--8--5--8--2---5---7--8--5--8--2---5---7--8--5--8--2---5---8--5--4--2---|
|--2--5---7--8--5--8--2---5---7--8--5--8--2---5---7--8--5--8--2---5---8--5--4--2---|
|--0--3-0-5--6--3--6--0---3-0-5--6--3--6--0---3-0-5--6--3--6--0---3-0-6--3--2--0---|
|
|
|Guitar II
|----------------------------------------------------------------------------------|
|----------------------------------------------------------------------------------|
|----------------------------------------------------------------------------------|
|-2--5----------------2--5-----------------2--5-----------------2--5---8---5--4--2-|
|-2--5----------------2--5-----------------2--5-----------------2--5---8---5--4--2-|
|-0--3-0--5--6--3--6--0--3--0--5--6--3--6--0--3--0--5--6--3--6--0--3-0-6---3--2--0-|


Guitar I
"See you crawlin'......"
Riff C
|----------------------------------------------------------
|----------------------------------------------------------
|----------------------------------------------------------
|-----3--x-x------3--x--x------3--x-x------3--x--x---------
|-----3--x-x------3--x--x------3--x-x------3--x--x---------
|---0-1--x-x--x-0-1--x--x--x-0-1--x-x--x-0-1--x--x--0--0---
|
|Guitar II
|----------------------------------------------------------
|----------------------------------------------------------
|----------------------------------------------------------
|-----3-----------3------------3-----------3---------------
|-----3-----------3------------3-----------3---------------
|---0-1---------0-1----------0-1---------0-1--------0--0---



Guitar I
|--------------------------------------------------------------
|--------------------------------------------------------------
|--------------------------------------------------------------
|-----3--x-x------3--x--x------3--x-x------3--x--x-------------
|-----3--x-x------3--x--x------3--x-x------3--x--x-------------
|---0-1--x-x--x-0-1--x--x--x-0-1--x-x--x-0-1--x--x--0--0---0---
|
|Guitar II
|Tremolo picking.............................
|--------------------------------------------------------------
|---5-----------6------------8------------10-------------------
|--------------------------------------------------------------
|--------------------------------------------------------------
|--------------------------------------------------------------
|--------------------------------------------------------------


Guitar I
"Don't go looking for snakes you......"
Riff D
|-------------------------------------------------
|-------------------------------------------------
|---4-3-2-2-2-2-2-2-2-2-2-------------------------
|---4-3-2-2-2-2-2-2-2-2-2-7-6-5-5-5-5-5-5-5-5-5---
|---2-1-0-0-0-0-0-0-0-0-0-7-6-5-5-5-5-5-5-5-5-5---
|-------------------------5-4-3-3-3-3-3-3-3-3-3---
|
|Guitar II
|-------------------------------------------------
|-------------------------------------------------
|---4-3-2-2-2-2-2-2-2-2-2-------------------------
|---4-3-2-2-2-2-2-2-2-2-2-7-6-5-5-5-5-5-5-5-5-5---
|---2-1-0-0-0-0-0-0-0-0-0-7-6-5-5-5-5-5-5-5-5-5---
|-------------------------5-4-3-3-3-3-3-3-3-3-3---


Guitar I
   "haven't i seen you.."         "there ain't no..."
|-----------------------------------------------------
|-----------------------------------------------------
|---7-6-5-5-5-5-4-3-2-------2-------2--4-3-2--4-2-----
|---7-6-5-5-5-5-4-3-2-------2-------2--4-3-2--4-2-----
|---5-4-3-3-3-3-2-1-0--0-0--0--0-0--0--2-1-0--2-0-----
|-------------------------------------------------0---
|
|Guitar II
|-----------------------------------------------------
|-----------------------------------------------------
|---7-6-5-5-5-5-4-3-2-------2-------2--4-3-2--4-2-----
|---7-6-5-5-5-5-4-3-2-------2-------2--4-3-2--4-2-----
|---5-4-3-3-3-3-2-1-0--0-0--0--0-0--0--2-1-0--2-0-----
|-------------------------------------------------0---


Bridge

Guitar I
Riff E
|---------------------------------------------------------------------------|
|---------------------------------------------------------------------------|
|*-------------------------------------------------------------------------*|
|*------5--7B--5---------------5--7B--5--------------5--7B--5--8-----5-----*|
|---/7------------7--------/7------------7-------/7------------8-----5------|
|-0------------------0--0-------------------0--0---------------6--0--3--0---|
|
|Guitar II
|---------------------------------------------------------------------------|
|---------------------------------------------------------------------------|
|*-------------------------------------------------------------------------*|
|*------5--7B--5---------------5--7B--5--------------5--7B--5--------------*|
|---/7------------7--------/7------------7-------/7------------7------------|
|-0------------------0--0-------------------0--0------------------0--0--0---|


Solo:
Play this a whole bunch of times
|----------------------------|
|----------------------------|
|*--2--2--2--2--2--2--2--2--*|
|*--2--2--2--2--2--2--2--2--*|
|---0--0--0--0--0--0--0--0---|
|----------------------------|

then play riff Riff B a couple of times.

Outro Solo:

Guitar I
|----------------------------------------------------------
|----------------------------------------------------------
|----------------------------------------------------------
|---------5--7-----------5--7-----------5--7-----------5---
|---7-/7-----------7-/7-----------7-/7-----------7-/7------
|---0--0--------0--0--0--------0--0--0--------0--0--0------


Guitar I
Riff F
|-------------------------------------------------
|-------------------------------------------------
|---5-5-5-5-4-3-2-------2-------2--4-3-2--4-2-----
|---5-5-5-5-4-3-2-------2-------2--4-3-2--4-2-----
|---3-3-3-3-2-1-0--0-0--0--0-0--0--2-1-0--2-0-----
|---------------------------------------------0---


Here are the Riffs with the song.

Intro:
    Don't go looking for snakes you might find them 
    Don't send your eyes to the sun you might blind them 
    Haven't I seen you here before ? 

Riff B:
         Ohhh, watch the puppets dancin' 
         Yeah, see the clowns fall down 
         Hey, tie your tap shoes tightly 
         Yeah, and wear them into town 

Riff C:
    See you crawlin'... 
    See you crawlin' in... 

RIff D:
    Don't go looking for snakes you might find them 
    Don't send your eyes to the sun you might blind them 
    Haven't I seen you here before ? 
    There ain't no heroes here...no....no more 

         Hey hey hey
Riff B:
         Oooh, play the game so nicely 
         Oh, check, its your move now 
         Yeah, we're standing in this jungle 
         Yeah, with serpents I have found 

Riff C:
    See you crawlin'... 
    See you crawlin' in... 

Riff D:
    Don't go looking for snakes you might find them 
    Don't send your eyes to the sun you might blind them 
    Haven't I seen you here before ? 
    Have your heroes disappeared? 

     Solo 

Riff C:
    See you crawlin'.... 
    See you crawlin' in.... 

Riff D:
    So don't go looking for snakes you might find them 
    Don't send your eyes to the sun you might blind them 
    Haven't I seen you here before ? 
    No there ain't no heroes here.......no no 

Outro:
        Haven't I seen you here before ? 
        No there ain't no heroes here. 

    Don't go looking for snakes you might find them... 
    Haven't I seen you here before? 
    Have your heroes disappeared? 

    Don't send your eyes to the sun you might blind them...
James plays Riff E a couple times here.


=============================================================================
=============================================================================
                                  
                              CARPE DIEM BABY
                          -----------------------                    
                               By Phil Boyle
                          www.ultimate-Guitar.com
                          -----------------------



  written by Hetfield, Ulrich, and Hammett
  as performed on ReLoad

  tune all guitars down 1/2 step

1)
Db--5-5-----5-5-----5-5-----5-5
Ab--7-7-----7-7-----7-7-----7-7
Eb------0-0-----0-0-----0-0----
       pm..     ...     ...
intro fade in


2)
Gb------7------------------7----------
Db------5------------------5----------
Ab----------5------------------5------
Eb--0-0---7---7-5-3--5p3-0---7---7-5-3


3)
Db--7/9-----9\7/10\9-----7--5-5-4
Ab--5/7-----7\5/8-\7-----5--3-3-2
Eb------0-0----------0-0---------
       pm..          ...
verse
"Hit dirt, shoot trees."


4)
Db--4--3--------2-2-2-2--4--3--------2-2-2-2--7--5-5-4
Ab--2--1--5--4--2-2-2-2--2--1--5--4--2-2-2-2--5--3-3-2
Eb--------3--2--0-0-0-0--------3--2--0-0-0-0----------
               pm......              .......
bridge
"They make me miss you"


5)
Db--------------    -------------    -----------------5
Ab--2--4--5--7-2 1) -2--4--5--7-2 1) -2--4--5--7--7-7-3
Eb--0--2--3--5-0    -0--2--3--5-0    -0--2--3--5--5-5--
chorus
"So wash your face away with dirt."


6)            ^           ^
Gb------7-----9-----7-----9
Db------5-----7-----5-----7
Ab-------------------------
Eb--0-0---0-0---0-0---0-0--
   pm
pre solo


7a)
Db--------9----------9---------------------
Ab--------7----------7-----------9-7--9-7-5
EB--0-0-0---0-0--0-0---0-0--0-0--7-5--7-5-3
   pm....   ........   ........

7b)
Db----------5----------5----------5-4--5-4-2
Ab--2-2-2-2-3-2-2--2-2-3-2-2--2-2-3-2--3-2-0
Eb------------------------------------------
   pm.......................................

7c)
Db------9-----11----12-----14
Ab------7-----9-----10-----12
Eb--0-0---0-0---0-0----0-0---
solo backing

=============================================================================
=============================================================================

                               BAD SEED 
                        ----------------------- 
                            By Mark Lavalle
                        www.Ultimate-Guitar.Com
                        -----------------------

  tune all guitars down 1 1/2 steps ('E' string sounds C#)
  low to high C#, F#, B, E, G#, c# 
  coughing and drum intro 

 1) 

 c#--------------------------------------------------------------------
 G#-------------------------------------------------------------------- 
 E--------------------------------------------------------------------- 
 B---2-0----------2-0---------5-2-0----------2-0---------2-2-2-2------- 
 F#------2-0----------2-0-----5-----2-0----------2-0-----2-2-2-2------- 
 C#----------3-0----------3-0-3---------3-0----------3-0-0-0-0-0-3~~3~~ 

 Intro riff 

  
 2) 

 B-----2-2-2-2-2-------------2-2-2-2-2-------------5-5-5-5-7--8-8
 F#----2-2-2-2-2-------------2-2-2-2-2-------------5-5-5-5-7--8-8
 C#--3p0-0-0-0-0-5p0-3h5-3p0-0-0-0-0-0-5p0-3h5-3p0-3-3-3-3-5--6-6
      pm........             .........             .............. 

  
  

 3) 

 B-----2-2-2-------2-2-2-------2-2-2
 F#----2-2-2-------2-2-2-------2-2-2
 C#--3p0-0-0-0h2h3-0-0-0-0h2h3-0-0-0
      pm....       .....       .....
 Verse

 "Come clean, fess up."

  

 4a) James 

 B---7-5----------7-5----------10-
 F#------5-7----------7-5------10-
 C#----------8-5----------8-5--8--
 
 4b) Kirk 
 B---7-7-7-7-7-7-7-10 
 F#--7-7-7-7-7-7-7-10
 C#--5-5-5-5-5-5-5-8- 

 bridge 

 "Ladies and gentilmen" 

  
  

  
 5a) James 

 B---5-5-5-5-2----------------5-5-5-5-2----------------5-5-5-5-7------------ 
 F#--5-5-5-5-2----------------5-5-5-5-2----------------5-5-5-5-7------------ 
 C#--3-3-3-3-0-0h5p0-3h5-3p0--3-3-3-3-0-0h5p0-3h5-3p0--3-3-3-3-5-5p0-3h5-3p0 
 5b) Kirk 

 c#------------7~~~~~~~~~~--------------12~~~~~~~~~~-------------7~~~~~~---- 
 G#--------------------------------------------------------------8---------- 
 E-------------------------------------------------------------------------- 
 B---5-5-5-5------------------5-5-5-5------------------5-5-5-5-------------- 
 F#--5-5-5-5------------------5-5-5-5------------------5-5-5-5-------------- 
 C#--3-3-3-3------------------3-3-3-3------------------3-3-3-3--------------
 
 Chorus

 "Swing the noose again."

  
  

 6) 

 B---2-2-2-2-5-5-5-5-7-7-7-7-8-8-8-8
 F#--2-2-2-2-5-5-5-5-7-7-7-7-8-8-8-8
 C#--0-0-0-0-3-3-3-3-5-5-5-5-6-6-6-6
 "Choking on a bad seed" (about 2:00)

=============================================================================
=============================================================================

         WHERE THE WILD THINGS ARE
          -----------------------
            By Andrew Reasoner
          www.Ultimate-Guitar.Com
          -----------------------


  Date: Thu, 27 Mar 1997 16:47:53 -0500
  From: music-box@juno.com (Andrew M Reasoner)
  Subject: TAB: 'Where The Wild Thing Are' by 'Metallica'

eb-------------------------------------  -------  
Bb-------------------------------------  -------  
Gb--4-4--4-4--4-----4--4-----3--3-----0  -------  
Db--5-5--5-5----5-2------5-2------5-2--  -------  
Ab-------------------------------------  -------  
Eb-------------------------------------  -0-3~~0  


   Guitar 1            Guitar 2
Gb--4-4-4-4------  --------------
Db--5-5-5-5-----9  --------------
Ab--------------7  -5-5-5-5-----2
Eb----------0-0--  -3-3-3-3-0-0-0



Gb-------------------4\1
Db--5-5-5-5-5-5-5-2--5\2
Ab--5-5-5-5-5-5-5-2-----
Eb--3-3-3-3-3-3-3p0-----

"Steal dreams and give to you."

                   x2        x1  
Gb--------------------       -------------------
Db--7-7--6-6----------       -7-7--6-6--4-4--5-5
Ab--5-5--4-4--8-8--5-5       -5-5--4-4--2-2--3-3
Eb------------6-6--3-3       -------------------
chorus

So wake up sleepy one
It's time to save your world

Steel dreams and give to you
Shop lift a thought or two
All children touch the sun
Burn your fingers one by one
By one

Will this earth be good to you
Keep you clean or stained through

So wake up sleepy one
It's time to save your world
You're where the wild things are
Yeah, toy soldiers off to war

Big eyes to open too
Beating now under sun and moon
But does heaven know you're here?
And did they give you smiles or tears?
No, no tears

Will this earth be good to you?
Keep you clean or stained through

So wake up sleepy one
It's time to save your world
You're where the wild things are
Yeah, toy soldiers off to war

You swing your ass all down
Call to arms are drawn out sound
Toy horses start the charge
Robots, chessmen standing guard
We shall never surrender

All children touch the sun
Burn your fingers one by one
Will this earth be good to you?
Keep you clean or stained through

So wake up sleepy one
It's time to save your world
You're where the wild things are
Yeah, toy soldiers off to war
Off to war
Off to war

So close your ?....?

=============================================================================
=============================================================================




                      PRINCE CHARMING
                  -----------------------
                    By Mathew Meldrum
                  www.Ultimate-Guitar.Com
                  -----------------------

  "Prince Charming"
  written by Hetfield and Ulrich
  as performed on ReLoad
  mathewmeldrum@hotmail.com
  tune all guitars down 1/2 step

1)
Eb----------------------------------------------
Bb----------------------------------------------
Gb---------------------------------5------------
Db---------2--------5----------5-5-5-------5----
Ab--2/15\2-2--0h5h7---7~~0h5h7-------7-5h7---7~~
Eb--2/15\2-0------------------------------------
intro

2a) James                            ^V^V^V
Eb------------------------------------------
Bb------------------------------------------
Gb------------------------------------------
Db-----------5----------5----------5-7-7-7-5
Ab-----0h5h7------0h5h7------0h5h7----------
Eb--0----------0----------0-----------------
   pm          .          .

2b) Kirk
Eb------------------------------------0------------
Bb------------------------------------0------------
Gb-------------------------------------------------
Db--2---2--7--5--7------2-----------------5-5-5----
Ab--2---2--5--3--5--5-5-0-2----x\x\x------------7-5
Eb--0---0-----------3-3---0----x\x\x---------------
chorus riffs                  pick slide (right before chorus)


3)
Eb------------------------         ------
Bb------------------------         ------
Gb------------------------         ------
Db------------------------ 4 times ------
Ab--7-----5h7-----7-7-5h7-         -5-6-7
Eb--0-0-0-0-0-0-0-0-0-0-0-         -3-4-5
   pm.....................
verse "There's a black cloud up ahead, that is me"


4)
Eb------------------------------------------
Bb------------------------------------------
Gb--5-------5--5-------5--5-------5---------
Db----7-5-7------7-5-7------7-5-7----5-5----
Ab---------------------------------------7-5
Eb------------------------------------------
fill inbetween verses


5)
Eb--------------------------              ------
Bb--------------------------              ------
Gb--------------------------              ------
Db--4-------4p2----4-4-4p2-- 4 times then -4-5-6
Ab--4-----------4----------4              -4-5-6
Eb--2--2-2------------------              -2-3-4
   pm.....                                 .....
solo riff  (Kirk plays with wah and a talk box)

6)
Eb-------------------------------------------------
Bb-------------------------------------------------
Gb-------------------------------------------------
Db-------5---5------5---5------7---7---7----7-7----
Ab--7--7---7---7--7---7---7--9---9---9---9------9-7
Eb-------------------------------------------------
post solo fills

7)
Eb---------------------------------------------
Bb---------------------------------------------
Gb-----2-----2---------------------------------
Db--4--2--4--2------5-----4-----2--------------
Ab--4--0--4--0--0-0---0-0---0-0---0-0-5-0-0-3-2
Eb--2-----2------------------------------------
      pm     .  ...   ...   ...   ...   ...
"Look up to me"

=============================================================================
=============================================================================

              

                    LOW MAN`S LYRIC
                -----------------------
                   By Matt Rasmussen
                www.Ultimate-Guitar.Com
                -----------------------
Low Man's Lyric
As recorded by Metallica on "Re-load"

Transcription by Matt Rasmussen
PLEASE send any comments to me at mattrasmussen@mail.utexas.edu


Notes in () play very quietly

Intro (x2)
Enter synth (Riff B) on second time
 1, 2, 3, 1		Humming..............................................
|------------|------------0-----------------0----------0----------0--------0
|------------|--------------2-----------------3----------3-----------0--------0
|------------|*-------(2)---------------(0)---------------------------------
|------------|*-----(2)-------------------------------------------------0---
|------------|---0-------------0-----(2)---------2--0-------0--2------------
|------------|--------------------3----------------------------0------------


Synth arranged for guitar
Riff A
|-------7-9-10-9-------7-9-10-9-7-----7-9-10-9-10-7--7-9-10-9-7----|
|---10-----------10-8-------------10-------------------------------|
|*----------------------------------------------------------------*|
|*----------------------------------------------------------------*|
|------------------------------------------------------------------|
|------------------------------------------------------------------|


Riff B
"my eyes seek reality..........."
    A                G                D/A         E        G
|------------0-----------------0----------0----------0--------0------|
|--------------2-----------------3----------3-----------0--------0---|
|*-------(2)---------------(0)--------------------------------------*|
|*-----(2)-------------------------------------------------0--------*|
|---0-------------0-----(2)---------2--0-------0--2------------------|
|--------------------3----------------------------0------------------|


"I fall cause I let go.................."
Riff C		       H		P
|-----------P---------3-5-3------------3-2-----0--0------3--3---|
|----------3-2--------3---3----------3---------0--0------3--3---|
|*-------2------------0---0--------2-----------1--1------0--0--*|
|*-----2---------------------------------------------0---------*|
|---0-----------0------------2--0-----------2-------(0)---------|
|------------------3------------------------0-------------------|


"The trash fire is warm"
Riff D
    Am          Em                Am          Em
|---0----------------0------------0----------------0------------|
|---1--|-|-|-|-------0--|-|-|-|---1--|-|-|-|-------0--|-|-|-|---|
|*--2--|-|-|-|--0--0-0--|-|-|-|---2--|-|-|-|--0--0-0--|-|-|-|--*|
|*--2--|-|-|-|--2--2-2--|-|-|-|---2--|-|-|-|--2--2-2--|-|-|-|--*|
|---0--/-/-/-/--2--2-2--/-/-/-/---0--/-/-/-/--2--2-2--/-/-/-/---|
|---------------0--0-0------------------------0--0-0------------|


		"And i can't bare to see....................."
Riff E
                  Am          G              C              B
|-----------------0-----------3--3------------------------------
|-----------------1--|-|-|-|--3--3--|-|-|-|--1--|-|-|-|---------
|--------------2--2--|-|-|-|--0--0--|-|-|-|--0--|-|-|-|-----4---
|--------------2--2--|-|-|-|--0--0--|-|-|-|--2--|-|-|-|-----4---
|---------3-0--0--0--/-/-/-/--2--2--/-/-/-/--3--/-/-/-/-0-0-2---
|---0-3-5---------------------3--3------------------------------


"due........"		 "please forgive me"
|-------------|--------------------------------|
|-------------|--------------------------------|
|*--4-4-4-4--*|--------------4-4-4-4-4-4-2-2---|
|*--4-4-4-4--*|--------------4-4-4-4-4-4-2-2---|
|---2-2-2-2---|---0-2-3-0-2--2-2-2-2-2-2-0-0---|
|-------------|--------------------------------|



"my eyes seek reality..........."
Riff F
    A           G           D/A           E      G
|---0-----------3-----------2-------------0--0---3--3---|
|---2--|-|-|-|--0--|-|-|-|--3--|-|-|-|----0--0---3--3---|
|*--2--|-|-|-|--0--|-|-|-|--2--|-|-|-|----1--1---0--0--*|
|*--2--|-|-|-|--0--|-|-|-|--0--|-|-|-|----2--2---0-----*|
|---0--/-/-/-/--2--/-/-/-/--0--/-/-/-/----2------2------|
|---------------3-----------------------0-0----3-3------|


Riff G
    Am           G       F        F+4
|---------------------------------------------|
|--------1----------0-----------------0-------|
|*-----2---2----------0-------2-----2---2----*|
|*--------------------------3---3-3-------3--*|
|-------------0-------------------------------|
|---0------------3-------1--------------------|


Ok, here's how the riffs go with the song: 

Riff B
     My eyes seek reality 
     My fingers seek my veins 
Riff B
     Theres a dog at your back step 
     He must come in from the rain 

Riff C
     I fall cause I let go 
     The net below has rot away 
Riff C
     So my eyes seek reality 
     And my fingers seek my veins 

Riff D
     The trash fire is warm 
     But nowhere safe from the storm 
Riff E
     And I can't bare to see 
     What I've let me be 
     So wicked and worn 

Riff D
     So as I write to you 
     Of what is done and to do 
Riff E
     Maybe you'll understand 
     And won't cry for this man 
     'Cause low man is due 

     Please forgive me 

Riff F
     My eyes seek reality 
     My fingers feel for faith 
Riff F
     Touch clean with a dirty hand 
     I touched the clean to the waste 

Riff D
     The trash fire is warm 
     But nowhere safe from the storm 
Riff E
     And I can't bare to see 
     What I've let me be 
     So wicked and worn 

Riff D
     So as I write to you 
     Of what is done and to do 
Riff E
     Maybe you'll understand 
     And won't cry for this man 
     'Cause low man is due 

     Please forgive me 
     Please forgive me 
     Please forgive me 

Riff G

Riff G
     So low the sky is all I see 
Riff G
     All I want from you is forgive me 
Riff G
     So you bring this poor dog in from the rain 
Riff G
     Though he just wants right back out again 

Riff F
     And I cry, to the alley way 
     Confess all to the rain 
Riff F
     But I lie, lie straight to the mirror 
     The one I've broken, to match my face

Riff D
     The trash fire is warm 
     But nowhere safe from the storm 
Riff E
     And I can't bare to see 
     What I've let me be 
     So wicked and worn 

Riff D
     So as I write to you (yeah) 
     Of what is done and to do (yeah) 
Riff E
     Maybe you'll understand 
     And won't cry for this man 
     'Cause low man is due 

     Please forgive me 
     Please forgive me 

Riff G

Riff G
     So low the sky is all I see 
Riff G
     All I want from you is forgive me 
Riff G
     So you bring this poor dog in from the rain 
Riff G
     Though he just wants right back out again 

Riff B
     My eyes seek reality 
     My fingers seek my veins 

Outro
Humming.........................................fade out
|------------0-----------------0----------0----------0--------0------|
|--------------2-----------------3----------3-----------0--------0---|
|*-------(2)---------------(0)--------------------------------------*|
|*-----(2)-------------------------------------------------0--------*|
|---0-------------0-----(2)---------2--0-------0--2------------------|
|--------------------3----------------------------0------------------|


Play this with the strings completely muted and pluck the stings
|---10-9-7-------10-9----------10-9-7-------10-9-10-7----10-9-7------|
|----------10---------10-8------------10------------------------10---|
|*------------------------------------------------------------------*|
|*------------------------------------------------------------------*|
|--------------------------------------------------------------------|
|--------------------------------------------------------------------|


=============================================================================
=============================================================================



                            ATTITUDE
                     -----------------------
                           By Unknown
                     www.Ultimate-Guitar.Com
                     -----------------------

  Attitude by Metallica from the Album Reload.

  Intro Part 1

  Gtr 1
       * Very quick hammer on and very slow bend.
e:----------------------------------------------------------------------]
B:----------------------------------------------------------------------]
G:----------------------------------------------------------------------]
D:-5h7bbbbbb9--7-5-7-5----------------------5h7bbbbbb9--7-5-7-5---------]
A:---------------------7~~~~~\----------------------------------7~~~~~\-]
E:----------------------------------------------------------------------]

Gtr 2

e:--------------------------------------]
B:--------------------------------------]
G:--------------------------------------]
D:-------------------------5--5--5-5s7--]
A:-------------------------5--5--5-5s7--]
E:-----------------------0-3--3--3-3s5--]

Intro Part 2

   Gtr 1 Only   Both
e:--------------{--------------/
B:--------------5--------------/
G:--------------7bb9-7-5-7-7-9-/
D:-7bb9-7-5-7-5------------7-9-/
A:-------------------------5-7-/
E:-----------------------------/


			x4
e:------------------------------------------------------/-]
B:------------------------------------------------------/-]
G:-----------9\------------9\-----------------------7-9-/-]
D:-----4h5---9\------4h5---9\-----4h5---------------7-9-/-]
A:-----5-----7\------5-----7\-----5-----5----7----5-5-7-/-]
E:-0-0-----0-----0-0-----0----0-0-----0-3--0-5--0-3-----/-]
PM(E only------------------------)

Verse 

e:----------------------------------------]
B:----------------------------------------]
G:----------------------------------------]
D:----------------------------------------]
A:-7s5-2-2---7-7-7-5---7s5-2-2---5-5-5-7--]
E:-5s3-0-0---5-5-5-3---5s3-0-0---3-3-3-5--]

e:------------------------------------------------]
B:------------------------------------------------]
G:------------------------------------------------]
D:------------------------------------------------]
A:-7s5-2-2---7-7-7-5---7s5-2-2---2-2-2-2-2-2-2-2--]
E:-5s3-0-0---5-5-5-3---5s3-0-0---0-0-0-0-0-0-0-0--]
                               PM--------------)

Pre-Chorus
       x 3
e:----------------/---------]
B:-------5-----3--/---------]
G:----------------/---------]
D:---7------------/---------]
A:-7---------5----/---------]
E:----------------/---------]

       x 3
e:----------------/---------]
B:----------------/---------]
G:----------------/---------]
D:-7---------5----/---5-5---]
A:-7---------5----/---5-5---]
E:-5---------3----/-0-3-3---]

Chorus

e:---------------------------------]
B:---------------------------------]
G:---------------------------------]
D:---------------------------------]
A:-5s7----8---5---2-2-2-2-2-2-2-2--]
E:-3s5--0-6-0-3---0-0-0-0-0-0-0-0--]
                PM--------------)

Riffs played in this order-

INTRO 1  .   INTRO 2  .    VERSE    .  PRE-CHORUS  .  CHORUS  .
INTRO 2  .    VERSE   .  PRE-CHORUS .    CHORUS    .   SOLO   .
 VERSE   . PRE-CHORUS .    CHORUS   .    CHORUS    .

The lyrics are below

Suppose I say, I'm never satisfied
Suppose I say, he cuts the roots
To make the tree survive

Just let me kill you for a while
Just let me kill you for a smile
Just let me kill you once
I'm oh so born to die

Oh, I hunger
I hunger
I eat

Born into attitude
Asleep at the wheel
Throw all your bullets in the fire
And run like hell
I get a fever, what ever happened to sweat?

Suppose I say, the vultures smile at me
Suppose I say, I set them down they plan to pick you clean

And satisfaction this way comes
And satisfaction this way comes
And satisfactions here and gone
Gone, yeah, gone again

Oh, I hunger
Oh, I hunger
I eat

Born into attitude
Asleep at the wheel
Throw all your bullets in the fire
And stand there

Born into attitude
Twist mother tongue
Throw all your bullets in the fire
And run like hell
I get a fever, what ever happened to sweat?

Just let me kill you for a while
Just let me kill you for a smile
Just let me kill you once for me
I'm born to die

And satisfaction this way comes
And satisfaction this way comes
And satisfactions here and gone
Gone, gone again

Yeah, I hunger
Oh, I hunger
I eat

Born into attitude
Asleep at the wheel
Throw all your bullets in the fire
And stand there

Born into attitude
Twist mother tongue
Throwing all your bullets in the fire
And run like hell
I get a fever, what ever happened to sweat?

=============================================================================
=============================================================================
           
                              FIXXXER
                      -----------------------
                            By Unknown
                      www.ultimate-guitar.com
                      -----------------------

  The official tuning for this song is Standard Eb, but I translated it to Drop D
  for those of you who only do Standard and Drop D.  Listen to the CD for timing.

  Fixxxer
  As performed on "ReLoad"
  Music by James Hetfield, Kirk Hammett, and Lars Ulrich
  Lyrics by James Hetfield

  Drop D tuning
  h           hammer on
  p           pull off
  b           bend
  r           release
  x           muffled strings
  ~           vibrating
  /           slide up
  \           slide down
  James       Guitar 1
  Kirk        Guitar 2

  James' Intro
  Distorted guitar w/ wah pedal, repeat a bunch of times
e[-10b12---------------------------------13b15-----
B[-------------------------------------------------
G[-------------------------------------------------
D[-------------------------------------------------
A[-------------------------------------------------
D[-------------------------------------------------

Kirk's Intro 1 (x4)
Clean guitar w/ wah pedal
e[-------------------------------------------------------
B[-------------------------------------------------------
G[-------------------------------------------------------
D[------4h6-4~~~-----------------------------------------
A[-6~~~--------------------------------------------------
D[-------------------------------------------------------

Kirk's Intro 2 (x5, last 3 times w/o muffled strings)
Clean guitar w/ wah pedal
e[-------------------------------------------------------
B[-------------------------------------------------------
G[-------------------------------------------------------
D[--------4----------------------------------------------
A[-4h6~~~---6~~~----x---x--xxxx--------------------------
D[-------------------------------------------------------

Both guitars      End intro
Distortion, wah pedal off
e[-------------------------------------------------------
B[-------------------------------------------------------
G[-------------------------------------------------------
D[-------------------------------------------------------
A[-4h6-2h4-1h2-------------------------------------------
D[-------------4h6---------------------------------------

Both guitars    Main riff (x4)
e[-------------------------------------------------------
B[-------------------------------------------------------
G[-------------------------------------------------------
D[--------------------------------------3h4--------------
A[-1-1--6p4-6~~-------7~~--1-1--6p4-6~~-----4~~~---------
D[-1-1----------7p6-7------1-1---------------------------

On the third time, Kirk goes off into this
e[-------------------------------------------------------
B[-------------------------------------------------------
G[---------------------------------------1h3-------------
D[------4p3-4~~~------6~~~------4p3-4~~~-----3~~~--------
A[-1-1----------4p3-4------1-1---------------------------
D[-1-1---------------------1-1---------------------------

Both guitars      Verse Part 1 (x2)
e[-------------------------------------------------------
B[-------------------------------------------------------
G[-------------------------------------------------------
D[-3h4-x-8-8-x-4p3-x-8-8-x-3h4-x-8-8-x--3h4p3------------
A[-----x-6-6-x-----x-6-6-x-----x-6-6-x--------4~~~-------
D[-------------------------------------------------------
                  
Both guitars      Verse Part 2 (x2) 
e[-------------------------------------------------------
B[-------------------------------------------------------
G[-------------------------------------------------------
D[-1h2-x-6-6-x-2p1-x-6-6-x-1h2-x-6-6-x--1h2p1------------
A[-----x-4-4-x-----x-4-4-x-----x-4-4-x--------2~~~-------
D[-------------------------------------------------------

Kirk     End verse
Clean guitar
e[-----------------------------------------------------
B[-----------2-----------------------------------------
G[-----------------------------------------------------
D[----1--4---------------------------------------------
A[-----------------------------------------------------
D[-1---------------------------------------------------

James' Chorus (x2)
Distortion
e[-------------------------------------------------------
B[-------------------------------------------------------
G[-------------------------------------------------------
D[---------4h6-6b8r6-4----------4h6-6b8r6-4--------------
A[-1----4h6-------------4----4h6-------------------------
D[-1--------------------4--------------------------------

e[-------------------------------------------------------
B[-------------------------------------------------------
G[-------------------------------------------------------
D[-6-------4h6-6b8r6-4----4----------3-------------------
A[-4----4h6---------------2----------1-------------------
D[-------------------------------------------------------

Kirk's Chorus (x2)
Clean guitar
e[------------------------------------------------------
B[---------2-------------2------------------------------
G[----------------------------------6-------------------
D[---1--4----------1--4-----------6---6-----------------
A[------------------------------4-----------------------
D[-1-------------4--------------------------------------

e[------------------------------------------------------
B[------------------------------------------------------
G[-----4--------3---------------------------------------
D[---4---4----3---3-------------------------------------
A[-2--------1-------------------------------------------
D[------------------------------------------------------

Both guitars end chorus on this
Distortion
e[-------------------------------------------------------
B[-------------------------------------------------------
G[-------------------------------------------------------
D[-------------------------------------------------------
A[-4h6-2h4-1h2-------------------------------------------
D[------------4h6----------------------------------------

Main Riff

Verse

Chorus

Both guitars     Interlude
Distortion
Play this twice
e[---------------------------
B[---------------------------
G[--------11-----------------
D[-11-13--11-13---xx---------
A[-11-13-----13---xx---------
D[---------------------------

Then continue with this
e[-------------------------------------------------------
B[-------------------------------------------------------
G[--------11------------11-----------11------------------
D[-11-13--11-13--11-13--11-13--11-13-11-13---------------
A[-11-13-----13--11-13-----13--11-13----13---------------
D[-------------------------------------------------------


SLIDE SOLO

James
Distortion
Open on this        Then this twice
e[----------------]----------------------------------------------
B[----------------]----------------------------------------------
G[----------------]----------------------------------------------
D[----------------]---------------------------------------5h6----
A[-4h6-2h4-1h2----]-3-3--8p6-8~~~-----9~~~--3-3--8p6-8~~~-----6--
D[------------4h6-]-3-3-----------9p8-------3-3------------------

Then he plays the main riff three times

Kirk
e[-------------------------------21\---------------------
B[-8/10----8/10----8/10----8/10--------------------------
G[-8/10----8/10----8/10----8/10--------------------------
D[-------------------------------------------------------
A[-------------------------------------------------------
D[-------------------------------------------------------

e[-8/11----8/11--14\13--8/11------------8/11-------------
B[-8/11----8/11---------8/11------------8/11-------------
G[----------------------------11\10/11--------11\--------
D[-------------------------------------------------------
A[-------------------------------------------------------
D[-------------------------------------------------------

e[-------------------------------------------------------
B[-----------------------------------10/11---------------
G[-11\10/11-----------/13--11\10/11--------10\-----------
D[-----------11\10/11------------------------------------
A[-------------------------------------------------------
D[-------------------------------------------------------

e[-14\13/14-------------16\------------------------------
B[------------14\13/14-----------------------------------
G[-------------------------------------------------------
D[-------------------------------------------------------
A[-------------------------------------------------------
D[-------------------------------------------------------

James
e[-------------------------------------------------------
B[-------------------------------------------------------
G[-------------------------------------------------------
D[-------------------------------------------------------
A[-1-1--6p4-6~~~-----7~~~--------------------------------
D[-1-1-----------7p6-------------------------------------

e[-------------------------------------------------------
B[-------------------------------------------------------
G[-------------------------------------------------------
D[-------------------------------------------------------
A[-1-1--6p4-6--1-1--6p4-6----7p9-7-----13p11-13----------
D[-1-1---------1-1---------------------------------------

Kirk
e[-------------------------------------11\10/11----------
B[---------------------------11\10/11--------------------
G[-----11\10/11-----11\10/11-----------------------------
D[-------------------------------------------------------
A[-------------------------------------------------------
D[-------------------------------------------------------


GUITAR SOLO

James    Part 1 (x4)
e[-------------------------------------------------------
B[-------------------------------------------------------
G[------4------------------------------------------------
D[-4-6--4-6-----4h6-6b8r6-4~~~---------------------------
A[-4-6----6--4h6-----------------------------------------
D[-------------------------------------------------------

James    Part 2
e[-------------------------------------------------------
B[-------------------------------------------------------
G[------4---------------4--------------------------------
D[-4-6--4-6--------4-6--4-6----------1-------------------
A[-4-6----6--xxxx--4-6----6--xxxxxx--1-------------------
D[-----------xxxx------------xxxxxx--1-------------------

Kirk   (All 18s are 16s bent to 18s)
e[-------------------------------------------------------
B[-16b18-18-18-16b18-18-18-16b18-18-18-16b18-14b16-------
G[-------------------------------------------------------
D[-------------------------------------------------------
A[-------------------------------------------------------
D[-------------------------------------------------------
                              Wah-pedal!
e[--------------18b20b21-16-]----------------------------
B[-16b18-14b16--------------]----------------------------
G[--------------------------]------11h13-13b15r13-11-----
D[--------------------------]-11h13----------------------
A[--------------------------]----------------------------
D[--------------------------]----------------------------

e[-------------------------------------------------------
B[-------------------------------------------------------
G[------11h13-13b15r13-11------11h13-13b15r13-11---------
D[-11h13------------------11h13--------------------------
A[-------------------------------------------------------
D[-------------------------------------------------------

e[-------------------------------------------------------
B[-------------------------------------------------------
G[-13b15r13-11-13b15r13-11-13b15r13-11-------------------
D[-------------------------------------------------------
A[-------------------------------------------------------
D[-------------------------------------------------------

e[-------16----------------------16----------------------
B[-16-18----18~~~~---------16-18----18~~~~---------------
G[-------------------------------------------------------
D[-------------------------------------------------------
A[-------------------------------------------------------
D[-------------------------------------------------------

e[-------------------------------------------------------
B[-------------------------------------------------------
G[-13b15-13b15-13b15-------------------------------------
D[-------------------13~~~~~~~---------------------------
A[-------------------------------------------------------
D[-------------------------------------------------------

POST SOLO

Kirk
Clean guitar w/ wah pedal
Play this x3      Then this
e[--------------]-----------------------------------------
B[--------------]-----------------------------------------
G[--------------]-----------------------------------------
D[-----4h6-4~~~-]----4h6b8r6-4~~-----4--------------------
A[-6~~~---------]-6~~------------4h6---6--xxx-------------
D[--------------]-----------------------------------------

e[-------------------------------------------------------
B[-------------------------------------------------------
G[-------------------------------------------------------
D[------4-----4-6b8r6-----4------------------------------
A[-4h6~~--6~~---------4h6----4h6-2h4-1h2-----------------
D[---------------------------------------4h6-------------

e[-------------------------------------------------------------------
B[-------------------------------------------------------------------
G[-------------------------------------------------------------------
D[-----4---11h13-13p11--11-11-13-----4---11h13-13p11-----11-13p11----
A[-4h6--6------------------------4h6--6---------------13----------13-
D[-------------------------------------------------------------------
                             Wah pedal off, distortion on
e[-------------------------]------------------------------
B[-------------------------]------------------------------
G[-------------------------]------------------------------
D[-----4-------4-------4---]------------------------------
A[-4h6---6-4h6---6-4h6---6-]-4h6-2h4-1h2------------------
D[-------------------------]------------4h6---------------

Kirk's Bridge (x6)
Clean guitar 
e[-------------------------------------------------------
B[--------2-------------------2--------------------------
G[-------------------------------------------------------
D[---1--4----------------1--4----------------------------
A[-------------------------------------------------------
D[-1-------------------1---------------------------------

James' Bridge (x6)
Distorion
e[-------------------------------------------------------
B[-------------------------------------------------------
G[-------------------------------------------------------
D[-------4h6-6b8r6-4--------4h6-6b8r6-4------------------
A[-1--4h6-------------1--4h6-----------------------------
D[-1------------------1----------------------------------

Chorus


Kirk's Outro part 1  (x4)
Clean guitar
e[-------------------------------------------------------
B[--------2---------------------2------------------------
G[-------------------------------------------------------
D[---1--4------------------1--4--------------------------
A[-------------------------------------------------------
D[-1---------------------1-------------------------------

James' Outro part 1  (x4)
Distortion
e[--------------------------------------------------------
B[--------------------------------------------------------
G[--------------------------------------------------------
D[-------4h6-6b8r6-4--------------------------------------
A[-1--4h6--------------1---4h6-2h4-1h2--------------------
D[-1-------------------1---------------4h6----------------

Ending
Both guitars
Distortion
e[-------------------------------------------------------
B[-------------------------------------------------------
G[-------------------------------------------------------
D[------------------------------------------1-1----------
A[-4h6-2h4-1h2------1-1---6p4-6~~------7~~--1-1----------
D[-------------4h6--1-1----------7p6-7------1-1----------

That's it.

Song Structure:
Note...Names in parenthesees = who plays lead guitar

James' Intro (Continue playing under Kirk's)
Intro part 1 (Kirk)
Intro part 2 (Kirk)
End Intro
Main riff
Verse
Chorus (James)
Main riff
Verse
Chorus (James)
Interlude
Slide solo (Kirk)
Guitar solo (Kirk)
Post solo
Bridge (James)
Chorus  (James)
Outro (James)
Ending

Peace.


=============================================================================
=============================================================================

That`s it!!! Enjoy!!!
comments
print report bad tab
2 comments total.
0 reply
godlike wrote on July 30 2004, 12:00 am

not very good

0 reply
Cthulhu_Calls wrote on January 4 2007, 05:12 am

the Unforgiven II tab is all wrong

I want to post or [tab]
guest
You may want to rate the tab now too:
select rating
Please do not post tabs as comments. Select "correction" instead!