Oops, an error
Loading. Please wait.

Ride The Lightning Bass Tab

ver1
ver1
More versions @911Tabs.com
21,673 views 9 this week
4 commentsread comments
1 2 3 4 5
accurate
x 6
Autoscroll
+/-
esc
set tempo
stop
Hey! There's an official Ultimate Guitar app which is ideal
for learning songs when you're away from computer. Get the app
WARNING: You are trying to view
                                    content from Ultimate-Guitar.com
                                    in an unauthorized application,
                                    which is prohibited.

                                    Please use an official Ultimate
                                    Guitar Tabs application for iPhone,
                                    iPad or Android to access legitimate
                                    chords, guitar, bass, and drum tabs
                                    from Ultimate-Guitar.com database.

                                    Type "ultimate guitar tabs" in Apple
                                    App Store's or Android Market's
                                    search to find the application.
Metallica
Ride the lightning

Fight fire with fire
Intro
  Moderately Q=82
 3/4                                   2/4
  Gtr I
                       |-3--|
  E E  E E  E E   E  E S  S S  E  E E    Q.    S  S
|---------------|-9-10-9h10p9---------|-------------|
|-9---10---12---|-------------12-10p9-|-------------|
|---------------|---------------------|-------------|
|---------------|---------------------|-12----10h12-|


 3/4
                                   |-3--|
   H.         E E  E E  E E   E  E S  S S  E  E E
|----------|----------------|-9-10-9h10p9-----------|
|----------|------10---12---|-------------12-10p9---|
|----------|-10-------------|-----------------------|
|-10-------|----------------|-----------------------|


 2/4      3/4                                               2/4      3/4
                                            |-3--|
  Q.   E    H.         E E  E E  E E   E  E S  S S  E  E E   Q.   E   H.
|--------|----------|----------------|-9-10-9h10p9---------|--------|-------|
|-9----9-|----------|------10---12---|-------------12-10p9-|--------|-5-----|
|--------|-12-------|-10-------------|---------------------|-0----0-|-------|
|--------|----------|----------------|---------------------|--------|-3-----|


                        |-3--|
   E E  E E  E E   E  E S  S S  E  E E
|----------------|-9-10-9h10p9---------|
|------10---12---|-------------12-10p9-|
|-10-------------|---------------------|
|----------------|---------------------|


 4/4
   H     H       E  E  E  E  H       W
|-------------|----14-12----------|-------||
|-------------|-10-------15-17----|-14----||
|-------10----|-------------------|-------||
|-12----------|-------------------|-------||


  Fast Rock Q=184
  E E Q  H      Wx3          Q  E E E Q  E
|-------------|------------|---------------|
|-------------|------------|---------------|
|-------------|------------|---------------|
|-0-----------|------------|------3------2-|


  Q  E E E E E E   Q  E E E Q  E   Q  E E E E E E
|----------------|---------------|-----------------||
|----------------|---------------|-----------------||
|----------------|---------------|-----------------||
|------3---2---2-|------3------2-|------3---2---1--||


    S S S S S S E S S S S S S E
||------------------------------|
||o-----------------------------|
||o-----------------------------|
||--0-0-0-0-0-0-3-0-0-0-0-0-0-2-|


  S S S S S S E S S E S S E   S S S S S S E S S S S S S E
|---------------------------|-----------------------------|
|---------------------------|-----------------------------|
|---------------------------|-----------------------------|
|-0-0-0-0-0-0-3-0-0-2-0-0-2-|-0-0-0-0-0-0-3-0-0-0-0-0-0-2-|


  S S S S S S E S S E S S E         E E S S S S e S S E E
|----------------------------||-||------------------------|
|---------------------------o||-||o-----------------------|
|---------------------------o||-||o-----------------------|
|-0-0-0-0-0-0-3-0-0-2-0-0-1--||-||--0-3-5p0-0-0-3-0-0-2-3-|


  E E S S S S Q  Q   3x E E S S S S e S S E E
|--------------------||------------------------|
|-------------------o||------------------------|
|-------------------o||------------------------|
|-0-3-5-0-0-0-2--2---||-0-3-5p0-0-0-3-0-0-2-3--|


                        Verse
                         $
  E E S S S S E E Q      S S S S S S E S S S S S S E
|--------------------||------------------------------|
|--------------------||o-----------------------------|
|--------------------||o-----------------------------|
|-0-3-5-0-0-0-2------||--0-0-0-0-0-0-3-0-0-0-0-0-0-2-|


  S S S S S S E S S E S S E   S S S S S S E S S S S S S E
|---------------------------|-----------------------------|
|---------------------------|-----------------------------|
|---------------------------|-----------------------------|
|-0-0-0-0-0-0-3-0-0-2-0-0-2-|-0-0-0-0-0-0-3-0-0-0-0-0-0-2-|


  S S S S S S E S S E S S E   S S S S S S E S S S S S S E
|---------------------------|-----------------------------|
|---------------------------|-----------------------------|
|---------------------------|-----------------------------|
|-0-0-0-0-0-0-3-0-0-2-0-0-1-|-0-0-0-0-0-0-3-0-0-0-0-0-0-2-|


  S S S S S S E S S E S S E   S S S S S S E S S S S S S E
|---------------------------|-------------------------------|
|---------------------------|-------------------------------|
|---------------------------|-------------------------------|
|-0-0-0-0-0-0-3-0-0-2-0-0-2-|-0-0-0-0-0-0-3-0-0-0-0-0-0-2---|


  S S S S S S E S S E S S E   E E S S S S e S S E E
|---------------------------|-----------------------|
|---------------------------|-----------------------|
|---------------------------|-----------------------|
|-0-0-0-0-0-0-3-0-0-2-0-0-1-|-0-3-5p0-0-0-3-0-0-2-3-|


  E E S S S S Q  Q    E E S S S S e S S E E
|-------------------|-------------------------|
|-------------------|-------------------------|
|-------------------|-------------------------|
|-0-3-5-0-0-0-2--2--|-0-3-5p0-0-0-3-0-0-2-3---|


  E E S S S S Q  Q    E E S S S S e S S E E
|-------------------|-----------------------|
|-------------------|-----------------------|
|-------------------|-----------------------|
|-0-3-5-0-0-0-2--2--|-0-3-5p0-0-0-3-0-0-2-3-|


  E E S S S S Q  Q    E E S S S S e S S E E
|-------------------|-------------------------|
|-------------------|-------------------------|
|-------------------|-------------------------|
|-0-3-5-0-0-0-2--2--|-0-3-5p0-0-0-3-0-0-2-3---|


                        Chorus
                         |-3-| |-3-|
  E E S S S S E E Q      Q Q Q Q Q Q   E S S S S S S S S S S S S S S
|---------------------||-------------|-------------------------------|
|--------------------o||-------------|-------------------------------|
|--------------------o||-------1-2-1-|-1-1-1-1-1-1-1-1-1-1-1-1-1-1-1-|
|-0-3-5-0-0-0-2-------||-0-3-0-------|-------------------------------|


  |-3-| |-3-|
  Q Q Q Q Q Q   E S S S S S S S S S S S S S S
|-------------|----------------------------------|
|-------------|----------------------------------|
|-------1-2-1-|-1-1-1-1-1-1-1-1-1-1-1-1-1-1-1----|
|-0-3-0-------|----------------------------------|


                                                     To Coda
                                                     To Coda
  |-3-| |-3-|                                   |-3-| |-3-|
  Q Q Q Q Q Q   E S S S S S S S S S S S S S S   Q Q Q Q Q Q   E Q  E H
|-------------|-------------------------------|-------------|-------------|
|-------------|-------------------------------|-------------|-------------|
|-------1-2-1-|-1-1-1-1-1-1-1-1-1-1-1-1-1-1-1-|-------1-2-1-|-1-----------|
|-0-3-0-------|-------------------------------|-0-3-0-------|-------------|


    S S S S S S E S S S S S S E   S S S S S S E S S E S S E
||------------------------------|---------------------------|
||o-----------------------------|---------------------------|
||o-----------------------------|---------------------------|
||--0-0-0-0-0-0-3-0-0-0-0-0-0-2-|-0-0-0-0-0-0-3-0-0-2-0-0-2-|


                                              D.S. al Coda
  S S S S S S E S S S S S S E   S S S S S S E S S E S S E
|-----------------------------|-----------------------------||
|-----------------------------|----------------------------o||
|-----------------------------|----------------------------o||
|-0-0-0-0-0-0-3-0-0-0-0-0-0-2-|-0-0-0-0-0-0-3-0-0-2-0-0-1---||


  Half Time Feel Q=H
  &
         |-3-|                     |-3-|      |-3-| |-3-|          |-3-|
  E E Q  Q Q Q   W          +H     Q Q Q   Q  E E E Q Q Q   +H     Q Q Q
|--------------|----------|--------------|----------5-----|--------------||
|--------------|----------|--------------|----3s5h7---7-5-|-(5)----------||
|-1------5-3-2-|-0--------|-(0)------0-2-|-3--------------|--------2---0-||
|--------------|----------|--------3-----|----------------|----------3---||


   Guitar Solo
    E S S +S  S E E S S +S  S E   E S S +S  S E E S S +S  S E
||------------------------------|-----------------------------|
||o-----------------------------|-----------------------------|
||o-----------------------------|-----------------------------|
||--0-0-0-(0)-0-0-0-0-0-(0)-0-0-|-0-0-0-(0)-0-0-0-0-0-(0)-0-0-|


                               6/4
  E S S +S  S E E S S +S  S E   E S S +S  S E E S S +S  S E E S S +S  S E
|-----------------------------|----------------------------------------------|
|-----------------------------|----------------------------------------------|
|-----------------------------|----------------------------------------------|
|-0-0-0-(0)-0-0-0-0-0-(0)-0-0-|-0-0-0-(0)-0-0-0-0-0-(0)-0-0-0-0-0-(0)-0-0----|


  E S S +S  S E E S S +S  S E E S S +S  S E
|-------------------------------------------|
|-------------------------------------------|
|-0-0-0-(0)-0-0-0-0-0-(0)-0-0-0-0-0-(0)-0-0-|
|-------------------------------------------|


 4/4
  E S S +S  S E E S S +S  S E   E S S +S  S E E S S +S  S E
|-----------------------------|------------------------------|
|-----------------------------|------------------------------|
|-----------------------------|------------------------------|
|-3-3-3-(3)-3-3-3-3-3-(3)-3-3-|-2-2-2-(2)-2-2-2-2-2-(2)-2-2--|


  S S +S  S E E S S +S  S E E   S S +S  S E E S S +S  S E E
|-----------------------------|-----------------------------|
|-----------------------------|-----------------------------|
|-----------------------------|-----------------------------|
|-0-0-(0)-0-0-0-0-0-(0)-0-0-0-|-0-0-(0)-0-0-0-0-0-(0)-0-0-0-|


                               6/4
  S S +S  S E E S S +S  S E E   E S S +S  S E E S S +S  S E E S S +S  S E
|-----------------------------|-------------------------------------------|
|-----------------------------|-------------------------------------------|
|-----------------------------|-------------------------------------------|
|-0-0-(0)-0-0-0-0-0-(0)-0-0-0-|-0-0-0-(0)-0-0-0-0-0-(0)-0-0-0-0-0-(0)-0-0-|


  E S S +S  S E E S S +S  S E E S S +S  S E
|-------------------------------------------|
|-------------------------------------------|
|-0-0-0-(0)-0-0-0-0-0-(0)-0-0-0-0-0-(0)-0-0-|
|-------------------------------------------|


 4/4
  E S S +S  S E E S S +S  S E   E S S +S  S E E S S +S  S E
|-----------------------------|------------------------------||
|-----------------------------|------------------------------||
|-----------------------------|------------------------------||
|-3-3-3-(3)-3-3-3-3-3-(3)-3-3-|-2-2-2-(2)-2-2-2-2-2-(2)-2-2--||


  E Q  E E Q  E   E Q  E E E Q    E Q  E E Q  E   E Q  E E E Q
|---------------|---------------|---------------|----------------||
|---------------|---------------|---------------|---------------o||
|---------------|---------------|---------------|---------------o||
|-0-2--3-0-2--3-|-0-2--3-0-2-3--|-0-2--3-0-2--3-|-0-2--3-0-2-3---||


             >
  W         +W           +W           +W
|---------|------------|------------|--------|
|---------|------------|------------|--------|
|---------|------------|------------|--------|
|-0-------|-(0)--------|-(0)--------|-(0)----|


         D.S. al Dbl. Coda   &&
              5/4           4/4
                                                               |-3-| |-3-|
  Wx7          W             E S S S S S S S S S S S S S S     Q Q Q Q Q Q    8x
|------------|------------||-------------------------------||-----------------||
|------------|------------||-------------------------------||o---------------o||
|------------|------------||-1-1-1-1-1-1-1-1-1-1-1-1-1-1-1-||o-------1-2-1---o||
|------------|------------||-------------------------------||--0-3-0----------||


    |-3-| |-3-|
    Q Q Q Q Q Q     E W        Q  E   W
||---------------||-----------------|----------|
||o-------------o||-----------------|----------|
||o-------1-2-1-o||-4---------------|----------|
||--0-3-0--------||-----------------|-0--------|


  |-3-|    |-3-|
  E E E Q  E E E Q    Q  W        Q
|-------------------|-----------------*|
|-------------------|-----------------*|
|-7-7-7-7--7-7-7-7--|-7---------------*|
|-------------------|-----------------*|


Duration Legend
---------------
W - whole; H - half; Q - quarter; E - 8th; S - 16th; T - 32nd; X - 64th; a - acciaccatura
+ - note tied to previous; . - note dotted; .. - note double dotted
Uncapitalized letters represent notes that are staccato (1/2 duration)
Irregular groupings are notated above the duration line
Duration letters will always appear directly above the note/fret number it represents the
duration for.  Duration letters with no fret number below them represent rests.  Multi-
bar rests are notated in the form Wxn, where n is the number of bars to rest for.  Low
melody durations appear below the staff

Tablature Legend
----------------
 h   - hammer-on
 p   - pull-off
 b   - bend
 pb  - pre-bend
 r   - bend release (if no number after the r, then release immediately)
 /  - slide into or out of (from/to "nowhere")
 s   - legato slide
 S   - shift slide
  - natural harmonic
[n]  - artificial harmonic
n(n) - tapped harmonic
 ~   - vibrato
 tr  - trill
 T   - tap
 TP  - trem. picking
 PM  - palm muting
n/  - tremolo bar dip; n = amount to dip
 n  - tremolo bar down
 n/  - tremolo bar up
/n  - tremolo bar inverted dip
 =   - hold bend; also acts as connecting device for hammers/pulls
   - volume swell (louder/softer)
 x   - on rhythm slash represents muted slash
 o   - on rhythm slash represents single note slash

Misc Legend
-----------
 |  - bar
||  - double bar
||o - repeat start
o|| - repeat end
*|  - double bar (ending)
 :  - bar (freetime)
 $  - Segno
 &  - Coda
Tempo markers -  = BPM(8/16=s8/s16), where s8 = swing 8ths, s16 = swing 16ths


Ride the lightning

beat 152	

Intro:
4/4                                   1.2.3. 
:---|--------------------------------|--------------------------------|
:---|*-------------------------------|-------------------------------*|
:---|*-------------------------------|-------------------------------*|
:-0-|-------------0---------------0--|-------------0---------------0--|

                                      4.
                                     |--------------------------------|
                                     |--------------------------------|
                                     |--------------------------------|
                                     |-------------0--------------12-|

|--------------------------------|--------------------------------|
|--------------------------------|--------------------------------|
|--------------------------------|--------------------------------|
|-------------0---------------0--|-------------0---------------0--|

|--------------------------------|--------------------------------|
|--------------------------------|--------------------------------|
|-------------------------7---7--|-7---7---7---7---7---7---7---7--|
|-------------0------------------|--------------------------------|

                             x 8 |Fig.1                  end fig.1|
|--------------------------------|--------------------------------|
|*>----------->-----------------*|*-------------------->------->-*|x 4
|*1-----------1-----------------*|*>------->-----------0-------3-*|
|-----0---0-------0---0---0---0--|-2-------0-------2-------2------|

3/4
|---------------------:
|--------------->--->-:
|->-------------3---2-:
|-2-------------------:

Verse 1, 2, 3:
4/4
|Fig.2
:--------------------------------|--------------------------------|
:->----------->------------------|->----------->------------------|
:-1-----------1------------------|-1-----------1------------------|
:-----0---0-------0---0---0---0--|-----0---0-------0---0---0---0--|

                                                         end fig.2|
|--------------------------------|--------------------------------|
|->----------->------------------|->----------->------------------|
|-1-----------1------------------|-1-----------1-----------3---2--|
|-----0---0-------0---0---0---0--|-----0---0-------0---0----------|

Repeat Fig.2 x 1

|--------------------------------|--------------------------------|
|--------------------------------|--------------------------------|
|->----------->------------------|->----------->------------------|
|-2---2---2---2---2---2---2---2--|-2---2---2---2---2---2---2---2--|

|--------------------------------|--------------------------------:
|--------------------------------|->----------->------------------:
|->----------->------------------|-2---------2h4------------------:
|-2---2---2---2---2---2---2---2--|-----2---2-------2---2---2---2--:

Chorus:
:--------------------------------|--------------------------------|
:--------------------------------|--------------------------------|
:-4-----------3---2-----------4--|-0---0---0---0---0---0---0---0--|
:--------------------------------|--------------------------------|

|--------------------------------|--------------------------------|
|--------------------------------|--------------------------------|
|-4-----------3---2-----------4--|-0---0---0---0---0---0---2---2--|
|--------------------------------|--------------------------------|

|--------------------------------|--------------------------------|
|--------------------------------|--------------------------------|
|->----------->------------------|->----------->------------------|
|-2---2---2---2---2---2---2---2--|-2---2---2---2---2---2---2---2--|

|--------------------------------|--------------------------------|
|--------------------------------|--------------------------------|
|-4-----------3---2-----------4--|-0---0---0---0---0---0---0---0--|
|--------------------------------|--------------------------------|

                                 |3rd Time to Coda
                                  1.       
|--------------------------------|--------------------------------|
|-3-----------2---1--------------|--------------------------------|
|-----------------------------0--|-0---0---0---0---0---0---0---0--|
|--------------------------------|--------------------------------|
                                  + Fig.1 x 4                   (1)

                                  2.
                                 |--------------------------------|
                                 |--------------------------------|
                                 |-0---0---0---0---0---0---0---0--|
                                 |--------------------------------|

|--------------------------------|--------------------------------|
|--------------------------------|--------------------------------|
|--------------------------------|--------->--------------->------|
|-0--------------------------12-|-0-0-0-0-3---0-0-0-0-0-0-3---0-0|

|Fig. 3                                                  end fig.3|
|--------------------------------|--------------------------------|
|*-------------------------------|-------------------------------*|x 3
|*7---6---5---x---3--------------|--------->--------------->-----*|
|---------------------x---2---3--|-0-0-0-0-3---0-0-0-0-0-0-3---0-0|

Double time
|Fig.4
|--------------------------------|--------------------------------|
|--------------------------------|--------------------------------|
|-3-3-3-3-3-3-3-3-3-3-3-3-3-3-3-3|-2-2-2-2-2-2-2-2-2-2-2-2-2-2-2-2|
|--------------------------------|--------------------------------|

|--------------------------------|--------------------------------|
|--------------------------------|--------------------------------|
|-1-1-1-1-1-1-1-1-1-1-1-1-1-1-1-1|-0-0-0-0-0-0-0-0-0-0-0-0-0-0-0-0|
|--------------------------------|--------------------------------|
 
                                                         end fig.4|
|--------------------------------|--------------------------------|
|--------------------------------|--------------------------------|
|--------------------------------|-----------------1-1-1-1-1-1-1-1|
|-1-1-1-1-1-1-1-1-1-1-1-1-1-1-1-1|-3-3-3-3-3-3-3-3----------------|

Repeat Fig.3 x 3

2/4
|----------------|----------------|----------------|-----4----------|
|----------------|----------------|----------------|---4---4--------|
|-7---6---5---0--|-3----3--3---3--|-3----3--3---0--|-2-------2------|
|----------------|----------------|----------------|----------------|

|----------------|----------------|----------------|----------------|
|----------------|----------------|----------------|-------------7--|
|-2-2-2-2-2-2-2-2|----------------|-3----3-3-3-----|----------------|
|----------------|-0----0--0---0-3|------------0-2-|-3-/-5---5------|

|-9-7------------|----------------|----------------|----------------|
|-----9-7-9-7-9-7|----------------|----------------|----------------|
|----------------|----------------|-3----3-3-3-----|----------------|
|----------------|-0----0--0---0-3|------------0-2-|-3-/-5---5------|

|----------------|
|----------------|
|----------------|
|(5)-------------|

Guitar Solo:
|----------------|----------------|----------------|----------------|
|*---------------|->--------------|----------------|-7-7-7-7-7-7-7-7|x4
|*>--------------|-3----3-3-3-----|->--->--->----7-|---------------*|
|-0----0--0---0-3|------------0-2-|-3-/-5---5------|----------------|

|----------------|----------------|----------------|----------------|
|*---------------|->------->------|----------------|---------------*|x4
|*>------->------|-5---5-5-5-5----|----------------|---------------*|
|-2---2-2-2---2-5|-------------2-4|-5-/-7-7-7---7-7|-7-7-7-7-7-7-7-7|

                                                   3/4 
|----------------|----------------|----------------|----------------|
|----------------|----------------|----------------|----------------|
|->->->----------|->->------------|->--------------|----------------|
|-5-5-5----------|-3-3------------|-1--------------|(1)-------------|

Double time
4/4
|--------------------------------|--------------------------------|
|*-------------------------------|-------------------------------*|x 4
|*-------------------------------|-----------------2---3---2-----*|
|-0-0-0-0-0-0-0-0-0-0-0-0-0-0-0-0|-0-0-0-0-0-0-0-0----------------|

|--------------------------------|--------------------------------|
|*-------------------------------|--------------------------------|
|*3-3-3-3-3-3-3-3-3-3-3-3-3-3-3-3|-2-2-2-2-2-2-2-2-2-2-2-2-2-2-2-2|
|--------------------------------|--------------------------------|

                                  1.
|--------------------------------|--------------------------------|
|--------------------------------|--------------------------------|
|-1-1-1-1-1-1-1-1-1-1-1-1-1-1-1-1|-0-0-0-0-0-0-0-0-0-0-0-0-0-0-0-0|
|--------------------------------|--------------------------------|

                                  2.
                                 |--------------------------------|
                                 |--------------------------------|
                                 |-0-0-0-0-0-0-0-0-0-0-0-0-0-0---8|
                                 |--------------------------------|
                                                                (2)
|--------------------------------|--------------------------------|
|--------------------------------|--------------------------------|
|-8-8-8-8-8-8-8-8-8-8-8-8-8-8-8-8|-5-5-5-5-5-5-5-5----------------|
|--------------------------------|-----------------6-6-6-6-6-6-6-6|

                                  3.
                                 |--------------------------------|
                                 |--------------------------------|
                                 |-0-0-0-0-0-0-0-0-0-0-0-0-0-0-0-0|
                                 |--------------------------------|
                                                                (3)
|--------------------------------|--------------------------------|
|--------------------------------|--------------------------------|
|--------------------------------|-----------------1-1-1-1-1-1-1-1|
|-1-1-1-1-1-1-1-1-1-1-1-1-1-1-1-1|-3-3-3-3-3-3-3-3----------------|

Repeat Fig.3 x 4
Repeat Fig.4
Repeat Fig.3 x 3

2/4              4/4
|----------------|--------------------------------|
|----------------|--------------------------------|
|-7---6---5---0--|-3/-----------------------------|
|----------------|-------------0---------------0--|

|--------------------------------|--------------------------------|
|--------------------------------|--------------------------------|
|--------------------------------|--------------------------------|
|-------------0---------------0--|-------------0---------------0--|

|--------------------------------|--------------------------------|
|--------------------------------|--------------------------------|
|--------------------------------|--------------------------------|
|-------------0--------------12-|-------------0---------------0--|

|--------------------------------|--------------------------------|
|--------------------------------|--------------------------------|
|--------------------------------|-------------------------7---7--|
|-------------0---------------0--|-------------0------------------|

|--------------------------------|--------------------------------|
|--------------------------------|*>----------->-----------------*|x 7
|-7---7---7---7---7---7---7---7--|*1-----------1-----------------*|
|--------------------------------|-----0---0-------0---0---0---0--|

                                 3/4
|--------------------------------|---------------------:
|--------------------------------|->------------>--->--:
|-1-----------1-----------3---2--|-1------------3---2--:
|-----0---0-------0---0----------|---------------------:

Play Verse 3
Play Chorus until To Coda

Coda:
4/4
|--------------------------------|
|--------------------------------|
|-0---0---0---0---0---0---0---0--|
|--------------------------------|

Repeat Fig.1 x 4

|--------------------------------|--------------------------------|
|*-------------------->------->--|--------------------------------|
|*>------->-----------0-------3--|(3)-----------------------------|
|-2-------0-------2-------2------|--------------------------------|

|--------------------------------|--------------------------------|
|--------------------->----------|-------------------------------*|
|->------->-----------0------->--|-------------------------------*|
|-2-------0-------2-------2---0--|(0)-----------------------------|

|--------------------------------|--------------------------------|
|*-------------------->------->--|--------------------------->----|
|*>------->-----------0-------3--|(3)--3-3-3---3-3-3---3-3-3-2----|
|-2-------0-------2-------2------|--------------------------------|

                                  1.
|--------------------------------|--------------------------------|
|--------------------->----------|-------------------------------*|
|->------->-----------0------->--|-------------------------------*|
|-2-------0-------2-------2---0--|(0)--------------0-0-0-0-0-0-0-0|

                                  2.
                                 |--------------------------------|
                                 |--------------------------------|
                                 |--------------------------------|
                                 |(0)--0-0-0-0-0-0-0-0-0-0-0-0-0-0|

|--------------------------------|--------------------------------:
|--------------------------------|--------------------------------:
|--------------------------------|--------------------->--->------:
|-0---------------0--------------|-0-------------------0---0---0--: End

for whom the bell tolls

beat 120

Intro:
4/4                              
:--------------------------------|--------------------------------|
:--------------------------------|--------------------------------|
:--------------------------------|--------------------------------|
:--------------------------------|-----------------2-2-----2-2----|

There are two basses, the first plays the higher note and starting E.
The second plays ending F#.

With distortion and wah wah
|--------19-18-17-16-------19p16-|--------19----------------------|
|*-------------------------------|17--16-------------------------*|x 8
|*-------------------------------|------------17--16--------(16)*|
|-0------------------------------|(0)--------------2--2----2--2---|

Normal Bass
|--------------------------------|--------------------------------|
|*-------------------------------|--------------------------------|
|*-------------------------------|-----------------------------0--|
|-0---3---2---1---0---3---2---1--|-0---3---2---1---0---2---3------|

|--------------------------------|--------------------------------|
|--------------------------------|-------------------------------*|x 4
|--------------------------------|-----------------------------2-*|
|-0---3---2---1---0---3---2---1--|-0---3---2---1---0---2---3------|

|--------------------------------|--------------------------------|
|--------------------------------|--------------------------------|
|--------------------------------|--------------------------------|
|-0------------------------------|(0)-----------------------------|

|Fig.1
|--------------------------------|--------------------------------|
|*----------tripl-----------tripl|-----------tripl-----------tripl|
|*>------------------------------|--------------------------------|
|-0---------0-0-0-0---------0-0-0|-0---------0-0-0-0---------0-0-0|

|--------------------------------|--------------------------------|
|-----------tripl-----------tripl|--------------------------------|
|->------------------------------|->------------------------------|
|-3---------3-3-3-3---------3-3-3|-3-------------------------12--|

|--------------------------------|--------------------------------|
|-----------tripl-----------tripl|-----------tripl-----------tripl|
|->------------------------------|--------------------------------|
|-0---------0-0-0-0---------0-0-0|-0---------0-0-0-0---------0-0-0|

                                  1.                           (1)
|--------------------------------|-tripl-----------tripl----------|
|-----------tripl-----------tripl|------->--------------->-------*|
|->------------------------------|-3-3-3-3---------0-0-0-0-------*|
|-3---------3-3-3-3---------3-3-3|--------------------------------|

                                  2.                  (2) end Fig.1
                                 |---tripl-----------tripl--------|
                                 |->------------------------------|
                                 |-3-3-3-3---------0-0-0-12------|
                                 |--------------------------------|

|Fig.2
|--------------------------------|--------------------------------|
|*tripl-----------tripl----------|-tripl--------------------------|
|*------>--------------->--------|------->--------->------->------|
|-0-0-0-3---------0-0-0-5--------|-0-0-0-3-------0-6-------2------|

                                                         end Fig.2|
|--------------------------------|--------------------------------|
|-tripl-----------tripl----------|-tripl--tripl------------------*|
|------->--------------->--------|-------->-------->------>----->*|
|-0-0-0-3---------0-0-0-5--------|-0-0-0--3-0-0----6------2-----1-|

Verse 1, 2:

   Repeat Fig.1

End Verse

Chorus:

   Repeat Fig.2 x 2  (To Coda at the end of second chorus)

End Chorus

Interlude (between first chorus and second verse):
:--------------------------------|--------------------------------|
:*----------tripl-----------tripl|-----------tripl-----------tripl|
:*>------------------------------|--------------------------------|
:-0---------0-0-0-0---------0-0-0|-0---------0-0-0-0---------0-0-0|

|--------------------------------|--------------------------------|
|-----------tripl----------------|-----------tripl-----------tripl|
|->------------------------------|->------------------------------|
|-0---------0-0-0-0---------/12-|-3---------3-3-3-3---------3-3-3|

                                  1.                           (1)
|--------------------------------|-----------tripl----------------|
|-----------tripl-----------tripl|->-----------------------------*|
|->------------------------------|-2---------2-2-2-2---------/14*|
|-0---------0-0-0-0---------0-0-0|--------------------------------|

                                  2.                           (2)
                                 |-----------tripl----------------:
                                 |->------------------------------:
                                 |-2---------2-2-2-2-----------2-:
                                 |--------------------------------:

Coda:
|--------------------------------|--------------------------------|
|*-------------------------------|--------------------------------|
|*-------------------------------|--------------------------------|
|-0---------------2---2----------|-0---------------2---2----------|

2/4
|--------------------------------:
|-------------------------------*:
|-------------------------------*:
|-3---3--------------------------: End (fade out)

fade to black

Time 4/4
beat 116	

Intro:
:----|----|----|-----------------|-----------------|----|----|
:----|----|----|-----------------|-----------------|----|----|
:----|----|----|-----------------|-----------------|----|----|
:----|----|----|---------------5-|-7---------------|----|----|

|----------------|-----------------|----------------|-----------------|
|----------------|-----------------|----------------|-----------------|
|----------------|-----------------|--------------5-|-----------------|
|--------------5-|-7---------------|----------------|-7---------------|

|-----------------|-----------------|----|----|
|-----------------|-----------------|----|----|
|-----------------|-----------------|----|----|
|---------------5-|-7---------------|----|----|

|-----------------|-----------------|----|----|----|
|-----------------|-----------------|----|----|----|
|-----------------|-----------------|----|----|----|
|---------------5-|-7---------------|----|----|----|

|--------------------------------|--------------------------------|
|--------------------------------|--------------------------------|
|--------------------------------|-2-----------2------------------|
|-1-----------1---4-----------4--|-----------------0--------------|

|--------------------------------|----|----|
|--------------------------------|----|----|
|-0------------------------------|----|----|
|--------------------------------|----|----|

|--------------------------------|
|--------------------------------|
|--------------------------------|
|-----------------3-----/----7---|

|--------------------------------|----|----|----|
|--------------------------------|----|----|----|
|-0------------------------------|----|----|----|
|--------------------------------|----|----|----|

(Drum Enter)
|--------------------------------|--------------------------------|
|--------------------------------|--------------------------------|
|-0-----------------------0---2--|-3-----------------------3---2--|
|--------------------------------|--------------------------------|

|--------------------------------|--------------------------------|
|--------------------------------|--------------------------------|
|-------------------------3---2--|-----------------2---/---7-----|
|-3------------------------------|-0------------------------------|

|--------------------------------|--------------------------------|
|--------------------------------|--------------------------------|
|-0-----------------------0---2--|-3---------------------------5--|
|--------------------------------|------------------------5/7-----|

|--------------------------------|--------------------------------:
|--------------------------------|--------------------------------:
|--------------------------------|-----------------7-------------:
|-3-----------------------5---3--|-0---------------------------0--:

Verse 1:
:--------------------------------|--------------------------------|
:--------------------------------|--------------------------------|
:-0-----------------------0---2--|-3-----------3---3-----2h3---2--|
:--------------------------------|--------------------------------|

|--------------------------------|--------------------------------|
|--------------------------------|--------------------------------|
|--------------------------------|---------------------5---7------|
|-3-----------------------5---3--|-0-------0---0-/-7--------------|

|--------------------------------|--------------------------------|
|--------------------------------|--------------------------------|
|-0-----------------------0---2--|-3---------------------------5--|
|--------------------------------|------------------------5/7-----|

|--------------------------------|--------------------------------|
|--------------------------------|--------------------------------|
|--------------------------------|--------------------------------|
|-3-----------------------5---3--|-0---------------3-----/----7---|

|--------------------------------|--------------------------------|
|--------------------------------|--------------------------------|
|-0-----------------------0---2--|-3-----------3---3-----2h3---2--|
|--------------------------------|--------------------------------|

|--------------------------------|--------------------------------|
|--------------------------------|--------------------------------|
|-------------------------3---2--|-----------------7-------7------|
|-3------------------------------|-0------------------------------|

|--------------------------------|--------------------------------|
|--------------------------------|-----------------------5h7p5----|
|-0-----------------------0---2--|-3-----------------/-7-------7--|
|--------------------------------|--------------------------------|

|--------------------------------|--------------------------------:
|-5-----------------------5h7-5--|--------------------------------:
|---------------------5h7--------|-7---7---7---7---7---7---7---7--:
|--------------------------------|--------------------------------:

Chorus:
|Fig.1
:--------------------------------|--------------------------------|
:*-------------------------------|--------------------------------|
:*----------------------------5--|-3-----------3---3-----------5--|
:-5-----------5---5---0-0-3------|---------------------0-0-3------|

|--------------------------------|--------------------------------|
|--------------------------------|--------------------------------|
|-------------------------5------|-7------------------------------|
|-5-----------5---5--------------|-------------0---0---0-0-8---7--|

|--------------------------------|--------------------------------|
|--------------------------------|--------------------------------|
|-----------------------------5--|-3-----------3---3-----------5--|
|-5-----------5---5---0-0-3------|---------------------0-0-3------|

                                                         end Fig.1|
|--------------------------------|--------------------------------:
|--------------------------------|-------------------------------*:
|--------------------------------|-------------------------------*:
|-5-----------5---5-------3---2--|-0------------------------------:

Interlude:
:--------------------------------|--------------------------------|
:--------------------------------|--------------------------------|
:-0-----------------------0---2--|-3---------------------------5--|
:--------------------------------|------------------------5/7-----|

|--------------------------------|--------------------------------|
|--------------------------------|--------------------------------|
|--------------------------------|-----------------------/-7-----|
|-3-----------------------5---3--|-0------------------------------|

|--------------------------------|--------------------------------|
|--------------------------------|--------------------------------|
|-0-----------------------0---2--|-3-------3-------3--------0-3-5-|
|--------------------------------|--------------------------------|

|--------------------------------|--------------------------------:
|--------------------------------|--------------------------------:
|--------------------------------|--------------------------------:
|-3-------3-------3-------5---3--|-0---------------------/-7------:

Verse 2:
:--------------------------------|--------------------------------|
:--------------------------------|--------------------------------|
:-0-----------0---0-------0-3h5--|-3-----------3---3-------5------|
:--------------------------------|-----------------------------7--|

|--------------------------------|--------------------------------|
|--------------------------------|--------------------------------|
|--------------------------------|-------------------------2---/--|
|-3---------------5-----------3--|-0-----------0---0--------------|

|--------------------------------|--------------------------------|
|--------------------------------|--------------------------------|
|-0-----------------------0---2--|-3-----------------------3---5--|
|--------------------------------|--------------------------------|

|--------------------------------|--------------------------------|
|--------------------------------|--------------------------------|
|--------------------------------|--------------------------------|
|-3-------3-----------3---5---3--|-0---------------0-------5/7----|

|--------------------------------|--------------------------------|
|--------------------------------|--------------------------------|
|-0---------------0-------0---2--|-3-----------3---3-----2h3---2--|
|--------------------------------|--------------------------------|

|--------------------------------|--------------------------------|
|--------------------------------|--------------------------------|
|--------------------------------|---------7-------7--------------|
|-3-----------3---3-------5---3--|-0-----------0-----------5/7----|

|--------------------------------|--------------------------------|
|--------------------------------|------------------------5h7p5---|
|-0---------------0-------0---2--|-3-----------3---3---5h7-----7--|
|--------------------------------|--------------------------------|

|--------------------------------|--------------------------------:
|-5----------------------5h7p5---|--------------------------------:
|--------------------------------|-7---7---7---7---7---7---7---7--:
|--------------------------------|--------------------------------:

Chorus:

Repeat Fig.1 (x2) then

|--------------------------------|--------------------------------|
|--------------------------------|--------------------------------|
|--------------------------------|--------------------------------|
|(0)-----------------------------|(0)-----------------------------|

|--------------------------------|--------------------------------|
|--------------------------------|--------------------------------|
|--------------------------------|--------------------------------|
|(0)-----------------------------|-0------------------------------|

|--------------------------------|--------------------------------|
|--------------------------------|-----------------------------9-9|
|--------------------------------|--------------------------------|
|(0)-----------------------------|(0)-----------------------------|

|--------------------------------:
|-9---7-7-7---5-5-5---4-4-4---5--:
|--------------------------------:
|--------------------------------:

Bridge:
|Fig. 2
:--------------------------------|--------------------------------|
:--------------------------------|-----------------5---4/12-------|
:-5---7-----------7--------------|-5---7--------------------------|
:---------0---0-----------0---0--|---------0---0------------------|

|--------------------------------|-----------------------------4--|
|-----------------------------9-9|-9---7-7-7---5-5-5---4-4-4------|
|-----5-------5---5--------------|--------------------------------|
|--------------------------------|--------------------------------|

|--------------------------------|--------------------------------|
|--------------------------------|-----------------5---4/12-------|
|-5---7-----------7--------------|-5---7--------------------------|
|---------0---0-----------0---0--|---------0---0------------------|
   
                                                         end Fig.2| 
|--------------------------------|--------------------------------|
|-----------------------------9-9|-9---7-7-7---5-5-5---4-4-4---5--|
|-----5-------5---5--------------|--------------------------------|
|--------------------------------|--------------------------------|

Repeat Fig.2 x 2

|--------------------------------|--------------------------------|
|--------------------------------|--------------------------------|
|-----------------7--------------|--------------------------------|
|-0---0---0---0------------------|-0---0---0---0---3---2----------|

|--------------------------------|-----------------------------4--|
|-----------------------------9-9|-9---7-7-7---5-5-5---4-4-4------|
|-----------------5--------------|--------------------------------|
|-0---0---0---0------------------|--------------------------------|

|--------------------------------|--------------------------------|
|--------------------------------|--------------------------------|
|-----------------7--------------|--------------------------------|
|-0---0---0---0------------------|-0---0---0---0---3---2----------|

|--------------------------------|--------------------------------|
|-----------------------------9-9|-9---7-7-7---5-5-5---4-4-4---5--|
|-----------------5--------------|--------------------------------|
|-0---0---0---0------------------|--------------------------------|

|--------------------------------|--------------------------------|
|*-------------------------------|--------------------------------|
|*2-----------2-----------2------|(2)--2-----------4---2---0------|
|--------------------------------|-----------------------------2--|

|--------------------------------|--------------------------------|
|--------------------------------|--------------------------------|
|-0-----------0-----------0------|(0)--0-----------0---0---0---0--|
|--------------------------------|--------------------------------|

|--------------------------------|--------------------------------|
|--------------------------------|--------------------------------|
|--------------------------------|--------------------------------|
|-3-----------3-----------3---3--|(3)--3---3---3---3---3---3---3--|

|--------------------------------|--------------------------------|
|--------------------------------|-------------------------2---2-*|
|-0-----------0-----------0------|-0---0-----------0---0---------*|
|--------------------------------|--------------------------------|

|--------------------------------|--------------------------------|
|*-------------------------------|--------------------------------|
|*2-------2---2-------2---2------|-2---2-------2---4---2---0------|
|--------------------------------|-----------------------------2--|

|--------------------------------|--------------------------------|
|--------------------------------|--------------------------------|
|-0---0---0---0-----------0---0--|-0---0-------0---0---0---0---0--|
|--------------------------------|--------------------------------|

|--------------------------------|--------------------------------|
|--------------------------------|--------------------------------|
|--------------------------------|--------------------------------|
|-3---3---3---3-----------3---3--|-3---3-----------3---3---3---3--|

|--------------------------------|--------------------------------|
|--------------------------------|-------------------------2---2-*|
|-0-----------0-----------0---0--|-0---0-----------0---0---------*|
|--------------------------------|--------------------------------|

-----------------------------------------------------------------------


trapped under ice

120 bpm 
(4/4)
Intro (Guitar)3X
||---------||     ||----------------||
||----R----||     ||----------------||
||---------||     ||-2-2-2-2-2--R---||
||---------||     ||----------------||

Double Time Feel
                                       (play 8 times) 
||------------------------------|--------------------||
||o-----------------------------|-------------------o||
||o-----5---7-------------------|-----5---7-5-8-8-8-o||
||--0-0---0---0-0-0-0-0-0-0-0-0-|-0-0---0------------||


 
bass fig.1 (play 3 times)                             end bass fig.1
||----------------------------------|-----------------------------||
||o---------------------------------|----------------------------o||
||o---------------------------------|-----------------3--2--0--2-o||
||--0-2-2-2-2-2-2-2-0-2-2-2-2-2-2-2-|-0-2-2-2-2-2-2-2-------------||
     H               H                 H


||---------------------------------|----------------------------||
||---------------------------------|----------------------------||
||---------------------------------|-----------------2-2-2-2--3-||
||-0-2-2-2-2-2-2-2-0-2-2-2-2-2-2-2-|-0-2-2-2-2-2-2-2------------||
    H               H                 H


1st, 2nd, 3rd verses w/ bass fig.1 (4 times)


Chorus
  Bass fig.2
||----------------|----------------|-----------------|-----------------|
||----------------|----------------|-----------------|-----------------|
||----------------|----------------|-----------------|-----------------|
||-4--5--0-4--5--0|-4--5--0--0-0--0|-4--5--0-4--5--0-|-4--5--0--0-5-5-0|

                                  end bass fig. 2
|---------------|----------------|---------------|-----------------|
|---------------|----------------|---------------|-----------------|
|---------------|----------------|---------------|-----------------|
|-2-3--0-2-3--0-|-2-3--0--0-3-3-0|-4--5--0-4-5--0|--5--6---5--5----|

 _________________________
|1.                        ||
|  w/ Bass fig.1 (4 times) ||
|                          ||
|                          ||


 _________________________
|2.
|--------------|-------------|-----------------||
|--------------|-------------|-----------------||
|--------------|-------------|-----------------||
|-5-6--5-6-6---|-3-3---5-5---|-1-1-1-1-1-1-1-1-||


Bass fig.3
||----------------------|-----------------|
||o---------------------|---------3-2-----|
||o---------------------|-3-2---------3-2-|
||--0--0-0-0--3-----3-0-|-----5-4---------|

                                     (end bass fig.3)
|--------------------|-----------------------------||
|--------------------|----------------------------o||
|-----------7-----5--|----------------------------o||
|-0--0-0-0------0----|-6--6-6-6--6-6-6--6-6-6--6-6-||

  bass fig.4                                              end bass fig.4
||-------------------|------------------|----------------|--------------||
||o------------------|------------------|----------------|-------------o||
||o-7--7--7----------|-5--5--5----------|-3--3--2--------|-------------o||
||-------------------|------------------|------------3-2-|-0------------||

Bridge w/ Bass fig.4 (2 times)

then continue w/ Bass fig.3 (4 times)

||-----------------------------|-----------------------------|
||-----------------------------|-----------------------------|
||-----------------------------|-----------------------------|
||-6--6-6-6--6-6-6--6-6-6--6-6-|-5--5-5-5--5-5-5--5-5-5--5-5-|

|-----------------------------|---------------------------------|
|-----------------------------|---------------------------------|
|-----------------------------|---------------------------------|
|-5--5-5-5--5-5-5--5-5-5--5-5-|-5-5-5-5-5-5-5-5-5-5-5-5-5-5-5-5-|

|-----------------||
|---------3-2-----||
|-3-2---------3-2-||
|-----5-4---------||


Guitar solo w/ Bass fig.1 (4 times)

then continue w/ Bass fig.2

|------------------------------|---------------------------|
|------------------------------|---------------------------|
|------------------------------|---------------------------|
|-5--6----5--5--5--5-5-5-5-5-5-|-5--6----5--5--5-5-5-5-5-5-|

||------------------------------|--------------------|-----------------||
||------------------------------|--------------------|-----------------||
||------------------------------|--------------------|-----------------||
||-5--6----5--5--5--5-5-5-5-5-5-|-5--6----5--6--6----|-3--3----5--5----||

Bass fig.1 (3 times)

||---------------------------------|----------------|
||---------------------------------|----------------|
||-----------------2---2---2-------|----------------|
||-0-2-2-2-2-2-2-2-----------------|-2--------------|

escape

144 bpm
(4/4)

Intro - Play 3 times
||---------------------|-------------------------||
||o--------------^-----|------------------------o||
||o-------------5-7--5-|(5)--------5-7-5--------o||
||--5-5-5-5-5-5--------|--------8---------8--7---||

||--------------------|--------------------||
||--------------^-----|--------------------||
||-------------5-7--5-|(5)--------5--8--8--||
||-5-5-5-5-5-5--------|--------8-----------||


  Play 4 times
||---------------------||
||--------------------o||
||o-0-0-0-0-0-0-0-5^7-o||
||---------------------||


||--------------------|-----------------|-------------------|--------------||
||o---------------5^7-|-----------------|---------------5^7-|---------875-o||
||o-0-0-0-0-0-0-0-----|-0-0-0-0-6-5-3-5-|-0-0-0-0-0-0-0-----|-0-0-0-0----7o||
||--------------------|-----------------|-------------------|--------------||

1st, 2nd verses
  Bass fig.1
||-----------------|------------------|-----------------|
||-----------------|------------------|-----------------|
||-----------------|------------------|-----------------|
||-2-2-2-2-2-2-2-2-|-2-2-2-2-2-2-2-33-|-33-2-2-2-2-2-2-2|


|------------------|------------------|----------------|
|------------------|------------------|----------------|
|------------------|------------------|----------------|
|-2-2-2-2-2-2-2-33-|-33-2-2-2-2-2-2-2-|-2-2-2-2-2-2-33-|

                         end Bass fig.1
|------------------|-------------------||
|------------------|-------------------||
|------------------|-------------------||
|-33-2-2-2-2-2-2-2-|-2---3---x-0---x-1-||

Repeat Bass fig.1


Chorus                                                Play 4 times
  Bass fig.2                                        (end bass fig.2)
||------------|---------------|------------------|----------------2-|
||------------|---------------|------------------|--------------4---|
||-0--0--0--0-|-0--0--0---0---|------------------|------------4-----|
||------------|---------0---3-|(3)---3---3-0-3-2-|(2)---2---2-------|

||--------------------|-----------------|-------------------|--------------||
||o---------------5^7-|-----------------|---------------5^7-|---------875-o||
||o-0-0-0-0-0-0-0-----|-0-0-0-0-6-5-3-5-|-0-0-0-0-0-0-0-----|-0-0-0-0----7o||
||--------------------|-----------------|-------------------|--------------||

Play Bass fig.1 (2 times)

Play Bass fig.2 (3 times)

||------------|---------------|------------------|--------------||
||------------|---------------|------------------|--------------||
||-0--0--0--0-|-0--0--0---0---|------------------|--------------||
||------------|---------0---3-|(3)---3---3-0-3-2-|(2)--2--2--2--||


||-----------------------|-----------------------|
||o-------4--------------|-------4--------------o|
||o----4-----2--0--------|----4-----0-----------o|
||--2--------------------|-2-----------3---------|

Bridge (half time feel)
||--------------|-------------|-------------|-------------||
||o-------------|-------------|-------------|------------o||
||o-------2--0--|-------------|-------2--0--|------------o||
||--2--2--------|-2--2--3--3--|-2--2--------|-0--0--3--3--||

||----------4--------------|----------2--------------|
||-------4-----------------|-------4-----------------|
||----4--------0--0--0--0--|----4--------------------|
||-2-----------------------|-2-----------3--3--3--3--|

|----------2--------------------------||
|-------4-----------------------------||
|----4--------------------------------||
|-2-----------1--1--1--1--1--1--1--1--||

Guitar solo
||------------------|-----------------|-----------------|
||o-----------------|-----------------|-----------------|
||o-----------------|---------6-5-3-5-|-----------------|
||--0-0-0-0-0-0-0-0-|-0-0-0-0---------|-0-0-0-0-0-0-0-0-|

 ___________________
|1.
|------------------||
|---------8-7-5---o||
|---------------7-o||
|-0-0-0-0----------||

 ___________________
|2.
|-----------------||
|-----------------||
|---------6-5-3-5-||
|-0-0-0-0---------||

                             play 3 times
||-------------------|-------------------|
||o------------------|------------------o|
||o------------------|------------------o|
||--0-2-2-0-2----0-0-|-0-2-2-0-0-3--3----|

||-------------------||
||-------------------||
||-------------------||
||-0-2-2-0-2-3-------||

  (play 5 times) 
||-------------||
||o-----------o||
||o-----------o||
||--0----0-----||

||--------------------------||
||--------------------------||
||-7--7-7-7--7--7--7-7-7--7-||
||--------------------------||

  (play until end & fade)
||------------------|------------------||
||o-----------------|-----------------o||
||o-----------------|---------6-5-3-5-o||
||--0-0-0-0-0-0-0-0-|-0-0-0-0----------||

creeping death

Time 4/4
beat 184    

Intro:

|Fig.1
|--------------------------------|--------------------------------|
|*-------------------------------|--------------------------------|
|*------------------------7------|(7)-----------------------------|
|-0---0---0---0---0--------------|--------------------------------|

                                                         end Fig.1|
|--------------------------------|--------------------------------|
|--------------------------------|-------------------------------*|
|-------------------------7---5--|(5)----------------------------*|
|-0---0---0---0---0--------------|--------------------------------|

|Fig.1A
|--------------------------------|--------------------------------|
|*-------------------------------|--------------------------------|
|*------------------------7------|(7)--------------7--------------|
|-0---0---0---0---0--------------|--------------------------------|

                                                        end Fig.1A|
|--------------------------------|--------------------------------|
|--------------------------------|-------------------------------*|
|-------------------------7---5--|(5)--------------5-------------*|
|-0---0---0---0---0--------------|--------------------------------|

|--------------------------------|--------------------------------|
|--------------------------------|--------------------------------|
|--------------------------------|--------------------------------|
|---------5-------3-------2------|-0------------------------------|

|--------------------------------|--------------------16--17--16-|
|------------- x 6 --------------|--------------------------------|
|--------------------------------|--------------------------------|
|--------------------------------|--------------------------------|

|Fig.2                                                   end Fig.2|
|--------------------------------|--------------------------------|
|*-------------------------------|-------------------------------*|x 4
|*-------------------------------|-----------------2---3---2---0-*|
|-0---0---0---0---0---0---0---0--|-0---0---0---0------------------|

|Fig.3                                                   end Fig.3|
|--------------------------------|--------------------------------|
|*-------------------------------|-------------------------------*|x 4
|*-------------------------------|-------------------------------*|
|-0---0---3-------0---0---3------|-0---0---2---2---2---2---2---2--|

|--------------------------------|--------------------------------|
|*-------------------------------|-------------------------------*|
|*-------------------------------|-----------------2---3---2---0-*|
|-0---0---0---0---0---0---0---0--|-0---0---0---0------------------|

|Fig.4                                                   
|--------------------------------|--------------------------------|
|--------------------------------|--------------------------------|
|---------7---------------7------|-----7---5-----------7---5---7--|
|-0---------------0---0-------0--|(0)-----------------------------|

                                                         end Fig.4|
|--------------------------------|--------------------------------|
|--------------------------------|--------------------------------|
|-5---7---5-------4-------0------|-2-------2-------4--------------|
|--------------------------------|-------------------------2------|

Verse 1, 2, 3:

   Repeat Fig.2 x 8
   Repeat Fig.3 x 4

Chorus:

|Fig.5
|--------------------------------|--------------------------------|
|--------------------------------|--------------------------------|
|--------------------------------|---------------------3-------5--|
|-0-------0-------0---0---0---0--|(0)--0---0---0---0--------------|

|--------------------------------|--------------------------------|
|--------------------------------|--------------------------------|
|(5)------5-------5---5---5---5--|-5---5---5---5---8-------8------|
|--------------------------------|--------------------------------|

|--------------------------------|--------------------------------|
|--------------------------------|--------------------------------|
|-7-------7-------7---7---7---7--|(7)--7---7---7---7---3-------5--|
|--------------------------------|--------------------------------|

|--------------------------------|--------------------------------|
|--------------------------------|--------------------------------|
|(5)------5-------5---5---5---5--|--------------------------------|
|--------------------------------|-1---1---1---1---3---3---3-----|

|--------------------------------|--------------------------------|
|--------------------------------|--------------------------------|
|--------------------------------|---------------------3-------5--|
|-0-------0-------0---0---0---0--|(0)--0---0---0---0--------------|

|--------------------------------|--------------------------------|
|--------------------------------|--------------------------------|
|(5)------5-------5---5---5---5--|-5---5---5---5---8-------8------|
|--------------------------------|--------------------------------|

|--------------------------------|--------------------------------|
|--------------------------------|--------------------------------|
|-7-------7-------7---7---7---7--|(7)--7---7---7---7---3-------5--|
|--------------------------------|--------------------------------|

                                                         end Fig.5|
|--------------------------------|--------------------------------|3rd	
|--------------------------------|--------------------------------|Time
|(5)------5---5---5---5---5---5--|-5-------2-------4--------------|to 
|--------------------------------|-------------------------2------|Coda

Repeat Fig.2 x 2
Repeat Fig.4

Guitar Solo:
|--------------------------------|--------------------------------|
|*-------------------------------|--------------------------------|
|*-------------------------------|-----------------2---3---2---0--|
|-0---0---0---0---0---0---0---0--|-0---0---0---0------------------|

|--------------------------------|--------------------------------|
|--------------------------------|-------------------------------*|x 4
|-0---0---0---0---0---0---0---0--|-0---0---0---0---0-------3-----*|
|--------------------------------|--------------------------------|

Repeat Fig.3 x 4
Repeat Fig.5 

|--------------------------------|
|--------------------------------|
|--------------------------------|
|-0------------------------------|

Bridge:
 half-time
|Fig.6
|--------------------------------|--------------------------------|
|*-------------------------------|--------------------------------|
|*----------------7---7---7---7--|-8---8---8-------5--------------|
|-0------------------------------|--------------------------------|

                                                         end Fig.6|
|--------------------------------|--------------------------------|
|--------------------------------|-------------------------------*|x 6
|-7------------------------------|-------------------------------*|
|-----------------0---0---0---0--|-3-------3---3---1-------1------|

Repeat Fig.2 x 2

|--------------------------------|--------------------------------|
|--------------------------------|--------------------------------|
|--------------------------------|-----------------5----------(5)|
|-0------------------------------|-0-----1-----3------------------|

Coda:
|--------------------------------|--------------------------------|
|*----------------------------2--|(2)-----------------------------|
|*----------------------------2--|(2)-----------------------------|
|-0---0---0---0---0---0---0------|---------0---0---0---0---3---2--|

|--------------------------------|--------------------------------|
|-----------------------------3--|(3)----------------------------*|x 6
|-----------------------------3--|(3)------3---3---3---3---5---5-*|
|-0---0---0---0---0---0---0------|--------------------------------|

|--------------------------------|--------------------------------|
|--------------------------------|--------------------------------|
|---------7-------5-------3---2--|(2)-----------------------------|
|-0---0--------------------------|--------------------------------|

|--------------------------------|--------------------------------|
|--------------------------------|--------------------------------|
|(2)------3-------2-------0---3--|(3)-----------------------------|
|--------------------------------|--------------------------------|

|--------------------------------|--------------------------------|
|*-------------------------------|--------------------------------|
|*(3)-----7-------5-------3---2--|(2)-----------------------------|
|--------------------------------|--------------------------------|

                                 1. 2. 3.
|--------------------------------|--------------------------------|
|--------------------------------|-------------------------------*|
|(2)------3-------2-------0---3--|(3)----------------------------*|
|--------------------------------|--------------------------------|

Repeat Fig.1
Repeat Fig.1A
                                
|--------------------------------|--------------------------------|
|--------------------------------|--------------------------------|
|--------------------------------|--------------------------------|
|-----------------5--------------|-3---------------2--------------|

|--------------------------------|--------------------------------|
|--------------------------------|--------------------------------|
|--------------------------------|--------------------------------|
|-0------------------------------|(0)-----------------------------|

|--------------------------------|--------------------------------|
|--------------------------------|--------------------------------|
|--------------------------------|--------------------------------|
|(0)-----------------------------|(0)-----------------------------|

|--------------------------------|--------------------------------|
|--------------------------------|--------------------------------|
|--------------------------------|--------------------------------|
|(0)-----------------------------|(0)----------------------0------|

|--------------------------------:
|--------------------------------:
|--------------------------------:
|-0------------------------------: End.

The call of ktulu

G||-------------------||----------------|-------------------|
D|4:--Guitar Intro.---||:---------------|------------------:|
A|4:------------------||:-0---------7---|-6----------(6)--:|  x4
E||-------------------||----------------|-------------------|

        w          w                       e e e e e e e e  e e e e  e e  q
G||----------------|----------------||    |----------------|------------------|
D||----------------|----------------||    |----------------|------------------|
A||-------R--------|-5--------------|| x3 |5-5-5-5-5-5-5-5-|5-5-5-5--5-5--5--|
E||----------------|----------------||    |----------------|------------------|


BASS FILL #1
============
     e e e e     e e e e     e e e e e e e e
G||-----------------------|-------------------|
D||--------5-(5)H7-5-7----|-------------------|
A||--0-0-0-------------7--|--6-6-6-6-6-7------|
E||-----------------------|--------------8-7--|


BASS SOLO
=========
3rd and 4th times, substitute Bass Fill #1

     e  e      e  e  q.  e     e e e e  e e  q      e e  q  e e e e
G||-------------------------|--------------------|----------9-9-9----|
D||:-------(5)H7--5--7------|--------------------|----------7-7-7----|
A||:-0--0----------------7--|--6-6-6-6--6-7--7--|--0-0--0--0-0-0-7--|
E||-------------------------|--------------------|-------------------|

     e e e e  e   e   e   e      e e e e     e  e s s e      e e e e  e e e e
G||---------------------------|---------------------------|--------------------|
D||---------------------------|--------5-(5)H7--7-7-7-----|--------------------|
A||--6-6-6-6--6-(10)-(6/(10))-|--0-0-0----------------7---|--6-6-6-6--6-7------|
E||---------------------------|---------------------------|---------------8-7--|

     e e e e  q    e  e     e e e e  e e  q      e e e e  e  e  e  e
G||----------------------|--------------------|------------------------|
D||--------5--7---(7)---|--------------------|--0-0-0-0--12-12-12-12--|
A||--0-0-0----0/------7--|--6-6-6-6--6-7--7--|------------------------|
E||----------------------|--------------------|------------------------|

     s s s s  s  s  s  s   s  s  s  s   s  s  s  s      e e e e  e  e  e  e
G||--9-9-9-9--10-10-10-10--12-12-12-12--12-12-12-12--|------------------------|
D||--------------------------------------------------|--0-0-0-0--12-12-12-12--|
A||--------------------------------------------------|------------------------|
E||--------------------------------------------------|------------------------|

                                                    [1.--------------------------
     q    q     e  e   q      e e e e  e  e  e  e      q     q     q     e  e
G||-------10----10-10--10-|------------------------|--10----12----14----12-14--|
D||--12---------12-12--12-|--0-0-0-0--12-12-12-12--|---------------------------|
A||------------------------|------------------------|---------------------------|
E||------------------------|------------------------|---------------------------|
                                                   ^
                                This is where it changes.
                                When you get to here, go
                                to the next part 1-2-3-4 !

------------------------------------------------------------------------------]
     e  e   s  s  e  s  s  e  s  s  e     s  s  e   s  s  e    e  e  e  e
G||--15-14--12H14P12-14H15P14-12H14P12--|-14H15P14--12H14P12---15-14-12-14--||
D||-------------------------------------|-----------------------------------:||
A||-------------------------------------|-----------------------------------:||
E||-------------------------------------|------------------------------------||

[2.------------------------------------------------------------------------------------------]
     q     q     q.  s  s      e  e  e  e   e  e  e  e  
G||--10----12----14--12-14--|--12-17-15-14-----15-14-----|-----14H15P14--------14H15P14-----||
D||-------------------------|---------------17-------17--|--17----------17--17----------17-:||
A||-------------------------|----------------------------|---------------------------------:||
E||-------------------------|----------------------------|----------------------------------||


[3.---------------------------------------------------------------------------------]
     q     q     h          e  e  e  e   e  e  e  e      e  e  e  e   e  e  e  e
G||--10----12----14------|------------------12-14-12--|--14-12-15-14--17-15-17-19---||
D||----------------------|--12-14-15-12--15-----------|-----------------------------:||
A||----------------------|----------------------------|-----------------------------:||
E||----------------------|----------------------------|------------------------------|| 

[4.--------------------------->
    e  e  e  e   e  e  e  e    s  s  s  s  s  s  s  s  s  s  s  s  s  s  s  s
G||--------------------------|-14-14-14-14-14-14-14-14-10-10-10-10-10-10-10-10-|
D||-12-12-12-12--12-12-12-12-|-------------------------------------------------|
A||--------------------------|-------------------------------------------------|
E||--------------------------|-------------------------------------------------|

::::GRADUAL BEND:::::::::::::full-----------wah off-]
    s  s  s  s  s  s  s  s  s  s  s  s  s  s  s  s      
G||-12-12-12-12-12-12-12-12-12-12-12-12-12-12-12-12-|
D||-------------------------------------------------|
A||-------------------------------------------------|
E||-------------------------------------------------|

This is the cool bit. It sounds good.
     e  e  e  e  e  e  e  e     e  e  e  e e+s e+s e     e  e  e  e  e  e  e  e
G||--------------------------|------------------------|--------------------------|
D||:-------------------------|------------------------|--------------------------|
A||:-------------0-----2--3--|--------------0--2---3--|--------------0-----2--3--|
E||--0--0--0--0-----0--------|--1--1--1--1------------|--2--2--2--2-----0--------|

     e  e  e  e e+s e+s e
G||------------------------|
D||-----------------------:|  x4
A||--5-----------3--2-----:|  
E||-----3--3--3---------3--|

     e  e  e  e  e  e  e  e     e  e  e  e e+s e+s e
G||--------------------------|------------------------|--------------------------|
D||:-------------------------|------------------------|--------------------------|
A||:-------------3-----5--6--|--------------3--5---6--|--------------3-----5--6--|
E||--3--3--3--3-----3--------|--4--4--4--4------------|--5--5--5--5-----5--------|

     e  e  e  e e+s e+s e
G||-------------------------|
D||------------------------:|
A||--8-----------6--5------:|
E||-----6--6--6---------6---|


Guitar SOLO --> Play this section with Wah

     e  e  e  s   q  e  e    e  e  e  e  e  e  e e    e  e  e  e  e  s s e e
G||------------------------|------------------------|------------------------|
D||:----------5-5H7--7-----|------------------------|----------5--7--7-7-7---|
A||:-0--0--0------------7--|-6--6--6--6--6--7--7/9--|-0--0--0--------------7-|
E||------------------------|------------------------|------------------------|

    e  e  e  e  e  e  q      e  e  e  e  e s s e  e     e  e  e  e  e  e  e  e
G||-----------------------|--------------------------|--------------------------|
D||----------------5--5--|-----------5--7-7-7-7-----|--------------------------|
A||-6--6--6--6--6--7--7--|--0--0--0--------------7--|--6--6--6--6--6--7--------|
E||-----------------------|--------------------------|--------------------8--7--|

     e  e  e  e    q.   s     e  e  e  e  e  e  e  e     e  e  e  e  e  e  e  e
G||------------------------|--------------------------|---------------------------|
D||----------------7------|--------------------------|--0--0--0--0--12-12-12-12--|
A||--0--0--0--0----0----7--|--6--6--6--6--6--7--7--7--|---------------------------|
E||------------------------|--------------------------|---------------------------|

    e  e  e  e  e  e  e  e  
G||-------------------------|
D||-12-12-12-12-12-12-12-12-| Repeat this bar 4 times
A||-------------------------|
E||-------------------------|

[1.------------------------------------------------------------------------------]
    e  e  e  e  e  e  e  e    e  e  e  e  e  e  e  e    e  e  e  e  e  e  e  e
G||-------------------------|-------------------------|--------------------------|
D||-12-12-14-14-15-15-14-14-|-12-12-12-12-12-12-12-12-|-12-12-12-12-12-12-12-12-:|
A||-------------------------|-------------------------|-------------------------:|
E||-------------------------|-------------------------|--------------------------|

[2.------------------------------------------------------------------------------]
    e  e  e  e  e  e  e  e    e  e  e  e  e  e  e  e    e  e  e  e  e  e  e  e
G||-------------------------|-------------------------|--------------------------|
D||-12-12-12-12-12-12-12-12-|-12-12-12-12-12-12-12-12-|-12-12-12-12-12-12-12-12-:|
A||-------------------------|-------------------------|-------------------------:|
E||-------------------------|-------------------------|--------------------------|

      e  e  e  e  e  e  e  e    e  e  e  e  e  e  e  e    e  e  e  e  e  e  e  e
G||---------------------------|-------------------------|-------------------------|
D||:-----------5--7--5--7-----|-------------------------|----------5--7--5--7-----|
A||:--0--0--0--------------7--|-6--6--6--6--6--7--------|-0--0--0--------------7--|
E||---------------------------|-------------------8--7--|-------------------------|

     e  e  e  e  e  e  q
G||-------------------------|
D||-----------------5--5--:|
A||--6--6--6--6--6--7--7--:|
E||-------------------------|

     e  e  e  e  e  e  e  e     e  e  e  e  e  e  e  e
G||--------------------------|--------------------------|
D||--0--0--0--0--12-12-12-12-|--13-13-14-14-15-15-15-15-| Play these bars twice
A||--------------------------|--------------------------|
E||--------------------------|--------------------------|

     e  e  e  e  e  e  e  e     e  e  e  e      h         s  e  s  e  s  e  s  e  s  e  s  
G||--------------------------|------------------12------|-12-14-12-14-12-14-12-14-12-14-12-|
D||--0--0--0--0--12-12-12-12-|--14-14-15-15-------------|----------------------------------|
A||--------------------------|--------------------------|----------------------------------|
E||--------------------------|--------------------------|----------------------------------|

    e  s  e  s  e  s  e  s  q
G||-14-12-14-12-14-12-14-12-14-|
D||----------------------------|
A||----------------------------|
E||----------------------------|

     e  e  e  e  e  e  e  e     e  e  e  e  e. e. e
G||--------------------------|------------------------|
D||:-------------------------|-----------------------:|
A||:-0-----------0-----2--3--|--0-----------0--2--3--:|  x4
E||-----0--0--0-----0--------|-----1--1--1------------|

     e  e  e  e  e  e  e  e     e  e  e  e  e. e. e
G||--------------------------|------------------------|
D||:-------------------------|-----------------------:|
A||:-2-----------2-----4--5--|--2-----------2--4--5--:|  x4
E||-----2--2--2-----2--------|-----3--3--3------------|

     e  e  e  e  e  e  e  e     e  e  e  e  e. e. e
G||--------------------------|-----------------------|
D||:-------------------------|----------------------:|
A||:-3-----------3-----5--6--|--3-----------3--5--6-:|   x3
E||-----3--3--3-----3--------|-----4--4--4-----------|

     e  e  e  e  e  e  e  e     e  e  e  e  e. e. e
G||--------------------------|-----------------------|
D||:-------------------------|----------------------:|
A||:-5-----------5-----7--8--|--5-----------5--7--8-:|   x3
E||-----5--5--5-----5--------|-----6--6--6-----------|

         h..       s         w
G||---------------------|-------------------|
D||:--------------------|------------------:|
A||:-----0---------7----|----6-------------:|   x8
E||---------------------|-------------------|

                        [1.2.3.-------------][4.---------------------------------->
          h      h           w                     h      h
G||-------7------7------|-------------------|--------------------|--------------------|
D||:--------------------|------------------:|------0-------------|--------------------|
A||:--------------------|----0-------------:|--------------------|--------------------|
E||---------------------|-------------------|-------------0------|----(0)-------------|

       e  e  e e+q    q     q    q     h
G||----------------------|--------------------|
D||:---------------------|--------------------|
A||:---------------------|-------7-----7------|
E||----3--2--2--2-----3--|--0----------0------|

                         [1-7.----------------]
       e  e  e e+q    q     q.         h.
G||----------------------|--------------------|
D||----------------------|-------------------:|
A||----------------------|-------------7-----:|
E||----3--2--2--2-----3--|--0----------0------|

   [8.------------------->
      q.  h      e   e       q     e   e+h        w
G||----------------------|-------------------|----------------------|
D||----------------------|-------------------|----------------------|
A||----------------------|---------5----5----|---(5)----------------|
E||---0---0------2---2---|--(2)--------------|----------------------|


Now there is 15 bars of Drums. Now for the final little section --->
       q    q    q    q       q    q    h             h.
G||----------------------|----------------------|-------------------|
D||----------------------|----------------------|3------------------|
A||----5----3----5----1--|----5----8----5-------|4---(5)------------|
E||----------------------|----------------------|-------------------|

       q    q    q    q       q    q    h       Fast !                                h    h
G||---------------------|---------------------|1210/12/1412/14/1514/15/1715/17/|/19--------|
D||4--------------------|---------------------|------------------------------------|-----------|
A||4---5---3----5----1--|----5----8----5------|------------------------------------|------17---|
E||---------------------|---------------------|------------------------------------|-----------|

The guys who made the tabs
Fight fire with fire- HaMsTr
Ride the lightning- Eros Fratini
For whom the bell tolls- Eros Fratini
Fade to black- Eros Fratini
Trapped under ice- anonomys
Escape- anonomys
Creeping death- Eros Fratini
The call of ktulu- anonomys

The guy who put all this shit together
Big tommy p

People....enjoy ride the lightning
comments
print report bad tab
4 comments total. Showing first comments. show 1 bad comment
+4 reply
totalxanarchy wrote on November 3 2007, 07:55 pm

yeah but he gave the ppl credit, lots of ppl do that retard. nice job puttin it together, mr. unregistered.

+3 reply
bassguitar56 wrote on September 6 2008, 05:31 pm

**** u herrly

I want to post or [tab]
guest
You may want to rate the tab now too:
select rating
Please do not post tabs as comments. Select "correction" instead!