Oops, an error
Loading. Please wait.

Ride The Lightning Tab

ver2
ver2
More versions @911Tabs.com
34,277 views 30 this week
7 commentsread comments
1 2 3 4 5
accurate
x 7
Autoscroll
+/-
esc
set tempo
stop
Contributor
Hey! There's an official Ultimate Guitar app which is ideal
for learning songs when you're away from computer. Get the app
WARNING: You are trying to view
                                    content from Ultimate-Guitar.com
                                    in an unauthorized application,
                                    which is prohibited.

                                    Please use an official Ultimate
                                    Guitar Tabs application for iPhone,
                                    iPad or Android to access legitimate
                                    chords, guitar, bass, and drum tabs
                                    from Ultimate-Guitar.com database.

                                    Type "ultimate guitar tabs" in Apple
                                    App Store's or Android Market's
                                    search to find the application.
RIDE THE LIGHTNING
1.Fight Fire With Fire
2.Ride The Lightning
3.For Whom The Bell Tolls
4.Fade To Black
5.Trapped Under Ice
6.Escape
7.Creeping Death
8.The Call Of Ktulu

1.Fight Fire With Fire

acoustic intro:
E|----------------|-----__3__-------|----------------|---------------2|
B|--0----1----3---|-5-6-5h6p5-3-----|--5-------------|3-----3-----3--3|
G|-------2----4---|-5---------4-5sl4|-----4-----__3__|---2-----2--2---|
D|----------------|-------------7---|--------6--6sl7-|4--------4------|
A|----------------|-----------------|----------------|----------------|
E|----------------|-----------------|----------------|----------------|

   
E|----------------|-----__3__-------|----------------|---0-----------5|
B|--0----1----3---|-5-6-5h6p5-3-----|-0-----2----2---|2--2-----2--5---|
G|--0----2----4---|-5---------4-5sl4|----2-------2---|2-----2---------|
D|----------------|-------------7---|----------------|2---------------|
A|----------------|-----------------|-2--------------|0---------------|
E|----------------|-----------------|----------------|----------------|

    
E|----------------|-----__3__-------|-5--------------|3------3-------3|
B|--0----1----3---|-5-6-5h6p5-3-----|-----5----------|---3--------3--3|
G|--0----2----4---|-5---------4-5sl4|---------6--6sl7|4--------4--4---|
D|----------------|-------------7---|----------------|5--------5------|
A|----------------|-----------------|----------------|----------------|
E|----------------|-----------------|----------------|----------------|

    
E|----------------|-----__3__-------|-------3-3---3--|-----7-10-8-----|
B|--0----1----3---|-5-6-5h6p5-3-----|---0-3-3-3-3-3-3|-8-5-5-8--------|
G|--0----2----4---|-5---------4-5sl4|-0-0-4-----4---4|-5-5------9-----|
D|----------------|-------------7---|-2--------------|-5-5-5----------|
A|----------------|-----------------|----------------|-------8--7-----|
E|----------------|-----------------|----------------|----------------|


DISTORTION!!!!! crank it up!
super fast:
E||----------------------------------|--------------------------------|
B||----------------------------------|--------------------------------| 4x
G||o---------------------------------|--------------------------------| 
D||o---------------------------------|--------------------------------| 
A||-------------5-----------------4--|-------------5-------4-------4--|
E||-0-0-0-0-0-0-3---0-0-0-0-0-0-0-2--|-0-0-0-0-0-0-3---0-0-2---0-0-2--|
    ...........     .............      ...........     ...     ...


E|----------------------------------|--------------------------------||
B|----------------------------------|--------------------------------|| 3x
G|----------------------------------|-------------------------------o|| 
D|----------------------------------|-------------------------------o|| 
A|-------------5-----------------4--|-------------5-------4-------3--||
E|-0-0-0-0-0-0-3---0-0-0-0-0-0-0-2--|-0-0-0-0-0-0-3---0-0-2---0-0-1--||
   ...........     .............      ...........      ...     ...




E||---------------------------------|---------------------------------||
B||---------------------------------|---------------------------------||
G||o--------------------------------|--------------------------------o||
D||o--------------------------------|--------------------------------o||
A||--------------------------4---5--|-----------------4------4--------||
E||---0--3---5p0-0-0-3---0-0-2---3--|-0---3---5p0-0-0-2------2--------||
  
  
E|----------------------------------|---------------------------------||
B|----------------------------------|------------------------r--------||
G|----------------------------------|------------------------e--------||
D|----------------------------------|------------------------s--------||
A|--------------------------4---5---|-----------------4------t--------||
E|---0--3---5p0-0-0-3---0-0-2---3---|-0---3---5p0-0-0-2---------------||
    


E|----------------------------------|----------------------------------|
B|----------------------------------|----------------------------------|
G|-------------------------3--------|----------------------------------|
D|-------3-----------3-----4-----3--|----------------------------------|
A|-2-----5-----------1-----2-----1--|-1-1-1-1-1-1-1-1-1-1-1-1-1-1-1-1--|
E|-0-----3-----0--------------------|----------------------------------|
               .
   

E|----------------------------------|----------------------------------|
B|----------------------------------|----------------------------------|
G|-------------------------3--------|----------------------------------|
D|-------3-----------3-----4-----3--|----------------------------------|
A|-2-----5-----------1-----2-----1--|-1-1-1-1-1-1-1-1-1-1-1-1-1-1-1-1--|
E|-0-----3-----0--------------------|----------------------------------|
               .
 

E|----------------------------------|----------------------------------|
B|----------------------------------|----------------------------------|
G|-------------------------3--------|----------------------------------|
D|-------3-----------3-----4-----3--|----------------------------------|
A|-2-----5-----------1-----2-----1--|-1-1-1-1-1-1-1-1-1-1-1-1-1-1-1-1--|
E|-0-----3-----0--------------------|----------------------------------|
               .
 
                              

E|----------------------------------|---------------------------------|
B|----------------------------------|---------------------------------|
G|-------------------------3--------|---------------------------------|
D|-------3-----------3-----4-----3--|-3-------------------------------|
A|-2-----5-----------1-----2-----1--|-1-------------------------------|
E|-0-----3-----0--------------------|---------------------------------|
               .
   

E|-------------|------------|--------------|------------|-------------||
B|-------------|------------|--------------|------------|-------------||
G|-------__3__-|-2----------|-(2)----__3__-|-5----------|-(5)---__3__-||
D|--3----7-5-4-|-2----------|-(2)--------4-|-5----------|-(5)---4---2-||
A|--1----5-3-2-|-0----------|-(0)----5-7-2-|-3----------|-(3)---2-5-0-||
E|-------------|------------|--------3-5---|------------|---------3---||
           ...                       .....                        .



E|---------------------------------------|--------------------------------|
B|-_______9:8_______-____5____-____5____-|--------------------------------|
G|-9-9-9-9-9-9-9-9-9-9-9-9-9-9-9-9-9-9-9-|9-9-9-9-9-9-9-9-9---7-9-----9-7-|
D|---------------------------------------|--------------------------------|
A|---------------------------------------|--------------------------------|
E|---------------------------------------|--------------------------------|
  
 
E|-----------------------|10-7--------------------------------------------|
B|-----------------------|-----10-7---------------------------------------|
G|-----------------------|----------9-7---7-9-7---7-9-7-------------------|
D|9----7-9p7---7-9p7-9p7-|--------------9-------9-------9-7-9-7-----------|
A|-----------9-----------|--------------------------------------9-7-9-7---|
E|-----------------------|----------------------------------------------8-|
  
                                                        __3__
E|------------------------------------|-----------------7h9p7-------------|
B|------------------------------------|-----------------------10p7--------|
G|--------------------------------7-9-|-9p7-9p7---7-9-7------------9p7-7h9|
D|------------------5-7--5h7-7-9------|---------9-------------------------|
A|-------------5-7--------------------|-----------------------------------|
E|5s7------5h7------------------------|-----------------------------------|
  

E|----------------------------------|------------------|---------12-----14|
B|----------------------------------|------------------|---12s14---su15---|
G|7h9p7-------7-9--9p7---9-7-----9s-|----------7-------|14----------------|
D|------9-7-9----------9-----7-9----|7s9--7s9-----14s16|------------------|
A|----------------------------------|------------------|------------------|
E|----------------------------------|------------------|------------------|
 
                                
                                  
                                
E|15p14-14-14-15p14-17p14-19p14-17----17p14----14-|
B|------------------------------------------15----|
G|------------------------------------------------|
D|------------------------------------------------|
A|------------------------------------------------|
E|------------------------------------------------|


                        
E|17p14-19p14-17p14----14-17-----17-----17-----17----|
B|------------------17-------------------------------|
G|---------------------------------------------------|
D|---------------------------------------------------|
A|---------------------------------------------------|
E|---------------------------------------------------|


      
E|17-----(17)---14--17p14-15p14-15p14----------------------------------|
B|------------------------------------17-14-17p15p14-14-16----14-------|
G|---------------------------------------------------------16----16-14-|
D|---------------------------------------------------------------------|
A|---------------------------------------------------------------------|
E|---------------------------------------------------------------------|


E|------------------------------------------------|
B|------------------------------------------------|
G|14-16-12-11-14-12-11----11----------------------|
D|---------------------14----14-12-11-12-11-------|
A|------------------------------------------14-12-|
E|------------------------------------------------|


                  
E|---------------------------------------------|-----------------------|
B|---------------------------------------------|-----------------------|
G|---------------------------------------------|-----------------------|
D|10-12-10----10-------------------------------|-----------------------|
A|---------12----12-10-12-10-12-10-------------|-----------------------|
E|---------------------------------12-10-12-10s|12---------------------|
 

                                                        Both Guitars:
E|----------------------|-----------------------|----------19/15-19/15-|
B|----------------------|-----------------------|----------------------|
G|----------------------|-----------------------|----------------------|
D|----------------------|-----------------------|----------------------|
A|----------------------|-----------------------|----------------------|
E|----------------------|-----------------------|----------------------|
                                                         


E||-19/15--15/12--17/14--14--15/12--12--14-------|
B||----------------------15---------14--15--15/12|
G||o---------------------------------------------|
D||o---------------------------------------------|
A||----------------------------------------------|
E||----------------------------------------------|


E|15/12--12--14---------12----------------|----------------------------|
B|-------14--15--15/12--14--14--15/12--13-|-13--12----13--13--12----13-|
G|--------------------------14---------14-|-14--12----14--14--12----14-|
D|----------------------------------------|----------------------------|
A|----------------------------------------|----------------------------|
E|----------------------------------------|----------------------------|


E|10--12p10-12p10-------------------10--12p10-12p10----|
B|12--13p12-13p12-13--13--12----13--12--13p12-13p12-13-|
G|----------------14--14--12----14------------------14-|
D|-----------------------------------------------------|
A|-----------------------------------------------------|
E|-----------------------------------------------------|
 

E|-----------------12--10--------------------------|10--------------------|
B|-13--10----12-13-13--12--13--12--12--10----12-13-|12--13--12--10--10--12|
G|-14--11----12-14---------14--12--12--11----12-14-|----14--12--11--11--12|
D|-------------------------------------------------|----------------------|
A|-------------------------------------------------|----------------------|
E|-------------------------------------------------|----------------------|
 

  
E|--------------------------10------19/15-19/15-||
B|(12)--10-13-13--12h13-10--12--12--------------||
G|(12)--11-14-14--12h14-11------12-------------o||
D|---------------------------------------------o||
A|----------------------------------------------||
E|----------------------------------------------||

E|------------------------10-------||
B|(12)--10--13--12h13-10--12--12sd-||
G|(12)--11--14--12h14-11------12sd-||
D|---------------------------------||
A|---------------------------------||
E|---------------------------------||


DRUMS....

  
Play this quieter. and less distortion!
E||----------------------------------|--------------------------------|
B||----------------------------------|--------------------------------|
G||o---------------------------------|--------------------------------|
D||o---------------------------------|--------------------------------|
A||-------------5-----------------4--|-------------5-------4-------4--|
E||-0-0-0-0-0-0-3---0-0-0-0-0-0-0-2--|-0-0-0-0-0-0-3---0-0-2---0-0-2--|
    ...........     .............      ...........     ...     ...


E|----------------------------------|--------------------------------||
B|----------------------------------|--------------------------------||
G|----------------------------------|-------------------------------o||
D|----------------------------------|-------------------------------o||
A|-------------5-----------------4--|-------------5-------4-------3--||
E|-0-0-0-0-0-0-3---0-0-0-0-0-0-0-2--|-0-0-0-0-0-0-3---0-0-2---0-0-1--||
   ...........     .............      ...........     ...     ...

                                       

E|----------------------------------|--------------------------------||
B|----------------------------------|--------------------------------||
G|----------------------------------|--------------------------------||
D|----------------------------------|--------------------------------||
A|-------------5-----------------4--|-------------5-------4-------3--||
E|-0-0-0-0-0-0-3---0-0-0-0-0-0-0-2--|-0-0-0-0-0-0-3---0-0-2---0-0-1--||
   ...........     .............      ...........     ...     ...

                                   
E|---------------------------------||----------------------------------||
B|---------------------------------||----------------------------------||8x
G|---------------------------------||o------------------______3______-o||
D|---------------------------------||o______3______-----3-----4-----3-o||
A|-1-1-1-1-1-1-1-1-1-1-1-1-1-1-1-1-||-2-----5-----------1-----2-----1--||
E|---------------------------------||-0-----3-----0--------------------||
                                                  .                                      
                                     

 
E||------------------------------------||
B||------------------------------------||
G||o-------------------______3______--o||
D||o-______3______-----3-----4-----3--o||
A||--2-----5-----------1-----2-----1---||
E||--0-----3-----0---------------------||
                 .
   
E|------------|------------|--------------------------|---------------||
B|------------|------------|--------------------------|---------------||
G|------------|------------|-___3___-------___3___----|-9sd-----------||
D|-3----------|-2----------|-9--9--9--9----9--9--9--9-|-9sd-----------||
A|-1----------|-2----------|-7--7--7--7----7--7--7--7-|-7sd-----------||
E|------------|-0----------|--------------------------|---------------||



E|-------------|----------|----------|---------------------------------||
B|-------------|----------|----------|---------------------------------||
G|-------------|----------|----------|---------------------------------||
D|-------------|----------|----------|---------------------------------||
A|---8---------|(8)-------|(8)-------|---(8)---------------------------||
E|-------------|----------|----------|---------------------------------||

2.Ride The Lightning

|--------7-----8------------------7--------------------------------------|
 |--------7-----8-----------10-----------------------7--------------------|
 |--------------------------7------9-----------9-----------------x-----9--|
 |---------------------------------------------7-----9--------------------|
 |---------------------------------------------------------------5-----7--|
 |------------------------------------------------------------------------|
  Start bit. May be two guitars. Can be approximated by playing the lower
 of the notes if need be. The bass can be approximated with open E (E|--0--)
 
 |-----------------------------|
 |-----------------------------|
 |-----------------------------|
 |-7/8--------7/8--------------|
 |-7-8--------7-8--------------|
 |-5-6--0--0--5-6--0--0--0--0--|
  After start bit.
 
 |----------------------------------------------|
 |----------------------------------------------|
 |-6--------5--4--------6-----------------------|
 |-6--------5--4--------6-----7--7--7--7--7--7--|
 |-4--------3--2--------4-----7--7--7--7--7--7--|
 |----------------------------5--5--5--5--5--5--|
  Chorus
 
 |---------------------------------------------|
 |---------------------------------------------|
 |----------------5----------------------------|
 |----------------5-----------------5-7-----7--|
 |-2--------------3-----------------5-7-----7--|
 |-0--------0--3--------------0--2--3/5-----5--|
  Middle/Backing in solo.
 
 |-------------------------------------------------------------|
 |-------------------------------------------------------------|
 |-------------------------------------------------------------|
 |-9--8--7--------------------------------5-----------------5--|
 |-7--6--5-----4-----3--------------------5-----------------5--|
 |----------6-----5-----4-----0--0--0--0-----0--0--0--0--0-----|
  Just before "oh God help me, OH please god help me"
 
 |----------------------------------|-------------------------------|
 |----------------------------------|-------------------------------|
 |----------------------------------|-------------------------------|
 |-------------5--------------------|--------5--------5--------5-4--|
 |-4--2--4--7--3-----4--2--4--7--2--|--3--3--3--3--3--3--3--3--3\2--|
 |-2--0--2--5--------2--0--2--5--0--|-------------------------------|
  A riff close to the end.

3.For Whom The Bell Tolls

gtr.1
|-------------------------------------      
|-------------------------------------
|-------------------------------------
|-4-4----4-4---2----------------------         5x
|-4-4----4-4---2----------------------
|-2-2----2-2---0----------------------

|-----------------------
|-----------------------
|-----------------------
|--4-4----2-------------        8x
|--4-4----2-------------
|--2-2----0-------------

gtr2 does this  all 5 times with the first bit then does it only 4 times with the second bit.
(he does this right after the first gtr  but youll figure it out if you've heard it)
THIS PART HERE IS REALLY BASS BUT THIS IS IT TABBED OUT FOR GUITAR IF YOUR PLAYIN ALONE.
|---------------------------------------------|
|---------------------------------------------|
|---------------------------------------------|
|-12--11--10--9-------------12----------------|so that would make it  9x RIGHT?
|---------------------10--9-------------------|      
|---------------------------------------10--9-|
gtr 2

Ok for this part you do the chord 5&7 in that bar the first time and for 2nd time you
do it with the 2&4 chord at the end of it instead of the 7&5.and the alternate
|--------------------------------------------------------
|--------------------------------------------------------
|--------------------------------------------------------                    
|----------------------------------------------|---|-4--|            
|--2--5--4--3--2--5--4--3--2--5--4--3--2--5--4-|-7-|-2--|
|--0--3--2--1--0--3--2--1--0--3--2--1--0--3--2-|-5-|----|

this part is the 1st guitar and it comes rite after the second guitar is done that last riff
so listen or yull miss it!!
gtr1
|---------------------------------------
|---------------------------------------
|---------------------------------------
|-2-----5----2----5----9--7-------------        2x letting it RING OUT
|-2-----5----2----5----9--7-------------
|-0-----3----0----3----7--5-------------


gtr2 plys this along with gtr 1
|--------------------------------------
|--8----7--------7-8-----7-------------------
|-----9----7--9-------9-----7-9-------ok you play this monster 16x FAST along wit that last 1
|------------------------------------------
|------------------------------------------
|-----------------------------------------

gtr 1
(this is the chorus too but for now u just play it through)
|-------------------------------------------------------
|-------------------------------------------------------
|---------------------------------------3---------------
|---------5-----------7-----------5-----3----4----------
|---------5-----------7-----------5-----1----4----------
|---0-0-0-3-----0-0-0-5-----0-0-0-3----------2----------

|---------------------------------------------
|---------------------------------------------
|------------------------------------3--------
|---------5------7----------5--------3-4-3----        ok alternate these ones 2x each
|---------5------7----------5--------1-4-3----
|--0-0-0--3--0-0-5----0-0-0-3--0-0-0---2-1----

Verse let ring out and each chord changes at the first of every line of lyrics
|-----------------------------|-----------------------------------
|-----------------------------|-----------------------------------
|-odd line of lyrics----------|2nd line,and 4th,8th you know--
|-2-----------------5---------|---2--------5-------10-----7------
|-2-----------------5---------|---2--------5-------10-----7------
|-0-----------------3---------|---0--------3-------8------5------
DO CHORUS,THEN,
this part is between the 1st and 2nd verse im workin on gtr 2 but this is
gtr1
|------------------------------------------------------------------------------------------------------
|------------------------------------------------------------------------------------------------------
|------------------------------------------------------------------------------------------------------
|-2----2----2----5--5-5-5-5--5-5-5-2----9----2----2----2----5--5-5-5-5--5-5-5-2-----5------------------
|-2----2----2----5--5-5-5-5--5-5-5-2----9----2----2----2----5--5-5-5-5--5-5-5-2-----5------------------
|-0----0----0----3--3-3-3-3--3-3-3-0----7----0----0----0----3--3-3-3-3--3-3-3-0-----7------------------
GO RIGHT INTO VERSE 2 AND THEN DO THE CHORUS AGAIN.THEN,

outro
|-----------------------------------------------------
|-----------------------------------------------------
|-----------------------------------------------------
|-9----11--11------9----11---11---12---12-------------
|-7-----9---9------7----9----9----10---10-------------
|-0----------------0----------------------------------
then while gtr1 is doin this outro gtr2 does some high screeching stuff
up on the 22 fret that sounds kinda like a horse but it would be almost
impossible to figure it out.

4.Fade To Black

Rhy. Fig 1 (acoustic guitar)                      end Rhy Fig 1 
e |----------------|---------------|---------------|---------------| 
B |----------------|---------------|---------------|---------------| 
G |-----0----------|----0----------|----0----------|----2----------| 
D |---4---4---4---4|--4---4---4---4|--4---4---4---4|--2---2---2---2| 
A |-2-------2---5--|0-------0---5--|2-------2---5--|4-------4---0--| 
E |----------------|---------------|---------------|---------------| 
  |                                                                | 
  |                                  Elec Gtr. w/flanger or chorus | 
e |----------------------------------------------------------------| 
B |---------------------------------------------------------------7| 
G |-------------------------------------------------------------7--| 
D |----------------------------------------------------------/9----| 
A |----------------------------------------------------------------| 
E |----------------------------------------------------------------| 
 
         w/Rhy Fig 1 (4 times) 
    Bm(flat 6)        Bm/A            Bm(flat 6) 
                                            .-------------. 
          sl                      .---.    '  P  P sl H  P ` 
e |-----------------|---------------|------------------------------| 
B |---7--8/10--8--10|-12--10--8--10-|(10)--12--10--8\7--8--7-----7-| 
G |-----------------|---------------|-------------------------9----| 
D |-9---------------|---------------|------------------------------| 
A |-----------------|---------------|------------------------------| 
E |-----------------|---------------|------------------------------| 
 
    A/C#                 Bm(flat 6)    Bm/A       Bm(flat 6)       A/C# 
      H                     .---.    sl     P                    sl  vibrato 
e |---------------------|-------------|----------|----------------|-------------------14-| 
B |-7--8--7-----7-------|-------------|---------8|-7------------8/|10^^^^^^^^-------15---| 
G |----------9-----9--7-|-----------7\|6--7--6---|----------------|----------------------| 
D |---------------------|7--9--(9)\---|----------|----------------|----------------------| 
A |---------------------|-------------|----------|----------------|----------------------| 
E |---------------------|-------------|----------|----------------|----------------------| 
                                                       Bm/A 
   Bm(flat 6)                                   full )\ 
                      P                             /  \  vibrato     H    vibrato   H 
e |19--14----------15--14-----------------------------|---------------------------------| 
B |--------15--------------15------17--15--14---------|---------------------------------| 
G |------------16--------------14--------------16--14-|(14)^^^^^^^^-14^16---------------| 
D |---------------------------------------------------|------------------14^^^^^^^-14^16| 
A |---------------------------------------------------|---------------------------------| 
E |---------------------------------------------------|---------------------------------| 
   Bm(flat 6)                              A/C# 
                     H   P           H 
e |---------------------------------------|---19--17--15-------15--17--| 
B |--------14--15--14--15--14------14--15-|14--------------------------| 
G |-14--16----------------------16--------|----------------------------| 
D |---------------------------------------|----------------------------| 
A |---------------------------------------|----------------------------| 
E |---------------------------------------|----------------------------| 
 
  Bm(flat 6)                 Bm/A 
             vibrato                                    Bm(flat 6) 
e |14------------------14--15-|14---------------14--15-|-14--------17----15--| 
B |----15---------------------|------15----------------|-------15------------| 
G |--------16^^^^^^^^---------|----------14------------|---------------------| 
D |---------------------------|------------------------|---------------------| 
A |---------------------------|------------------------|---------------------| 
E |---------------------------|------------------------|---------------------| 
 
   Acoustic Guitar� 
e |--------------|-------------------------------|------------------------------------| 
B |--------------|-------------------------------|-------------------------0--------3-| 
G |--------------|-------------------------------|---------1-----------1--------------|� 
D |--------------|--------0---------------2------|-----2-----------2------------------| 
A |--------------|----3---------------2-------2--|-2-----------2----------------------|� 
E |--------------|-1-----------1--4--------------|------------------------------------| 
  |                                                                                   | 
  |                                                                                   | 
  | A/C#                   F6              E/G#            E/B              H  P      | 
e |-14-----------|-------------------------------|------------12--13--15--13^15^13----| 
B |--------------|-------------------------------|12--13--15-----------------------15-| 
G |--------------|------------------------12--14-|------------------------------------| 
D |--------------|------------12--14--15---------|------------------------------------| 
A |--------------|12--14--15---------------------|------------------------------------| 
E |--------------|-------------------------------|------------------------------------| 
 
                                                 A.H......... 
 Second time only 
    Am                          C                         G 
                       H                         T   T      T 
e| -17------------------------|-------------------------|---------------12----| 
B|.------------------0--1-----|-------------------------|3(15)----------------| 
G| -2-------------------------|-0-----------------4(16)-|---------------------| 
D|.---------------------------|----------------5(17)----|---------------------| 
A| ---------------------------|-------------------------|---------------------| 
E| ---------------------------|-------------------------|---------------------| 
 |                                                                            | 
 |                                                                            | 
 | Rhy. Fig. 2                                                                | 
 |    H                 H                         H                           | 
e| -------------0-------------|-----------0-------------|-----------3-----3--3| 
B|.-0--1--------------------1-|(1)--1-----------------0-|(0)--3---------------| 
G| -2-----2-----------0--2----|-0---------------0--2----|-0---------------2--0| 
D|.-2--------2-----2----------|-2------2-----2----------|--------0-----0------| 
A| -0-------------------------|-3-----------------------|---------------------| 
E| ---------------------------|-------------------------|-3-------------------| 
 
    Em                 Am                            C              A.H...... 
                                                                       T   T 
e |-10----------------|----------------------------|--------------------------| 
B |--8----------------|--------------------------1-|--------------------------| 
G |--9----------------|-2--------------------------|-0------------------4(16)-| 
D |-------------------|----------------------------|-----------------5(17)----| 
A |-------------------|----------------------------|--------------------------| 
E |-------------------|----------------------------|--------------------------| 
  |                                                                           |  
  |                                                                           | 
                  sl      H                  H                         H      | 
e |-------------------|-------------0--------------|-----------0--------------| 
B |----------0--(1)/3-|-0--1---------------------1-|(1)--1-----------------0--| 
G |-0--------0--(2)/4-|-2-----2------------0--2----|-0---------------0--2-----| 
D |----2--------------|-2--------2-----2-----------|-2------2-----2-----------| 
A |-------2-----------|-0--------------------------|-3------------------------| 
E |-0-----------------|----------------------------|--------------------------| 
 
   A.H.............................. 
    G                           Em 
       T                    T      T 
e |---------------------------|-3(15)------------------ || 
B |-3(15)----------------5(17)|------------------------.|| 
G |---------------------------|------------------------ || 
D |---------------------------|------------------------.|| 
A |---------------------------|------------------------ || 
E |---------------------------|------------------------ || 
  |                                                     |
  |                                                     | 
  |                   H P                         sl    | 
e |------------3--------------|-0---------------------- || 
B |-(0)--3--------------------|-0-----------0--(1)/3---.|| 
G |--0---------------0-2-0--0-|-0-----------0--(2)/4--- || 
D |---------0-----0-----------|-2-----2----------------.|| 
A |---------------------------|----------2------------- || 
E |--3------------------------|----0------------------- || 
 
FILL 2                       FILL 3 
e |------------3----------|  |-------| 
B |-(0)--3-----------3----|  |-------| 
G |--0------------------2-|  |-0-----| 
D |---------0-----0-------|  |-------| 
A |-----------------------|  |-------| 
E |--3--------------------|  |-3-----| 
 
% 
1st,2nd verses 
w/Rhy. Fig. 2 
   Am                  C            G               Em 
1. Life it seems will fade away,      drifting further every day. 
2. Things not what they used to be,      missing one inside of me. 
 
   Am                  C            G               Em 
1. Getting lost within myself,            nothing matters, no one else. 
2. Deathly lost, this can't be real,      cannot stand this hell I feel. 
 
 
W/Rhy. Fig 2 (1st 7 bars only) 
   Am                  C            G               Em 
1. I have lost the will to live,      simply nothing more to give. 
2. Emptiness is filling me,            to the point of agony. 
 
   Am                  C            G 
1. There is nothing more for me.      Need the end to set__ 
2. Growing darkness taking dawn,      I was me, but now__ 
 
  w/Fill 3 
    E+5                        A                     C 
  | 
1.|__me free 
2.|__     he's              gone____________. 
  | 
e |------------------------|| ---------------------|----------------------| 
B |-5--5--5--5--5--5--5--5-||.-0--2--2-------------|-5--5--5--------------| 
G |-5--5--5--5--5--5--5--5-|| -2--2--2-------------|-5--5--5--------------| 
D |-2--2--2--2--2--2--2--2-||.-2--2--2-------------|-5--5--5--------------| 
A |------------------------|| -0--0--0-----------5-|-3--3--3-----------5--| 
E |-0--0--0--0--0--0--0--0-|| ----------0--0--3----|----------0--0--3-----| 
 
    A        D5  E            (C5      A                     C 
                                  G/B) 
e |------------|---------------------|---------------------|------------------| 
B |-2--2--2----|-9--9--9-------------|-0--2--2-------------|-5--5--5----------| 
G |-2--2--2--7-|-9--9--9-------------|-2--2--2-------------|-5--5--5----------| 
D |-2--2--2--7-|-9--9--9--------5--5-|-2--2--2-------------|-5--5--5----------| 
A |-0--0--0--5-|-7--7--7--------3--2-|-0--0--0-----------5-|-3--3--3---------5| 
E |------------|----------0--0-------|----------0--0--3----|---------0--0--3--| 
 
    A               E 
4th time to CODA1 $ 
e |---------------|---- || 
B |-2--2--2-------|----.|| 
G |-2--2--2-------|-1-- || 
D |-2--2--2-------|-2--.|| 
A |-0--0--0--5--4-|-2-- || 
E |----------4--2-|-0-- || 
 
 Interlude 
 w/Rhy. Fig. 2 
         Am                  C                         G 
                                   sl                       sl 
      e |------------------|-------------------------|-----------------| 
Gtr 1 B |-10^^^^^^--10--12-|-13^^^^^^--13/15--13--12-|-----------------| 
Gtr 2 G |--9^^^^^^---9--11-|-12^^^^^^--12/14--12--11-|-12^^^^^^--12/14-| 
      D |------------------|-------------------------|-12^^^^^^--12/14-| 
      A |------------------|-------------------------|-----------------| 
      E |------------------|-------------------------|-----------------| 
 
    Em                     Am                     C    full  )\ 
              sl     sl      sl                             /  \ 
e |----------------------|---------------------|-------------------------| 
B |----------------------|------------------12-|-13^^^^^^--15------13----| 
G |-9^^^^^^--9/11--11/12-|-12/14^^^^^^--14--11-|-12^^^^^^--14------12----| 
D |-9^^^^^^--9/11--11/12-|-12/14^^^^^^--14-----|-------------------------| 
A |----------------------|---------------------|-------------------------| 
E |----------------------|---------------------|-------------------------| 
 
        full (Gtr I + II) 
    G  )   )   )   )\ 
      /   /   /   /  \                   D.S. al Coda I % 
e |----------------|----------------------| 
B |-15--15--15--15-|-(15)^^^^^^-----------| 
G |-14--14--14--14-|-(14)^^^^^^-----------| 
D |----------------|----------------------| 
A |----------------|----------------------| 
E |----------------|----------------------| 
 
  Rhy. Fig. 3 
  Faster 144 bpm 
  $ CODA 1 
    D5 E5       D5 E5   G5  F#5  D5 
     sl                sl 
e |-----------|----------------|----------------------------------------------| 
B |-----------|----------------|----------------------------------------------| 
G |-7/9--9--9-|-7--9--9/12--11-|-7--7--7-------------------------------------4| 
D |-7/9--9--9-|-7--9--9/12--11-|-7--7--7--9--9--9--7--7--7--5--5--5--4--4--4--| 
A |-5/7--7--7-|-5--7--7/10---9-|-5--5--5--------------------------------------| 
E |-----------|----------------|----------------------------------------------| 
 
    D5 E5       D5 E5   G5  F#5  D5 
     sl                sl 
e |-----------|----------------|----------------------------------------------| 
B |-----------|----------------|----------------------------------------------| 
G |-7/9--9--9-|-7--9--9/12--11-|-7--7--7--------------------------------------| 
D |-7/9--9--9-|-7--9--9/12--11-|-7--7--7--9--9--9--7--7--7--5--5--5--4--4--4-5| 
A |-5/7--7--7-|-5--7--7/10---9-|-5--5--5--------------------------------------| 
E |-----------|----------------|----------------------------------------------| 
 
  Bridge 
   %% 
  w/Rhy. Fig. 3 
   D5 E5                        D5  E5      G5  F#5          D5 
1. No one but me            can save myself but it's too late 
2. Yesterday seems                 as though it never existed 
 
   D5  E5                        D5    E5       G5  F#5   D5 
1. Now I can't think,             think why I should even try. 
2. Death greats me warm,       now I will just say goodbye. 
 
        w/Rhy. Fig. 3 
         D5 E5             D5 E5    G5  F#5        D5 
           sl                sl 
       e |-----------------|----------------------|-----------------------| 
Gtr I  B |-7/8--9--8^^^^^^-|-7/8--8--12--10^^^^^^-|-7--7-----------12--12-| 
       G |-----------------|----------------------|-------7^^^^^^---------| 
Gtr II D |-7/9--9--9^^^^^^-|-7/9--9--12--11^^^^^^-|-7--7--7^^^^^^--12--12-| 
       A |-----------------|----------------------|-----------------------| 
       E |-----------------|----------------------|-----------------------| 
 
    N.C. (no chord)                      D5 E5             D5 E5    G5  F#5 
                                           sl                sl 
e |-------------------------------------|-----------------|-------------------| 
B |-12--10--10--10--8--8--8--7--7--7----|-7/8--8--8^^^^^^-|-7/8--8--12--10^^^^| 
G |-------------------------------------|-----------------|-------------------| 
D |-12--11--11--11--9--9--9--7--7--7--9-|-7/9--9--9^^^^^^-|-7/9--9--12--10^^^^| 
A |-------------------------------------|-----------------|-------------------| 
E |-------------------------------------|-----------------|-------------------| 
 
          D5                       N.C. 
                                                           D.S.al CODA II %% 
       e |------------------------|-----------------------------------------|| 
       B |-------------------7--7-|-7----5--5--5----3--3--3----2--2--2----3-|| 
Gtr I  G |-11--11--11^^^^^^--7--7-|-7----6--6--6----4--4--4----2--2--2----4-|| 
Gtr II D |--7---7---8^^^^^^-------|-----------------------------------------|| 
Gtr II A |--9---9---9^^^^^^-------|-----------------------------------------|| 
       E |------------------------|-----------------------------------------|| 
 
  $ CODA II 
     N.C.       E5     N.C.         G5  F#5  N.C.        D 
e | ------------------|--------------------|----------------------------------| 
B |.------------------|--------------------|-------------7--------------------| 
G | -------------9--9-|-------------12--11-|-------------7--------------------| 
D |.-------------9--9-|-------------12--11-|-------------7--------------------| 
A | -------------7--7-|-------------10---9-|-------------5--9--9--9--7--7--7--| 
E | -0--0--0--0-------|-0--0--0--0---------|-0--0--0--0-----------------------| 
 
 
e |----------------------------------- || 
B |-----------------------------------.|| 
G |--------------------------------4-- || 
D |-9--7--7--7--5--5--5--4--4--4--(5)-.|| 
A |----------------------------------- || 
E |----------------------------------- || 
 
  Rhy. Fig. 4 
  Two Gtrs. Gtr II to left of ! 
  Riff A Gtr I                                A5 
         sl                                      sl 
e |--------------|--------------------------|------------|--------------------| 
B |--------------|--------------------------|------------|--------------------| 
G |--------------|--------------------------|------------|--------------------| 
D |------/4--2!5-|-(2/5)--4--2--------------|----/4--2!5-|-(2!5)--4--2--------| 
A |-2!5----------|--------5--4--2!5--4------|-4----------|--------5--4--2/5---| 
E |--------------|-------------------5--2!5-|-5----------|--------------------| 
 
             G5                                     A5 
                sl                                      sl 
e |--------|------------|--------------------------|------------| 
B |--------|------------|--------------------------|------------| 
G |--------|------------|--------------------------|------------| 
D |--------|----/4--2!5-|-(2!5)--4--2--------------|----/4--2!5-| 
A |-4------|-2----------|--------5--4--2!5--4------|-4----------| 
E |-5--2/5-|-3----------|-------------------5--2!5-|-5----------| 
 
                             w/Rhy. Fig. 4 & Riff A (till fade) 
                             B5                         )  )  )  ) <- all full 
                                 lead gtr.   sl        /  /  /  / 
e |----------------------||-------|-------------------------------|-----------| 
B |----------------------||-------|-------------------------------|-----------| 
G |----------------------||-------|-----------------7--9--9--9--9-|-----------| 
D |-(2!5)--7--5--4--2--4-||-------|----------/9--9----------------|-----------| 
A |--------5--4--2-------||-------|-------------------------------|-----------| 
E |-----------------5--2-||-------|-------------------------------|-----------| 
 
           )\ full               G5 
          /  \     P               H     H  P        H            H 
e |----------------------------|------------------------------|---------------| 
B |--------------------------7-|-7--8--7--8--7-----7--8--7----|-7--8--7----10-| 
G |-(9)--9--(9)--7--9--9--9----|----------------7-----------7-|----------7----| 
D |----------------------------|------------------------------|---------------| 
A |----------------------------|------------------------------|---------------| 
E |----------------------------|------------------------------|---------------| 
                                                           B5 
              sl            H 
e |-----------|-----------------------|-------------------|-------------------| 
B |-10--8--10/|12--10--8--8--10--8--7-|-8--10-----8-------|-------------------| 
G |-----------|-----------------------|--------9-----9--7-|-------------7--9--| 
D |-----------|-----------------------|-------------------|-7--9--9--9--------| 
A |-----------|-----------------------|-------------------|-------------------| 
E |-----------|-----------------------|-------------------|-------------------| 
 
                                  A5 
     )\ full                       ) f        ) f        ) f       ) f 
    /  \                          /      P   /      P   /     P   /       P 
e |-----------------------------|----7----------7---------7-------------------| 
B |-----------------------------|------10-7-------10-7------10-7-----7--10-7--| 
G |-9--(9)--7--9--7--7-----7--9-|-9----------9----------9---------9-----------| 
D |---------------------9-------|---------------------------------------------| 
A |-----------------------------|---------------------------------------------| 
E |-----------------------------|---------------------------------------------| 
 
     )f           )f          )f          )f 
    /        P   /       P   /       P   /        P            P     P 
e |-----------------7-----------7-----------7-|-10-7------7--10-7--10-7-------| 
B |----7--10--7--------10-7--------10-7-------|-------10-----------------10---| 
G |-9------------9-----------9-----------9----|-------------------------------| 
D |-------------------------------------------|-------------------------------| 
A |-------------------------------------------|-------------------------------| 
E |-------------------------------------------|-------------------------------| 
 
 
         P     P             P            P     P            P     P 
e |-7--10-7--10-7------7-|-10-7------7--10-7--10-7------7--10-7--10-7------7--| 
B |----------------10----|-------10-----------------10-----------------10-----| 
G |----------------------|----------------------------------------------------| 
D |----------------------|----------------------------------------------------| 
A |----------------------|----------------------------------------------------| 
E |----------------------|----------------------------------------------------| 
 
      )f  )f 
     /   / 
e |-10--10--10--8--7--8--7-----|-7--------------------------------------------| 
B |-------------------------10-|----10--8--10--8--7--8--7-----7---------------| 
G |----------------------------|---------------------------9-----9--7---------| 
D |----------------------------|----------------------------------------------| 
A |----------------------------|----------------------------------------------| 
E |----------------------------|----------------------------------------------| 
 
   B5                                               A5 
               P                                              P 
e |---------------------|-------7----------------|----------------------------| 
B |----------8--7-----7-|-8-10----10--8--7-------|----------8--7-----7--------| 
G |----------------9----|-------------------9--7-|----------------9-----------| 
D |-7--9--9-------------|------------------------|-7--9--9--------------------| 
A |---------------------|------------------------|----------------------------| 
E |---------------------|------------------------|----------------------------| 
 
                                G5 
e |--------7--8--7^^^^^^--7--8-|-10--8--7--8--7------7------------------------| 
B |-8--10----------------------|-----------------10-----10--8--10--8--7-------| 
G |----------------------------|----------------------------------------------| 
D |----------------------------|----------------------------------------------| 
A |----------------------------|----------------------------------------------| 
E |----------------------------|----------------------------------------------| 
 
                                        A5 
e |------------------------------------|--------------------------7-----------| 
B |-8--7-----7-------------------------|----------------7--8--10-----10--8--7-| 
G |-------9-----9--7--9--7--6--7--6----|-------6--7--9------------------------| 
D |----------------------------------9-|-7--9---------------------------------| 
A |------------------------------------|--------------------------------------| 
E |------------------------------------|--------------------------------------| 
 
                                               )f )f )f )f 
                                      P       /  /  /  / 
e |--------------------7--------------------|------------| 
B |-8--7-----7--8--10-----10--8--7--8--7--9-|------------| 
G |-------9---------------------------------|-9--9--9--9-| 
D |-----------------------------------------|------------| 
A |-----------------------------------------|------------| 
E |-----------------------------------------|------------| 
 
      full                  3/4       1/2   1/4 
     )----------------------............_____              A5 
    /      (gradual release)                 ----. P 
e |------------------------------------------------------|----------10--10--10| 
B |------------------------------------------------------|-----------7---7---7| 
G |-9--9--9--9---9--9--9--9--9---9--9--9--9--9---9--7----|-7---------7---7---7| 
D |----------------------------------------------------9-|----x--x------------| 
A |------------------------------------------------------|----x--x------------| 
E |------------------------------------------------------|--------------------| 
 
                                              )f  )f   )f 
                                             /   /    /          P 
e |----------10--10--10-------|-10--10--10---------|--------------------------| 
B |-----------7---7---7-------|--7---7---7--10--10-|-10^^^^^^--10-7-----7--8--| 
G |-----------7---7---7-------|--7---7---7---------|-----------------9--------| 
D |-x--x--x--------------x--x-|--------------------|--------------------------| 
A |-x--x--x--------------x--x-|--------------------|--------------------------| 
E |---------------------------|--------------------|--------------------------| 
 
                                     A5 
      H  P 
e |---------------------------------|-----------------------------------------| 
B |-7--8--7-------------------------|-----------------------------------------| 
G |----------9--7-----7^^^^^^-----7-|-9--7-----7------------------------------| 
D |----------------9-----------9----|-------9-----9--7--9--7-----7------------| 
A |---------------------------------|-------------------------9-----9--7------| 
E |---------------------------------|-----------------------------------------| 
 
                                           B5 
                                   sl         P               P       P 
e |--------------------------------------|-15--12------12--15--12--14--12-----| 
B |-----------------------------------12-|---------12----------------------12-| 
G |--------------------------------------|------------------------------------| 
D |--------------------------------------|------------------------------------| 
A |-9--7--5--7--5-----5--5--5--5--7/-----|------------------------------------| 
E |----------------7---------------------|------------------------------------| 
 
           P       P                P               P       P 
e |-12--15--12--14--12------12-|-15--12------12--15--12--14--12------12--15---| 
B |---------------------12-----|---------12----------------------12-----------| 
G |----------------------------|----------------------------------------------| 
D |----------------------------|----------------------------------------------| 
A |----------------------------|----------------------------------------------| 
E |----------------------------|----------------------------------------------| 
 
                         A5 
    P      P                P 
e |-12--14--12------12-|-17--14------14--------------------|------------------| 
B |-------------12-----|---------15------------------------|--------,  -------| 
G |--------------------|-------------------//----//----//--|-------- / -------| 
D |--------------------|-----------------------------------|--------  '-------| 
A |--------------------|-----------------------------------|------------------| 
E |--------------------|-----------------------------------|------------------| 
 
    G5 
       P               P       P               P       P 
e |-19--15------15--19--15--17--15------15--19--15--17--15------15-| 
B |---------17----------------------17----------------------17-----| 
G |----------------------------------------------------------------| 
D |----------------------------------------------------------------| 
A |----------------------------------------------------------------| 
E |----------------------------------------------------------------| 
 
       P               P       P               P       P 
e |-19--15------15--19--15--17--15------15--19--15--17--15------15-| 
B |---------17----------------------17----------------------17-----| 
G |----------------------------------------------------------------| 
D |----------------------------------------------------------------| 
A |----------------------------------------------------------------| 
E |----------------------------------------------------------------| 
 
    A5                                                 B5 )f  )f  )f  )f 
       P                                                 /   /   /   / 
e |-21--17------17-------------------|---------------|--22--22--22--22--| 
B |---------19-----------------------|------,  ------|------------------| 
G |------------------//----//----//--|------ / ------|------------------| 
D |----------------------------------|------  '------|------------------| 
A |----------------------------------|---------------|------------------| 
E |----------------------------------|---------------|------------------| 
 
                                         A5 
      )f  )f  )f  )f        )\ f 
     /   /   /   /         /  \ 
e |-22--22--22--22^^^^^^--22--(22)--19-|-22--20--19--20--19--17--19--17--15---| 
B |------------------------------------|--------------------------------------| 
G |------------------------------------|--------------------------------------| 
D |------------------------------------|--------------------------------------| 
A |------------------------------------|--------------------------------------| 
E |------------------------------------|--------------------------------------| 
 
                                                               G5 
e |-17--15--14-|-15--14--12--14--12--10--12--10--9--10--9--7-|-9--7------7----| 
B |------------|---------------------------------------------|-------10-----10| 
G |------------|---------------------------------------------|----------------| 
D |------------|---------------------------------------------|----------------| 
A |------------|---------------------------------------------|----------------| 
E |------------|---------------------------------------------|----------------| 
 
                                               )f  )---... f    )f 
                                              /   /       \    / 
e |----------------------|------------------|---------------------------| 
B |-8--10--8--7--8--7----|-7-----7--7--7--7-|---------------------7--7--| 
G |--------------------9-|----9-------------|-9---9--(9)--(9)--9--------| 
D |----------------------|------------------|-----/---/-----------------| 
A |----------------------|------------------|-----/---/-----------------| 
E |----------------------|------------------|---------------------------| 
 
    B5 
      )f     )\ f                       )\ f         )\ f         )f      )f 
     /      /  \    P                  /  \    P    /  \    P    /       / 
e |-----7---------------------------|-----------------------------------------| 
B |-10-----10--(10)--7--------------|-10--(10)--7--10--(10)--7--10--10--10--10| 
G |----------------------//----//---|-----------------------------------------| 
D |---------------------------------|-----------------------------------------| 
A |---------------------------------|-----------------------------------------| 
E |---------------------------------|-----------------------------------------| 
 
    A5 
       P      P             P                                    P 
e |-10--7----------------------------------------------|----------------------| 
B |--------10--7------7--10--7-------------------------|----------------------| 
G |---------------10------------9--7-----7--9--7-----7-|----------------------| 
D |-----------------------------------9-----------9----|-7--7--9--7-----------| 
A |----------------------------------------------------|-------------9--8--7--| 
E |----------------------------------------------------|----------------------| 
 
                         G5 
              sl                 sl              P 
e |--------------------|----------------------------------------------12--15--| 
B |--------------------|--------------11--12--13--12------12--14--15----------| 
G |--------------------|-7--9--11/14------------------14----------------------| 
D |---------------7--9-|------------------------------------------------------| 
A |-5-----5--7/9-------|------------------------------------------------------| 
E |----7---------------|------------------------------------------------------| 
 
         P               P       P               P       P 
e |-(15)--12------12--15--12--15--12------12--15--12--15--12------12-| 
B |-----------15----------------------15----------------------15-----| 
G |------------------------------------------------------------------| 
D |------------------------------------------------------------------| 
A |------------------------------------------------------------------| 
E |------------------------------------------------------------------| 
 
       Bend lower notes 
      /-------------\ 
   A5 
      )f  )f  )f  )f                  fade out. 
     /   /   /   / 
e |-----------------------------|| 
B |-15--15--15--15--------------|| 
G |-14--14--14--14--------------||         The End!!! 
D |-----------------------------|| 
A |-----------------------------|| 
E |-----------------------------||

5.Trapped Under Ice

Intro:
    P.M.|                 P.M.|                 P.M.....|
e-|---------------------------------------------------------|
B-|---------------------------------------------------------|
G-|---------------------------------------------------------|
D-|---------0---2-----------------0------0------------------|
A-|---------0---2------------------------0------------------|
E-|-0---0-----------------0---0-----------------0-0-0-0-0---|


Riff 1: I just can't understand the rhythm of this guitar-line.

    P.M....|           P.M...|      P.M
e-|--------------------------------------------|
B-|--------------------------------------------|
G-|--------------------------------------------|
D-|---------0---2--------------0---2---3---3---|
A-|---------0---2--------------0---2-0-3---3---|
E-|-0---0-0------------0---0-0-----------------|       


This is played over Riff 1:

e-|-----------------------------------|
B-|-----------------------------------|
G-|-----------------------9---12-11---|
D-|-9------11-----12------7---10-9----|
A-|-7------9------10------------------|
E-|-----------------------------------|

Verse riff:
        P.M.......|     P.M.......|     P.M.......|     
e-|-------------------------------------------------
B-|-------------------------------------------------
G-|-------------------------------------------------
D-|-------------------------------------------------
A-|-2---------------2---------------2---------------
E-|-0h2-2-2-2-2-2-2-0h2-2-2-2-2-2-2-0h2-2-2-2-2-2-2-


-----------------|
-----------------|
-----------------|
-5-\-4---2---4---|
-3-\-2---0---2---|
-----------------|

First is the verse riff played 4 times while Kirk
does the solo, then it goes to this:

    P.M.....|
e-|-------------|
B-|-------------|
G-|-------------|
D-|-4-4-4-4-4---|
A-|-2-2-2-2-2---|
E-|-------------|

And then it's time for the first verse with the verse riff:

 I don't know how to live trough this hell
 Woken up, I'm still locked in this shell
 Frozen soul, frozen down to the core
 Break the ice, I can't take anymore

Chorus:
                  P.M                   P.M.   P.M
e-|--------------------------------------------------------
B-|--------------------------------------------------------
G-|--------------------------------------------------------
D-|--------------------------------------------------------
A-|-6-7------6-7-----2------6-7---6-7-------7-----4-5------
E-|-4-5------4-5---0-0------4-5---4-5---0-0-5---0-2-3------

          P.M.   P.M     P.M
--------------------------------------|
--------------------------------------|
--------------------------------------|
--------------------------------------|
-4-5----------5-----6-7-----7-8-7-7---|
-2-3------0-0-3---0-4-5---0-5-6-5-5---|

   Freezing
   Can't move at all
   Screaming
   Can't hear my call
   I am dying to live
   Cry out
   I'm trapped under ice

Then it's time for another solo and another verse:
                         
 Crystallized, as I lay here and rest
 Eyes of glass stare directly at death
 From deep sleep I have broken away
 No one knows, no one hears what I say

Then again, a chorus and then to this riff:

Riff 2:
                            P.M...........|
e-|-------------------------------------------|
B-|-------------------------------------------|
G-|-------------------------------------------|
D-|-------------------------------------------|
A-|-7-8-7-8-8---5-5---7-7---3-3-3-3-3-3-3-3---|
E-|-5-6-5-6-6---3-3---5-5---1-1-1-1-1-1-1-1---|

Then you play this, 2 times
Riff 3:
        P.M.|                P.M. 
e-|----------------------------------------
B-|----------------------------------------
G-|----------------------------------------
D-|-----------12---12\-----------3p2-------
A-|-2---------10---10\---3p2-0-------3p2---
E-|-0---0-0-0------------------3-----------


     P.M.|   |.|        P.M.......................|
----------------------------------------------------|
----------------------------------------------------|
----------------------------------------------------|
-----------9----7-----------------------------------|
-2---------7----5---8-------8-------8-------8-------|
-0---0-0-0----0-----6---6-6-6---6-6-6---6-6-6---6-6-|

Followed by riff 3: 
                          
                                              P.M.
e-|---------------------------------------------------------|
B-|---------------------------------------------------------|
G-|-9---9---9------7---7---7------5---5---4-----------------|
D-|-9---9---9------7---7---7------5---5---4-------2---------|
A-|-7---7---7------5---5---5------3---3---2---5-4-2---------|
E-|-------------------------------------------3-2-0---------|


 Scream from my soul
 Fate, mystified
 Hell, forever more

Then back to riff 3 again 4 times and then this:


    P.M......................................................|
e-|------------------------------------------------------------
B-|------------------------------------------------------------
G-|------------------------------------------------------------
D-|------------------------------------------------------------
A-|-8-------8-------8-------8-------7-------7-------7-------7--
E-|-6---6-6-6---6-6-6---6-6-6---5-5-5---5-5-5---5-5-5---5-5-5--


 P.M..........................................................|
---------------------------------------------------------------
---------------------------------------------------------------
---------------------------------------------------------------
---------------------------------------------------------------
-----7-------7-------7-------7---------------------------------
-5-5-5---5-5-5---5-5-5---5-5-5---5-5-5-5-5-5-5-5-5-5-5-5-5-5-5-

P.M.   P.M.
---------------------|
---------------------|
---------------------|
-----------3-2-------|
-5-3-2-0-------3-2---|
---------3-----------|

Then it starts all over again with a solo and a verse:

 No release from my cryonic state
 What is this? I've been stricken by fate
 Wrapped up tight, cannot move, can't break free
 Hand of doom has a tight grip on me

Verse 3 is followed by 2 choruses and after that, this,
played 3 times:

    P.M............|
e-|--------------------------------|
B-|--------------------------------|
G-|--------------------------------|
D-|--------------------------------|
A-|-----------------7---8-8--7-7---|
E-|-5-5-5-5-5-5-5-5-5---6-6--5-5---|

Then this:

e-|-------------------|
B-|-------------------|
G-|-------------------|
D-|-------------------|
A-|-8-8---5-5---7-7---|
E-|-6-6---3-3---5-5---|

And the verse riff again 4 times. On the last time
you end up with this:

    P.M.........|
e-|-----------------|
B-|-----------------|
G-|-----------------|
D-|-4-4-4-4-4-------|
A-|-2-2-2-2-2---4---|
E-|-------------2---|

6.Escape

Two guitars:							    3 times
||--------------------------------------|----------------------------------||
||--------------------------------------|----------------------------------||
||o---------------------------4h5---4---|(4)----------5---4h5h4-----------o||
||o-7-------------------------5h7---5---|(5)----------7---5h7h5---7---5---o||
||--0---0---0---0---0---0---0-----------|-------------------------8---7----||
||--------------------------------------|----------------------------------||
	PM...................|


|--------------------------------------|-----------------------------------|
|--------------------------------------|-----------------------------------|
|----------------------------4h5---4---|(4)----------5---5h4---------------|
|--7-------------------------5h7---5---|(5)----------7---7h5---7---7-------|
|--0---0---0---0---0---0---0-----------|-----------------------8---8-------|
|--------------------------------------|-----------------------------------|
       PM...................|

	      4 times
||-------------------||------------------|-----------------|-----------------|
||-------------------||------------------|-----------------|-----------------|
||o---------------5-o||o---------------4-|---------8-7-5-7-|---------------5-|
||o---------------7-o||o---------------5-|-----------------|-7-------------4-|
||--0-0-0-0-0-0-0----||--0-0-0-0-0-0-0---|-0-0-0-0-6-5-3-5-|-0-0-0-0-0-0-0---|
||-------------------||------------------|-----------------|-----------------|
    PM...........|	 PM...........|	   PM.....|	       PM.........|


|-----------------|
|-----------------|
|---------8-7-5-7-|
|-----------------|
|-0-0-0-0-6-5-3-5-|
|-----------------|
  PM.....|

Verse

Rhy Fig 1
|-----------------|-----------------|-----------------|------------------|
|-----------------|-----------------|-----------------|------------------|
|-----------------|-----------------|-----------------|------------------|
|-----------------|-----------------|-----------------|------------------|
|-4-4-4-4-4-4-4-4-|-4-4-4-4-4-4-4-55|-554-4-4-4-4-4-4-|-4-4-4-4-4-4-2-55-|
|-2-2-2-2-2-2-2-2-|-2-2-2-2-2-2-2-33|-332-2-2-2-2-2-2-|-2-2-2-2-2-2-2-33-|
  PM....................................................................|

|-----------------|-----------------|-----------------|-----------------|
|-----------------|-----------------|-----------------|-----------------|
|-----------------|-----------------|-----------------|-----------------|
|-----------------|-----------------|-----------------|-----------------|
|-554-4-4-4-4-4-4-|-4-4-4-4-4-4-4-55|-554-4-4-4-4-4-4-|-4---5---x2--x3--|
|-332-2-2-2-2-2-2-|-2-2-2-2-2-2-2-33|-332-2-2-2-2-2-2-|-2---3---x0--x1--|
PM...................................................|

Chorus:

 Riff A
|-----------------|-----------------|-----------------|-----------------|
|-----------------|-----------------|-----------------|-----------------|
|-------7---6---4-|-------7---6---7-|-7\slide\4-------|-----------------|
|-----------------|-7---------------|-----------------|-----------------|
|-----------------|-----------------|-----------------|-----------------|
|-----------------|-----------------|-----------------|-----------------|
					
Rhy Fig 2
|-----------------|-----------------|-----------------|-----------------|
|-----------------|-----------------|-----------------|-----------------|
|-----------------|-----------------|-----------------|---------------2-|
|-----------------|-----------------|-----------------|-------------4---|
|-7---------------|-(7)-----------5-|-(5)-----------4-|-(4)-------4-----|
|-5---------------|-(5)-----0--5--3-|-(3)-----0--3--2-|-(2)-----2-------|
								PM.....|

|-----------------|-----------------|-----------------|----------------||
|-----------------|-----------------|-----------------|----------------||
|-------7---6---4-|-------7---6---7-|-7\slide\4-------|-\2------------o||
|-----------------|-7---------------|-----------------|---------------o||
|-----------------|-----------------|-----------------|----------------||
|-----------------|-----------------|-----------------|----------------||

 _______________
|2.
|---------------|
|---------------|
|-\2------------|
|---------------|
|---------------|
|---------------|

Bridge

||---------------------------------|----------------------------------||
||---------------------------------|----------------------------------||
||o------------4---2---------------|-------------2-------------------o||
||o--------4---4---2---------------|---------4---2---5---------------o||
||-----4-------2---0---------------|-----4-------0---5----------------||
||-2-------------------------------|-2---------------3----------------||
   PM.......|			     PM.......|

|-----------------|-----------------|-----------------|-----------------|
|-----------------|-----------------|-----------------|-----------------|
|---------4---2---|-----------------|---------4---2---|-----------------|
|-4---4---4---2---|-4---4---5---5---|-4---4---4---2---|-4---4---5---5---|
|-4---4---2---0---|-4---4---5---5---|-4---4---2---0---|-4---4---5---5---|
|-2---2-----------|-2---2---3---3---|-2---2-----------|-2---2---3---3---|
  PM...|	    PM.....................|		PM...........|

|-----------------|-----------------|-----------------|-----------------|
|-----------------|-----------------|-----------------|-----------------|
|---------4---2---|-----------------|---------4---2---|-----------------|
|-4---4---4---2---|-4---4---5---5---|-4---4---4---2---|-2---2---5---5---|
|-4---4---2---0---|-4---4---5---5---|-4---4---2---0---|-2---2---5---5---|
|-2---2-----------|-2---2---3---3---|-2---2-----------|-0---0---3---3---|
  PM...|	    PM.....................|		PM...........|

|-----------------|-----------------|-------------------------|
|-----------------|-----------------|-------------------------|  
|-------4-2-2-2-2-|-------2---------|-------2-----------------|
|-----4-4-2-2-2-2-|-----4-2-5-5-5-5-|-----4-------------------|
|---4---2-0-0-0-0-|---4---0-5-5-5-5-|---4-----3-3-3-3-3-3-3-3-|
|-2---------------|-2-------3-3-3-3-|-2-------1-1-1-1-1-1-1-1-|
 PM..........................................................|

 Guitar Solo

|---------------------------------|---------------------------------|
|---------------------------------|---------------------------------|
|-15B----------15B-------15B------|-15B--15B--15B--15B-15B-r15p14-12|
|---------------------------------|---------------------------------|
|---------------------------------|---------------------------------|
|---------------------------------|---------------------------------|

Fig 3
|---------------------------------|---------------------------------|
|---------------------------------|---------------------------------|
|---------------------------------|---------------------------------|
|-----------------------------5---|-----------------8---7---5---7---|
|-2---------------------------5---|---------------------------------|
|-0---0---0---0---0---0---0-------|-0---0---0---0---6---5---3---5---|


|-15B----15B----15B----15B-r15----|-(15)--p12----12------------12-|
|---------------------------------|-----------15-----15B~-~-15----|
|---------------------------------|-------------------------------|
|---------------------------------|-------------------------------|
|---------------------------------|-------------------------------|
|---------------------------------|-------------------------------|

|-15-14-12----14-12-------12----------------------------------|
|----------15-------15-14----15-14-12----15-14-12-15-14-12----|
|-------------------------------------14-------------------14-|
|-------------------------------------------------------------|
|-------------------------------------------------------------|
|-------------------------------------------------------------|

|------------------------------------------------|
|--14-12-------12--------------------------------|
|--------14-12----14-12-11-14-12p11p9--7---------|
|-------------------------------------------9----|
|------------------------------------------------|
|------------------------------------------------|

|-----------------------------------------------|----------------------------|
|-----------------------------------------------|----------------------------|
|-7b---------------7----9-----7-----9-----7-----|-9B-r9p7-------7------------|
|-------------9---------------------------------|-----------9----------------|
|-----------------------------------------------|----------------------------|
|-----------------------------------------------|----------------------------|

|--12--10--9----9--10--9-----|---------------------------|
|------------12----------12--|--10--9--10B---10----9h10--|
|----------------------------|---------------------------|
|----------------------------|---------------------------|
|----------------------------|---------------------------|
|----------------------------|---------------------------|

|----------------------------|---------------------------|
|----------------------------|---------------------------|
|----------------------------|---------------------------|
|--2--4--4--2--4-------------|--2--4--4--2--2--5--5------|
|--2--4--4--2--4-------------|--2--4--4--2--2--5--5------|
|--0--2--2--0--2-------------|--0--2--2--0--0--3--3------|
   PM........|			PM...........|

|-------------------------|----------------------------|
|-9-----------------------|----------------------------|
|-------9-----------9--11-|-11b-r11p9-11-9~-~----9--11-|
|----------11~-~-~--------|-------------------11-------|
|-------------------------|----------------------------|
|-------------------------|----------------------------|

|---------------------------------------|
|------9--12p9----9-12p9-10p9----9------|
|-11B----------11-------------11---11-9-|
|---------------------------------------|
|---------------------------------------|
|---------------------------------------|

|---------------------9h12p9------------------|
|--------------9-12-9--------12p9-------------|
|-11-9----9-11--------------------11B-r11p9\8-|
|------11-------------------------------------|
|---------------------------------------------|
|---------------------------------------------|

 w/ Delay
|----------------------------------------------------|
|-----0-0-7-0-0-0-9-0-0-0-10-0-0-0-12-0-0-0-10-0-0-0-|
|-9-8------------------------------------------------|
|----------------------------------------------------|
|----------------------------------------------------|
|----------------------------------------------------|

7.Creeping Death

E-----------------------------------------------------
B-----------------------------------------------------
G-----------------------------------------------------
D------------9------------9\7             ------------
A------------7------------7\5 4times then --7--5--4--2
E--0-0-0-0-0----0-0-0-0-0----             --5--3--2--0
  pm........    .........                   ..........
the last two times the second guitar does this
D-------------9------------9\7
A------------10-----------10\9 
E--0-0-0-0-0----0-0-0-0-0-----

                                   You do this right before the verse
D------2---2--2---2---2h3p2h3p2p0   -5-7-5
A------2---2--2---2---2h3p2h3p2p0   -3-5-3
E--0-0---0------0---0------------   ------
  pm....................  
           this is the pre chours and is done during the second intro
D---------------------------------------
A--------5--------5---------------------
E--0--0--3--0--0--3--0--0--2-2-2-2-2-2-2
 pm....     ....     ...................
chours
D--2-  --5-7--  -10-9-  --5-7--  -10-12-9---  -5-7-  -10-9-  -5-7--------
A--2-  --3-5-  --8--7-  --3-5-  --8--10-7--  --3-5-  -8--7-  -3-5---5-7-5
E--0-  -------  ------- --------   ---------  ------  ------  ------3-5-3

Then the repeat the hole song except for the main intro
Now the kickass yet some what cmplicated solo

e--------------------------------------|----------------------19h20h22--|
b--12-13-15-17p15-13-14-15-17-19p17-15-|-15-17-19-17-19-20-22-----------|
g--------------------------------------|--------------------------------|
d--------------------------------------|--------------------------------|

E--22b24----22b24----22b24----|--22b24--r22----22b24-r23-b24--22--19--|
B-----------------------------|---------------------------------------|
G-----------------------------|---------------------------------------|

E--22--20--19-\17--21--19--17-\15--19--17--15-\14--17--15--14-\12--|
B------------------------------------------------------------------|
G------------------------------------------------------------------|

E--15p14--------------------------------------------------|
B---------17p15--15p14p12h14--12-\10--10------------------|
G------------------------------------------12b14-r13-b14--|
D---------------------------------------------------------|

E-----------------------------------------|-----------------------------------|
B--------10--15------15---12--------------|-----------------------------------|
G--(14)------14b16---14---12------12--14--|--14b16--r14--12b13--------12--14b-|
D-----------------------------14----------|-----------------------14----------|
A-----------------------------------------|-----------------------------------|

E--------------------------------------------------------|
B--------12--15p12--15p12--------------12--15p12--15p12--|
G--b16---------------------14b16-(16)--------------------|
D---------------------------------*----------------------|
 * : hold bend and strike note                              
E------------------------------------------12-|-15p12----12----------------------14-|
B---------12--15p12--15p12--15b17----(17)-----|-------15----15-12-15p12----12-------|
G--14b16------------------------------*-------|-------------------------14----14----|
D---------------------------------------------|-------------------------------------|

E-17p15-14-15p14----14-------12-------|-------------------------------------|
B----------------17----17p15----15p14-|-15p14-12-14-12----------------------|
G-------------------------------------|----------------14--12------12--14-/-|
D-------------------------------------|------------------------14-----------|
                                  Sweep picking
E----------17--19-/22-~-~-22-~-~-|---------12--17p12-----------------12--17p12-------
B------18------------------------|-----13-------------13---------13------------13----
G-/19----------------------------|-14---------------------14-14-------------------14-
D--------------------------------|---------------------------------------------------

E----------12--17p12-------------------12--17p12------|
B------13-------------13-----------13-------------13--|
G--14--------------------14-14-14---------------------|
D-----------------------------------------------------|

E--12h15p12---------------------------------|----------------------------------------
B-----------15---12----12-15p12-------------|--15------15------15-------------(15)\--
G-------------------14----------14-12----12-|--14b16---14b16---14b16-r14-b16--(14)\--
D-------------------------------------14----|----------------------------------------

D---------------------------------|----------------------------------------------|
A--7--7-7-8-8-8-8-9-9-9-9-9-9-9-9-|-10-9-10-9-10-9-11-10-12-11-12-11-12-11-13-12-|
E---------------------------------|----------------------------------------------|

G-------------------------------------------------|
D----------------------------------------------11-|
A-14-13-14-13-14-14-15-15-14-14-15-14-14-14-15----|
E-------------------------------------------------|

E----------------------------------------------------------|
B---------------------------------------------------12/14--|
G-11-12-11-12-11-12-12-12-12-13-12-13-15-15---15-15--------|
D----------------------------------------------------------|

E-------------------------------------14-|-17p14-------------------------------------
B-------------------14-17-14----14-17----|-------17-14-----14---17p14----------------
G--17--14--13-14-16----------16----------|-------------16--------------16-14------14-
D----------------------------------------|------------------------------------16-----

E-------------------------------------|------------------------------------|
B-------------------------------------|------------------------------------|
G-16p14----14-------------------------|------------------------------------|
D-------16----16p14-16p14----14-------|----------------------------12--12--|
A-------------------------16----16-14-|-16p14-12-14p12-----12--14----------|
E-------------------------------------|----------------14------------------|

E-------------------------|------------------------------|--------------------------|
B-------------------------|------------------------------|--------------------------|
G-------------11--12--14--|--(14)----12----12-h-14-p-12--|--------------11--12--14--|
D--14------14-------------|------------------------------|--12------14--------------|
A-------------------------|------------------------------|--------------------------|
E-------------------------|------------------------------|--------------------------|

E----------------------------|--12--------12-/14--15--17--|
B----------12----13----15----|----------------------------|
G--(14)----------------------|----------------------------|
D----------------------------|----------------------------|
                              
E--(17)--15---14----------|--/17------17--19----20--|--(20)--19--17---15-14h15--
B-------------------17----|---//--------------------|---------------------------
G-------------------------|-------------------------|---------------------------

E-15p14p12-15p14p12-15p14p12-15p14p12-|-15p14p12-15p14p12-15p14p12-15-12/14-|
B-------------------------------------|-------------------------------------|
G-------------------------------------|-------------------------------------|

E-17p15p14-17p15p14-17p15p14-17p15p14-|-17p15p14-17p15p14-17p15p14-17-15-15-|
B-------------------------------------|-------------------------------------|
G-------------------------------------|-------------------------------------|


E-19p17p15-19p17p15-19p17p15-19-15-16-|-20p19p17-20p19p17-22p20p19-22p20p19-|
B-------------------------------------|-------------------------------------|
G-------------------------------------|-------------------------------------|

E--22b24----22b24----|--22b24----22b24--22b24-~-|------------|
B--------------------|--------------------------|------------|
G--------------------|--------------------------|------------|
D--------------------|--------------------------|--14-\-\-\--|
A--------------------|--------------------------|--14-\-\-\--|
E--------------------|--------------------------|--12-\-\-\--|
bridge
D--9---------10-7-9---------12-10-9---------10-7-9
A--7---------8--5-7---------10-8--7---------8--5-7
E----0-0-0-0--------0-0-0-0---------0-0-0-0-------
    pm......        .......         .......

first you do the the verse riff then this little solo thing
gtr.1
e-------------------------------------------
B--15-13-12---12----13---15-13-12---12----13
G----------------14--------------------14---
D-------------------------------------------
Gtr.2
e-----------------------------------
B--10-8-7---7---8---10-8-7---7---8--
G-------------9----------------9----
D-----------------------------------
Then  the last verse and so on then an outro

Gtr.3
D---9-7-5-4---5-4-2-5---9-7-5-4---5-4-2-5
A---7-5-3-2---3-2-0-3---7-5-3-2---3-2-0-3
E----------------------------------------
Gtr.2
E------------------------------------------------------------
B�17-15-13-12�-13-12-10-13---17-15-13-12---13-12-10-13-----
G------------------------------------------------------------
Gtr.1
E------------------------------------------------------------
B------------------------------------------------------------
G-19-17-15-14---15-14-12-15----19-17-15-14---15-14-12-15-----
Then gtr.3 stops and does this
e---------------------       (8 times)
B----19p16p0----------       

e--------------------       (8 times)
B----20p17p0--------
And this all ends with a slide like from the solo to the bidge
And this little outro thing

 E-------------|-------------|-14h15--14----|-------------|----------|----|
 B-------------|-------16-17-|-----------17-|-16----------|----------|----|
 G----------14-|-16-17-------|--------------|----17-16-14-|----------|----|
 D-14-16-17----|-------------|--------------|-------------|-17p16p14-|-14-|
 A-------------|-------------|--------------|-------------|----------|----|
 E-------------|-------------|--------------|-------------|----------|----|
   Oh yeah, and its all tremelo picked                                       
                                          
8.The Call Of Ktulu

Intro
    Moderately Q=140
    $
    DmV     Dmadd2/A  DmV     Dmadd2/A  Bb/D    Bbsus4    Bb/D    Bbsus4
   4/4
    Gtr I
    E E E E E E E E   E E E E E E E E   E E E E E E E E   E E E E E E E E
||----5---------5---|---5---------5---|---6---------6---|---6---------6----|
||o-------6---5---6-|-------6---5---6-|-------6-------6-|-------6-------6--|
||------7-----------|-----7-----------|-----7-----9-----|-----7-----9------|
||--0-------7-------|-0-------7-------|-0-------8-------|-0-------8--------|
||o-----------------|-----------------|-----------------|------------------|
||------------------|-----------------|-----------------|------------------|


                                       1.
  C/D     CVIII      C/D     CVIII      DmV
  E E E E  E E E E   E E E E  E E E E   E E E E E E E E
|---8----------8---|---8----------8---|---5---------5---|
|-------8--------8-|-------8--------8-|-------6---5---6-|
|-----9------9-----|-----9------9-----|-----7-----------|
|-0-------10-------|-0-------10-------|-0-------7-------|
|------------------|------------------|-----------------|
|------------------|------------------|-----------------|


                      2.
         To Coda
  Dmadd2/A            DmV     Dmadd2/A  DmV
  E E E E E E E E     E E E E E E E E   W
|---5---------5----||---5---------5---|------||
|-------6---5---6-o||-------6---5---5-|-6----||
|-----7------------||-----7-----------|------||
|-0-------7--------||-0-------7-------|-0----||
|-----------------o||-----------------|------||
|------------------||-----------------|------||


    Amadd2            Amadd2/Eb
    E E E E E E E E   E E E E E E E E  4x
||----------0-------|---------0--------||
||o-------0---0-----|-------0---0-----o||
||------5-------5---|-----5-------5----||
||----7-------------|---7-----------7--||
||o-0-------------7-|-6---------------o||
||------------------|------------------||


      Dm      Bb/Dopen  Dm6     Dm7
      E E E E E E E E   E E E E E E E E  4x
|-||--------1-------1-|-------1-------5--||
|-||o-----3-------3---|-----3-------3---o||
|-||----2-------3-----|---4-------5------||
|-||--0-------0-------|-0-------0--------||
|-||o-----------------|-----------------o||
|-||------------------|------------------||


    Amadd2              Amadd2/Eb
    Gtr I
    E   E E E E E E E   E  E E E E E  E   E  4x
||------------0-------|----------0-----------||
||o---------0---0-----|--------0---0--------o||
||--------5-------5---|------5--------5------||
||------7-------------|----7--------------7--||
||o-0---------------7-|-6-------------------o||
||--------------------|----------------------||
|
|   Gtr II
|   <                   <
|   W                   W                    4x
||--------------------|----------------------||
||o-------------------|---------------------o||
||--------------------|----------------------||
||--7-----------------|-6--------------------||
||o-------------------|---------------------o||
||--------------------|----------------------||
|
|   Gtr III
|   H..             E   H.           +Q      4x
||--------------------|----------------------||
||o-------------------|---------------------o||
||--------------------|----------------------||
||--------------------|----------------------||
||o-0---------------7-|-6------------(6)\---o||
||--------------------|----------------------||


      Dm      Bb/Dopen  Dm6     Dm7
      E E E E E E E E   E E E E E E E E  3x
|-||--------1-------1-|-------1-------5--||
|-||o-----3-------3---|-----3-------3---o||
|-||----2-------3-----|---4-------5------||
|-||--0-------0-------|-0-------0--------||
|-||o-----------------|-----------------o||
|-||------------------|------------------||
|
|     <       <         <
|     H       H         W                3x
|-||------------------|------------------||
|-||o-----------------|-----------------o||
|-||------------------|------------------||
|-||--0-------2-------|-3----------------||
|-||o-----------------|-----------------o||
|-||------------------|------------------||
|
|     W                 W                3x
|-||------------------|------------------||
|-||o-----------------|-----------------o||
|-||------------------|------------------||
|-||------------------|-0----------------||
|-||o-----------------|-----------------o||
|-||------------------|------------------||


  Dm      Bb/Dopen  Dm6     Dm7           Amadd2
  Gtr I
  E E E E E E E E   E E E E E E  E  E     W
|-------1-------1-|-------1---------5-||------------------|
|-----3-------3---|-----3--------3----||o-----------------|
|---2-------3-----|---4-------5-------||------------------|
|-0-------0-------|-0-------0---------||------------------|
|-----------------|-------------------||o-----------------|
|-----------------|-------------------||------------------|
|
| Gtr II                                  Gtr IV
| <       <         <
|                                         PM------------|
| H       H         W                     E E E E E E E E
|-----------------|-------------------||----------0-------|
|-----------------|-------------------||o-------0---0-----|
|-----------------|-------------------||------5-------5---|
|-0-------2-------|-3-----------------||----7-------------|
|-----------------|-------------------||o-0-------------7-|
|-----------------|-------------------||------------------|
|
|                                         Gtrs II, III
| <
|                                         PM--|
| E E E E E E E E   E E E E E E  Q        E E E E E E E E
|-----------------|-------------------||------------------|
|-----------------|-------------------||o-----------------|
|-----------------|-------------------||------------------|
|-0-0-0-0-0-0-0-0-|-0-0-0-0-0-0-------||--7-7-7-5-7-5-7-9-|
|-----------------|-------------12\---||o-0-0-0-0-0-0-0-7-|
|-----------------|-------------------||------------------|


  Amadd2/Eb          Amadd2            Amadd2/Eb
  Gtr IV
  PM-------------------------------------------------|
  E E E E E E E  E   E E E E E E E E   E E E E E E E  E
|---------0--------|---------0-------|---------0--------|
|-------0---0------|-------0---0-----|-------0---0------|
|-----5-------5----|-----5-------5---|-----5-------5----|
|---7------------7-|---7-------------|---7------------7-|
|-6----------------|-0-------------7-|-6----------------|
|------------------|-----------------|------------------|
|
| Gtrs II, III
|   PM----|          PM--|               PM----|
| E E E E E E E  E   E E E E E E E E   E E E E E E E  E
|------------------|-----------------|------------------|
|------------------|-----------------|------------------|
|------------------|-----------------|------------------|
|-8-8-8-8-8-9-9s10-|-7-7-7-5-7-5-7-9-|-8-8-8-8-8-9-9s10-|
|-6-6-6-6-6-7-7s=9-|-0-0-0-0-0-0-0-7-|-6-6-6-6-6-7-7s=9-|
|------------------|-----------------|------------------|


  Amadd2            Amadd2/Eb          Amadd2            Amadd2/Eb
  PM-------------------------------------------------------------------|
  E E E E E E E E   E E E E E E E  E   E E E E E E E E   E E E E E E E  E
|---------0-------|---------0--------|---------0-------|---------0--------||
|-------0---0-----|-------0---0------|-------0---0-----|-------0---0------||
|-----5-------5---|-----5-------5----|-----5-------5---|-----5-------5----||
|---7-------------|---7------------7-|---7-------------|---7------------7-||
|-0-------------7-|-6----------------|-0-------------7-|-6----------------||
|-----------------|------------------|-----------------|------------------||
|
| PM--|               PM----|          PM--|               PM----|
| E E E E E E E E   E E E E E E E  E   E E E E E E E E   E E E E E E E  E
|-----------------|------------------|-----------------|------------------||
|-----------------|------------------|-----------------|------------------||
|-----------------|------------------|-----------------|------------------||
|-7-7-7-5-7-5-7-9-|-8-8-8-8-8-9-9s10-|-7-7-7-5-7-5-7-9-|-8-8-8-8-8-9-9s10-||
|-0-0-0-0-0-0-0-7-|-6-6-6-6-6-7-7s=9-|-0-0-0-0-0-0-0-7-|-6-6-6-6-6-7-7s=9-||
|-----------------|------------------|-----------------|------------------||


  Dm      Bb/Dopen  Dm6     Dm7       Dm      Bb/Dopen  Dm6     Dm7
  PM------------------------------------------------------------------|
  E E E E E E E E   E E E E E E E E   E E E E E E E E   E E E E E E E E
|-------1-------1-|-------1-------5-|-------1-------1-|-------1-------5-|
|-----3-------3---|-----3-------3---|-----3-------3---|-----3-------3---|
|---2-------3-----|---4-------5-----|---2-------3-----|---4-------5-----|
|-0-------0-------|-0-------0-------|-0-------0-------|-0-------0-------|
|-----------------|-----------------|-----------------|-----------------|
|-----------------|-----------------|-----------------|-----------------|
|
| PM------------------------------------------------------------------|
| E E E E E E E E   E E E E E E E E   E E E E E E E E   E E E E E E E E
|-----------------|-----------------|-----------------|-----------------|
|-----------------|-----------------|-----------------|-----------------|
|-2-2-2-2-3-3-3-3-|-4-4-4-4-5-5-5-5-|-2-2-2-2-3-3-3-3-|-4-4-4-4-5-5-5-5-|
|-0-0-0-0-0-0-0-0-|-0-0-0-0-0-0-0-0-|-0-0-0-0-0-0-0-0-|-0-0-0-0-0-0-0-0-|
|-----------------|-----------------|-----------------|-----------------|
|-----------------|-----------------|-----------------|-----------------|


  Dm      Bb/Dopen  Dm6     Dm7       Dm      Bb/Dopen  Dm6     Dm7
  PM------------------------------------------------------------------|
  E E E E E E E E   E E E E E E E E   E E E E E E E E   E E E E E E E E
|-------1-------1-|-------1-------5-|-------1-------1-|-------1-------5--||
|-----3-------3---|-----3-------3---|-----3-------3---|-----3-------3---o||
|---2-------3-----|---4-------5-----|---2-------3-----|---4-------5------||
|-0-------0-------|-0-------0-------|-0-------0-------|-0-------0--------||
|-----------------|-----------------|-----------------|-----------------o||
|-----------------|-----------------|-----------------|------------------||
|
| PM------------------------------------------------------------------|
| E E E E E E E E   E E E E E E E E   E E E E E E E E   E E E E E E E E
|-----------------|-----------------|-----------------|------------------||
|-----------------|-----------------|-----------------|-----------------o||
|-2-2-2-2-3-3-3-3-|-4-4-4-4-5-5-5-5-|-2-2-2-2-3-3-3-3-|-4-4-4-4-5-5-5-5--||
|-0-0-0-0-0-0-0-0-|-0-0-0-0-0-0-0-0-|-0-0-0-0-0-0-0-0-|-0-0-0-0-0-0-0-0--||
|-----------------|-----------------|-----------------|-----------------o||
|-----------------|-----------------|-----------------|------------------||


    Gtrs II, III
    PM--|               PM----|
    E E E E E E E E   E E E E E E E  E  4x
||------------------|-------------------||
||o-----------------|------------------o||
||------------------|-------------------||
||--7-7-7-5-7-5-7-9-|-8-8-8-8-8-9-9s10--||
||o-0-0-0-0-0-0-0-7-|-6-6-6-6-6-7-7s=9-o||
||------------------|-------------------||


      D5      Bb/Dopen(tBm/D2)  Csus2/D
      PM------------------------------|
      E E E E E E E E   E E E E E E E E  4x
|-||------------------|------------------||
|-||o-----------------|-----------------o||
|-||--2-2-2-2-3-3-3-3-|-4-4-4-4-5-5-5-5--||
|-||--0-0-0-0-0-0-0-0-|-0-0-0-0-0-0-0-0--||
|-||o-----------------|-----------------o||
|-||------------------|------------------||


    PM--|               PM----|
    E E E E E E E E   E E E E E E E  E  4x
||------------------|-------------------||
||o-----------------|------------------o||
||------------------|-------------------||
||--7-7-7-5-7-5-7-9-|-8-8-8-8-8-9-9s10--||
||o-0-0-0-0-0-0-0-7-|-6-6-6-6-6-7-7s=9-o||
||------------------|-------------------||


      D5      Bb/Dopen(tBm/D2)  Csus2/D
      PM------------------------------|
      E E E E E E E E   E E E E E E E E  4x
|-||------------------|------------------||
|-||o-----------------|-----------------o||
|-||--2-2-2-2-3-3-3-3-|-4-4-4-4-5-5-5-5--||
|-||--0-0-0-0-0-0-0-0-|-0-0-0-0-0-0-0-0--||
|-||o-----------------|-----------------o||
|-||------------------|------------------||


   Interlude
    Gtrs II, III
      PM--|   PM        PM--|           PM--|   PM        PM--|
                              |-3-|                             |-3-|
    E E E E E E E E   E E E E Q Q Q   E E E E E E E E   E E E E Q Q Q
||------------------|---------------|-----------------|-----------------||
||o-----------------|---------------|-----------------|----------------o||
||------------------|---------------|-----------------|-----------------||
||------------------|---------------|-----------------|-----------------||
||o-0-------0---2-3-|-0-------0-2-3-|-0-------0---2-3-|-5-------3-2----o||
||----0-0-0---0-----|---1-1-1-------|---2-2-2---0-----|---3-3-3-----3---||


    Gtr IV
    ~
            |---3---|             |-3-|
    Q   E E Q   Q   Q     Q   E E Q Q Q
||----------------------|---------------|
||o---------------------|---------------|
||--2---2-4-5---4---2---|-----2-4-5-4-2-|
||----------------------|-3-------------|
||o---------------------|---------------|
||----------------------|---------------|
|
|   Gtrs II, III
|     PM--|   PM            PM--|
|                                 |-3-|
|   E E E E E E   E   E   E E E E Q Q Q
||----------------------|---------------|
||o---------------------|---------------|
||----------------------|---------------|
||----------------------|---------------|
||o-0-------0-----2---3-|-0-------0-2-3-|
||----0-0-0---0---------|---1-1-1-------|


          |---3---|             |-3-|
  Q   E E Q   Q   Q     Q   E E Q Q Q
|---------------------|-----------------||
|---------------------|-----------3----o||
|-----2-4-5---4---2---|-----2-4-5---5---||
|-4-------------------|-5---------------||
|---------------------|----------------o||
|---------------------|-----------------||
|
|   PM--|   PM            PM--|
|                               |-3-|
| E E E E E E   E   E   E E E E Q Q Q
|---------------------|-----------------||
|---------------------|----------------o||
|---------------------|-----------------||
|---------------------|-----------------||
|-0-------0-----2---3-|-5-------3-2----o||
|---2-2-2---0---------|---3-3-3-----3---||


      ~~~                         ~~
                 |----3----|                 |--3--|
      Q    E  E  Q    Q    Q      Q    E  E  Q  Q  Q
||-----------------------------|---------------------|
||o----------------------------|---------------------|
||--/12---12-14-15---14---12---|------12-14-15-14-12-|
||-----------------------------|-13------------------|
||o----------------------------|---------------------|
||-----------------------------|---------------------|
|
|                  PM
|                                            |--3--|
|     E E  E  E  E E    E    E    E E  E  E  Q  Q  Q
||-----------------------------|---------------------|
||o----------------------------|---------------------|
||-----------------------------|---------------------|
||-----------------------------|---------------------|
||o---3----------3------5----6-|--3----------3--5--6-|
||------3--3--3----3-----------|----4--4--4----------|


   ~~                          ~~
              |----3----|                 |--3--|
   Q    E  E  Q    Q    Q      Q    E  E  Q  Q  Q
|---------------------------|-----------------------||
|---------------------------|---------------13-----o||
|------12-14-15---14---12---|------12-14-15----15---||
|-14------------------------|-15--------------------||
|---------------------------|----------------------o||
|---------------------------|-----------------------||
|
|               PM
|                                         |--3--|
|  E E  E  E  E E    E    E    E E  E  E  Q  Q  Q
|---------------------------|-----------------------||
|---------------------------|----------------------o||
|---------------------------|-----------------------||
|---------------------------|-----------------------||
|--3----------3------5----6-|--8----------6--5-----o||
|----5--5--5----5-----------|----6--6--6--------6---||


 Guitar Solo
  Gtr IV
                                                             ~~~~~~
                                     |-------3-------|                 |-----3-----|
   Q       Q       Q       Q         Q       Q       Q       Q        +E   +E      E
|---------------------------------|--------------------------------------------------|
|-20b22---20b22---20b22---20b22---|-20b22---20b22---20b22---20b22====(20)r(20)p===17-|
|---------------------------------|--------------------------------------------------|
|---------------------------------|--------------------------------------------------|
|---------------------------------|--------------------------------------------------|
|---------------------------------|--------------------------------------------------|
|
| Gtr III
|  PM-----|                               PM----------------|
|  E    E  E    E  E    E  E    E    E    E       E       E  E     E   E        E
|---------------------------------|--------------------------------------------------|
|---------------------------------|--------------------------------------------------|
|---------------------------------|--------------------------------------------------|
|--7----7--7----5--7----5--7----9-|--8----8-------8-------8--8-----9---9s======10----|
|--0----0--0----0--0----0--0----7-|--6----6-------6-------6--6-----7---7s=======9----|
|---------------------------------|--------------------------------------------------|


                                                   ~~~~~
   H           Q.        E       +Q     E     +E   Q       E  E
|-20b22-------20b22-----20b22r|=(20)---20b22-(20)-20b22---20-17-|
|-----------------------------|---------------------------------|
|-----------------------------|---------------------------------|
|-----------------------------|---------------------------------|
|-----------------------------|---------------------------------|
|-----------------------------|---------------------------------|
|
|  PM-----|                          PM-----------|
|  E    E E E  E    E E  E        E  E  E      E   E    E  E  E
|-----------------------------|---------------------------------|
|-----------------------------|---------------------------------|
|-----------------------------|---------------------------------|
|--7----7-7-5--7----5-7--9----|---8--8--8------8---8----9--9s10-|
|--0----0-0-0--0----0-0--7----|---6--6--6------6---6----7--7s=9-|
|-----------------------------|---------------------------------|


         |--3--|
   E     S  S  S  S     S  S  S  S     S  S  S  S     S  S  S
|-------17-------------17-------------17-------------17-------|
|-20b22----20p17-20b22----20p17-20b22----20p17-20b22----20p17-|
|-------------------------------------------------------------|
|-------------------------------------------------------------|
|-------------------------------------------------------------|
|-------------------------------------------------------------|
|
|  PM------------|
|  E     E        E        E     E        E     E        E
|-------------------------------------------------------------|
|-------------------------------------------------------------|
|-------------------------------------------------------------|
|--7-----7--------7--------5-----7--------5-----7--------9----|
|--0-----0--------0--------0-----0--------0-----0--------7----|
|-------------------------------------------------------------|


   S     S  S  S  S     S  S  S  S     S  S  S  S     S  S  S
|-------17-------------17-------------17-------------17-------|
|-20b22----20p17-20b22----20p17-20b22----20p17-20b22----20p17-|
|-------------------------------------------------------------|
|-------------------------------------------------------------|
|-------------------------------------------------------------|
|-------------------------------------------------------------|
|
|           PM------------------|
|  E        E     E        E     E        E     E        E
|-------------------------------------------------------------|
|-------------------------------------------------------------|
|-------------------------------------------------------------|
|--8--------8-----8--------8-----8--------9-----9s======10----|
|--6--------6-----6--------6-----6--------7-----7s=======9----|
|-------------------------------------------------------------|


   S  S  S  S  S  S  S  S  S  S  S  S  S  S  S  S
|-20-17-------------------------------------------|
|-------20-17----17-20-17-------------------------|
|-------------19----------19-17----17-19-17-------|
|-------------------------------19----------19-17-|
|-------------------------------------------------|
|-------------------------------------------------|
|
|  PM---------|
|  E     E     E     E     E     E     E     E
|-------------------------------------------------|
|-------------------------------------------------|
|-------------------------------------------------|
|--7-----7-----7-----5-----7-----5-----7-----9----|
|--0-----0-----0-----0-----0-----0-----0-----7----|
|-------------------------------------------------|


   S  S  S  S  S  S  S  S  S  S  S  S  Q       S  S S  S  S S  S  S S  S  S S  S  S S  S
|-------------------------------------------|-12-10-9----10-9-------9----------------------|
|-------------------------------------------|---------12------12-10---12-10-9-12-10-9------|
|-------------------------------------------|-----------------------------------------11---|
|----17-19-17-------------------------------|----------------------------------------------|
|-19----------19-17----17-19-17----17-------|----------------------------------------------|
|-------------------20----------20----17----|----------------------------------------------|
|
|        PM---------------|                    PM-----------------------------------|
|  E     E     E     E     E     E     E  E    E    E     E    E    E     E    E    E
|-------------------------------------------|----------------------------------------------|
|-------------------------------------------|----------------------------------------------|
|-------------------------------------------|--2----2-----2----2----3-----3----3----3------|
|--8-----8-----8-----8-----8-----9-----9s10-|--0----0-----0----0----0-----0----0----0------|
|--6-----6-----6-----6-----6-----7-----7s=9-|----------------------------------------------|
|-------------------------------------------|----------------------------------------------|


   S S  S S S  S S  S  S S  S  S S  S  S S
|------------------------------------------|
|-10-9------9------------------------------|
|------11-9---11-9----11-9-------9---------|
|------------------12------12-11---12-11-9-|
|------------------------------------------|
|------------------------------------------|
|
|  PM---------------------------------------
|  E    E   E    E     E    E    E     E
|------------------------------------------|
|------------------------------------------|
|--4----4---4----4-----5----5----5-----5---|
|--0----0---0----0-----0----0----0-----0---|
|------------------------------------------|
|------------------------------------------|


                                                                              ~
   S  S S  S  S S  S  S S  S  S S  S  S S  S    S S  S  S S  S  S S  S  S S S Q
|--------------------------------------------|--------------------------------------|
|--------------------------------------------|--------------------------------------|
|--------------------------------------------|--------------------------------------|
|-12-11-9----11-9-------9--------------------|--------------------------------------|
|---------12------12-11---12-11-9-12-11-9----|-11-9-------9-------------------------|
|-----------------------------------------12-|------12-10---12-10-9-12-10-9-x-4-----|
|
|-------------------------------------------------------------------------------|
|  E    E     E    E    E     E    E    E       E    E    E     E    E    E   E E
|--------------------------------------------|--------------------------------------|
|--------------------------------------------|--------------------------------------|
|--2----2-----2----2----3-----3----3----3----|--4----4----4-----4----5----5---5-5---|
|--0----0-----0----0----0-----0----0----0----|--0----0----0-----0----0----0---0-0---|
|--------------------------------------------|--------------------------------------|
|--------------------------------------------|--------------------------------------|


                                       T        T        T
  E S S S S S S S S S S S S E   Q      a Q      a Q      a Q
|-----------------------------|----------------------------------|
|-----------------------------|----------------------------------|
|-------------------------5-7-|-7b9---14p7b9---15p7b9---17p7b9---|
|-------------5-7p5---5-7-----|----------------------------------|
|-------5h6h7-------7---------|----------------------------------|
|-5-7h8-----------------------|----------------------------------|
|
| PM--------------------------------------------------------------
| E E   E   E   E   E   E   E   E   E    E   E    E   E    E   E
|-----------------------------|----------------------------------|
|-----------------------------|----------------------------------|
|-2-2---2---2---3---3---3---3-|-4---4----4---4----5---5----5---5-|
|-0-0---0---0---0---0---0---0-|-0---0----0---0----0---0----0---0-|
|-----------------------------|----------------------------------|
|-----------------------------|----------------------------------|


   T        T                              ~~
   a Q      a Q.      +Q.       H          Q.     +E
|-----------------------------|-------------------------|
|-----------------------------|-------------------------|
|-15p7b9---17p7b9r====(7)-----|-5tr7--------------------|
|-----------------------------|------------7------(7)/--|
|-----------------------------|-------------------------|
|-----------------------------|-------------------------|
|
|-------------------------------------------------|
|    E   E    E   E E  E  E E   E    E E E E  E E  E
|-----------------------------|-------------------------|
|-----------------------------|-------------------------|
|----2---2----2---2-3--3--3-3-|-4----4-4-4-5--5-5--5----|
|----0---0----0---0-0--0--0-0-|-0----0-0-0-0--0-0--0----|
|-----------------------------|-------------------------|
|-----------------------------|-------------------------|


   |---3---|  |---3---|  |---3---|  |---3---|    |---3---|  |---3---|  |---3---|  |---3----|
   E  E    E  E  E    E  E  E    E  E  E    E    E  E    E  E  E    E  E  E    E  E  E     E
|---------10S17-13--------------10S17-13------|---------10S17-13--------------10S17-13-------|
|----10--------------15----10--------------15-|----10--------------15----10---------------15-|
|-10--------------------10--------------------|-10--------------------10---------------------|
|---------------------------------------------|----------------------------------------------|
|---------------------------------------------|----------------------------------------------|
|---------------------------------------------|----------------------------------------------|
|
|  PM--------|                                        PM--------------|
|  E    E     E    E     E    E     E    E       E    E     E    E     E    E     E     E
|---------------------------------------------|----------------------------------------------|
|---------------------------------------------|----------------------------------------------|
|---------------------------------------------|----------------------------------------------|
|--7----7-----7----5-----7----5-----7----9----|--8----8-----8----8-----8----9-----9s===10----|
|--0----0-----0----0-----0----0-----0----7----|--6----6-----6----6-----6----7-----7s====9----|
|---------------------------------------------|----------------------------------------------|


   |---3---|  |---3---|  |---3---|  |---3---|    |---3---|  |---3---|
   E  E    E  E  E    E  E  E    E  E  E    E    E  E    E  E  E    E  H
|-17-13------17-13------17-13------17-13------|-17-13------17-13-----------------|
|---------15---------15---------15---------15-|---------15---------15-17---------|
|---------------------------------------------|----------------------------------|
|---------------------------------------------|----------------------------------|
|---------------------------------------------|----------------------------------|
|---------------------------------------------|----------------------------------|
|
|  PM--------|                                        PM--------------|
|  E    E     E    E     E    E     E    E       E    E     E    E     E E E  E
|---------------------------------------------|----------------------------------|
|---------------------------------------------|----------------------------------|
|---------------------------------------------|----------------------------------|
|--7----7-----7----5-----7----5-----7----9----|--8----8-----8----8-----8-9-9s10--|
|--0----0-----0----0-----0----0-----0----7----|--6----6-----6----6-----6-7-7s=9--|
|---------------------------------------------|----------------------------------|


   |-------3-------|       |-------3-------|
   Q       Q       Q       Q       Q       Q
|-20b22---20b22---20b22---20b22---20b22---20b22---|
|-------------------------------------------------|
|-------------------------------------------------|
|-------------------------------------------------|
|-------------------------------------------------|
|-------------------------------------------------|
|
|  PM-----------|
|  E    E       E       E  E    E       E       E
|-------------------------------------------------|
|-------------------------------------------------|
|-------------------------------------------------|
|--7----7-------7-------5--7----5-------7-------9-|
|--0----0-------0-------0--0----0-------0-------7-|
|-------------------------------------------------|


   |-------3-------|                        |---3---|  |---3---|  |---3---|  |---3---|
   Q       Q       Q       Q.        +E     E  E    E  E  E    E  E  E    E  E  E    E
|-20b22---20b22---20b22---20b22r====(20)-|-20-19---17-19-17------17-19---17-19-17-------|
|----------------------------------------|--------------------19--------------------19--|
|----------------------------------------|----------------------------------------------|
|----------------------------------------|----------------------------------------------|
|----------------------------------------|----------------------------------------------|
|----------------------------------------|----------------------------------------------|
|
|       PM----------------|                 PM--------|
|  E    E       E       E  E    E E   E     E    E     E    E     E    E     E    E
|----------------------------------------|----------------------------------------------|
|----------------------------------------|----------------------------------------------|
|----------------------------------------|----------------------------------------------|
|--8----8-------8-------8--8----9-9s=10--|--7----7-----7----5-----7----5-----7----9-----|
|--6----6-------6-------6--6----7-7s==9--|--0----0-----0----0-----0----0-----0----7-----|
|----------------------------------------|----------------------------------------------|


                                    ~~~
   |---3---|  |---3---|  |---3---|
   E  E    E  E  E    E  E  E    E  Q
|-17-19---17-19-17------19-17------17----|
|--------------------19---------19-------|
|----------------------------------------|
|----------------------------------------|
|----------------------------------------|
|----------------------------------------|
|
|       PM--------------|
|  E    E     E    E     E    E     E  E
|----------------------------------------|
|----------------------------------------|
|----------------------------------------|
|--8----8-----8----8-----8----9-----9s10-|
|--6----6-----6----6-----6----7-----7s=9-|
|----------------------------------------|


   |--3--|  |--3--|  |--3--|  |--3--|  |--3--|  |--3--|  |--3--|  |--3--|
   S  S  S  S  S  S  S  S  S  S  S  S  S  S  S  S  S  S  S  S  S  S  S  S
|-20p19p17-20p19p17-18p17p15-18p17p15-17p16p14-17p16p14-15p13p12-15p13p12-|
|-------------------------------------------------------------------------|
|-------------------------------------------------------------------------|
|-------------------------------------------------------------------------|
|-------------------------------------------------------------------------|
|-------------------------------------------------------------------------|
|
|  PM------------------------------------------------------------|
|  E        E        E        E        E        E        E        E
|-------------------------------------------------------------------------|
|-------------------------------------------------------------------------|
|--2--------2--------2--------2--------3--------3--------3--------3-------|
|--0--------0--------0--------0--------0--------0--------0--------0-------|
|-------------------------------------------------------------------------|
|-------------------------------------------------------------------------|


   |--3--|  |--3--|  |-3--|  |-3--|  |-3-|  |-3-| |-3-| |-3-|
   S  S  S  S  S  S  S  S S  S  S S  S S S  S S S S S S S S S
|-13p12p10-13p12p10-12p11p9-12p11p9-10p9p7-10p9p7-8p7p5-8p7p5-|
|-------------------------------------------------------------|
|-------------------------------------------------------------|
|-------------------------------------------------------------|
|-------------------------------------------------------------|
|-------------------------------------------------------------|
|
|  PM----------------------------------------------------------
|  E        E        E       E       E      E     E     E
|-------------------------------------------------------------|
|-------------------------------------------------------------|
|--4--------4--------4-------4-------5------5-----5-----5-----|
|--0--------0--------0-------0-------0------0-----0-----0-----|
|-------------------------------------------------------------|
|-------------------------------------------------------------|


  S S S S S S S S S S S S S S S S
|-8p5---5-8p5---------------------|
|-----8-------8p5---5-8p5---------|
|-----------------7-------7p5---5-|
|-----------------------------7---|
|---------------------------------|
|---------------------------------|
|
|-----------------------------|
| E   E   E   E   E   E   E   E
|---------------------------------|
|---------------------------------|
|-2---2---2---2---3---3---3---3---|
|-0---0---0---0---0---0---0---0---|
|---------------------------------|
|---------------------------------|


                                         T        T    T        T    T
                                                  |----6-----|  |----6-----|
  S S S S S S S S S S S S E E   S S S S  S S S S  S S  S S S S  S S  S S S S
|-----------------------------|----------------------------------------------|
|-----------------------------|----------------------------------------------|
|-7p5-------------------------|----------------------------------------------|
|-----7p5---5-7p5---5---------|----------------------------------------------|
|---------7-------7---7p5-----|----------------------------------------------|
|-------------------------8-5-|-8p5h8p5-10p8p5h8-10p8-10p8p5h8-10p8-10p8p5h8-|
|
| PM-------------------------------------------------------------------|
| E   E   E   E   E   E   E E   E   E    E   E    E      E      E      E
|-----------------------------|----------------------------------------------|
|-----------------------------|----------------------------------------------|
|-4---4---4---4---5---5---5-5-|-2---2----2---2----3------3------3------3-----|
|-0---0---0---0---0---0---0-0-|-0---0----0---0----0------0------0------0-----|
|-----------------------------|----------------------------------------------|
|-----------------------------|----------------------------------------------|


                    T     T          T     T
                    |------6------|  |--3--|  |3|
  S S S S S S S  S  S  S  S  S S  S  S  S  S  S E
|-------------------------------------------------|
|-------------------------------------------------|
|-------------------------------------------------|
|-7-5---5-7-5-------------------------------------|
|-----7-------7s10-12p10-12p10p7h10-12p10-12p10-7-|
|-------------------------------------------------|
|
| PM-----------------------------------------|
| E   E   E   E     E        E       E        E
|-------------------------------------------------|
|-------------------------------------------------|
|-4---4---4---4-----5--------5-------5--------5---|
|-0---0---0---0-----0--------0-------0--------0---|
|-------------------------------------------------|
|-------------------------------------------------|


   T       T       T       T       T       T       T       T
   |-3--|  |-3--|  |-3--|  |-3--|  |-3--|  |-3--|  |-3--|  |-3--|
   S  S S  S  S S  S  S S  S  S S  S  S S  S  S S  S  S S  S  S S
|-----------------------------------------------------------------|
|-12p10p7-12p10p7-13p10p7-13p10p7-14p10p7-14p10p7-15p10p7-15p10p7-|
|-----------------------------------------------------------------|
|-----------------------------------------------------------------|
|-----------------------------------------------------------------|
|-----------------------------------------------------------------|
|
|  PM--------------------------------------------------------------
|  E       E       E       E       E       E       E       E
|-----------------------------------------------------------------|
|-----------------------------------------------------------------|
|--2-------2-------2-------2-------3-------3-------3-------3------|
|--0-------0-------0-------0-------0-------0-------0-------0------|
|-----------------------------------------------------------------|
|-----------------------------------------------------------------|


   T       T       T       T       T       T
   |-3--|  |-3--|  |-3--|  |-3--|  |-3--|  |-3--|
   S  S S  S  S S  S  S S  S  S S  S  S S  S  S S Q
|--------------------------------------------------------||
|-16p10p7-17p10p7-18p10p7-19p10p7-20p10p7-21p10p7--------||
|--------------------------------------------------------||
|-------------------------------------------------x\-----||
|-------------------------------------------------x\-----||
|-------------------------------------------------x\-----||
|
|----------------------------------------------------|
|  E       E       E       E       E       E      E  E
|--------------------------------------------------------||
|--------------------------------------------------------||
|--4-------4-------4-------4-------5-------5------5--5---||
|--0-------0-------0-------0-------0-------0------0--0---||
|--------------------------------------------------------||
|--------------------------------------------------------||


   Bridge
    Gtrs II, III
    PM--|               PM----|          PM--|               PM----|
    E E E E E E E E   E E E E E E E  E   E E E E E E E E   E E E E E E E  E
||------------------|------------------|-----------------|--------------------||
||o-----------------|------------------|-----------------|-------------------o||
||------------------|------------------|-----------------|--------------------||
||--7-7-7-5-7-5-7-9-|-8-8-8-8-8-9-9s10-|-7-7-7-5-7-5-7-9-|-8-8-8-8-8-9-9s10---||
||o-0-0-0-0-0-0-0-7-|-6-6-6-6-6-7-7s=9-|-0-0-0-0-0-0-0-7-|-6-6-6-6-6-7-7s=9--o||
||------------------|------------------|-----------------|--------------------||


    D5      Bb/Dopen(tBm/D2)  Csus2/D   D5      Bb/Dopen(tBm/D2)  Csus2/D
    PM------------------------------------------------------------------|
    E E E E E E E E   E E E E E E E E   E E E E E E E E   E E E E E E E E
||------------------|-----------------|-----------------|-------------------||
||o-----------------|-----------------|-----------------|------------------o||
||--2-2-2-2-3-3-3-3-|-4-4-4-4-5-5-5-5-|-2-2-2-2-3-3-3-3-|-4-4-4-4-5-5-5-5---||
||--0-0-0-0-0-0-0-0-|-0-0-0-0-0-0-0-0-|-0-0-0-0-0-0-0-0-|-0-0-0-0-0-0-0-0---||
||o-----------------|-----------------|-----------------|------------------o||
||------------------|-----------------|-----------------|-------------------||


      PM--|   PM        PM--|                 PM--|   PM        PM--|
                              |-3-|                                   |-3-|
    E E E E E E E E   E E E E Q Q Q  4x     E E E E E E E E   E E E E Q Q Q  4x
||------------------|----------------||-||------------------|----------------||
||o-----------------|---------------o||-||o-----------------|---------------o||
||------------------|----------------||-||------------------|----------------||
||------------------|----------------||-||------------------|----------------||
||o-0-------0---2-3-|-0-------0-2-3-o||-||o-2-------2---4-5-|-2-------2-4-5-o||
||----0-0-0---0-----|---1-1-1--------||-||----2-2-2---2-----|---3-3-3--------||


      PM--|   PM        PM--|                 PM--|   PM        PM--|
                              |-3-|                                   |-3-|
    E E E E E E E E   E E E E Q Q Q  3x     E E E E E E E E   E E E E Q Q Q  3x
||------------------|----------------||-||------------------|----------------||
||o-----------------|---------------o||-||o-----------------|---------------o||
||------------------|----------------||-||------------------|----------------||
||------------------|----------------||-||------------------|----------------||
||o-3-------3---5-6-|-3-------3-5-6-o||-||o-5-------5---7-8-|-5-------5-7-8-o||
||----3-3-3---3-----|---4-4-4--------||-||----5-5-5---5-----|---6-6-6--------||


  Gtrs II, III
  H..       E   W          H..         E    W
|-------------|----------|---------------|------------|
|-------------|----------|---------------|------------|
|-------------|----------|---------------|------------|
|-2---------9-|-8--------|-2-----------9-|--8---------|
|-0---------7-|-6--------|-0-----------7-|--6---------|
|-------------|----------|---------------|------------|
|
| Gtr IV
|                                 \7
| W             W          H      H        +W
|-------------|----------|---------------|------------|
|-------------|----------|---------------|------------|
|-------------|----------|---------------|------------|
|-------------|----------|---------------|------------|
|-------------|----------|--------7------|-(7)--------|
|-------------|----------|---------------|------------|


  H..       E   W          H..         E    W
|-------------|----------|---------------|--------||
|-------------|----------|---------------|--------||
|-------------|----------|---------------|--------||
|-2---------9-|-8--------|-2-----------9-|--8-----||
|-0---------7-|-6--------|-0-----------7-|--6-----||
|-------------|----------|---------------|--------||
|
|                                 \7
| W             W          H      H        +W
|-------------|----------|---------------|--------||
|-------------|----------|---------------|--------||
|-------------|----------|---------------|--------||
|-------------|----------|---------------|--------||
|-------------|----------|--------0------|-(0)----||
|-------------|----------|---------------|--------||


    Amadd2              Amadd2/Eb               Dm      Bb/Dopen
    Gtr III
    PM-----------------------------------------------------------
    E   E E E E E E E   E E E E E E E E  4x     E E E E E E E E
||------------0-------|---------0--------||-||--------1-------1-|
||o---------0---0-----|-------0---0-----o||-||o-----3-------3---|
||--------5-------5---|-----5-------5----||-||----2-------3-----|
||------7-------------|---7-----------7--||-||--0-------0-------|
||o-0---------------7-|-6---------------o||-||o-----------------|
||--------------------|------------------||-||------------------|
|
|   Gtr II
|   H..             E   W                4x     H       H
||--------------------|------------------||-||------------------|
||o-------------------|-----------------o||-||o-----------------|
||--------------------|------------------||-||--2-------3-------|
||--2---------------9-|-8----------------||-||--0-------0-------|
||o-0---------------7-|-6---------------o||-||o-----------------|
||--------------------|------------------||-||------------------|


 1.,2.,3.             4.
  Dm6     D5          Dm6       Em
 -----------------------------------|
  E E E E E E E E     E E E E E E E E   +W
|-------1-------5--||-------1-------3-|-(3)----||
|-----3-------3---o||-----3-------5---|--------||
|---4-------5------||---4-------4-----|--------||
|-0-------0--------||-0---------------|--------||
|-----------------o||-----------------|--------||
|------------------||-----------------|--------||
|
| H       H           H       H         +W
|------------------||-----------------|--------||
|-----------------o||-----------------|--------||
|-4----------------||-4---------------|--------||
|-0----------------||-0---------------|--------||
|-----------------o||---------2-------|-(2)----||
|------------------||---------0-------|-(0)----||


    Gtr III
                             ~~~~~                           ~~~~~
    W                 H      H         W                 Q   H.       4x
||------------------|----------------|-----------------|--------------||
||o-----------------|----------------|-----------------|----15b17----o||
||------------------|-------14b16----|-----------------|--------------||
||------------------|----------------|-----------------|--------------||
||o-----------------|----------------|-----------------|-------------o||
||------------------|----------------|-----------------|--------------||
|
|   Gtr II
|   E E E E +Q   Q    Q  Q   H         E E E E +Q   Q    Q   H.       4x
||------------------|----------------|-----------------|--------------||
||o-----------------|----------------|-----------------|-------------o||
||------------------|----------------|-----------------|--------------||
||------------------|----9---9-------|-----------------|-----9--------||
||o-5-4-4-4-(4)--5--|-2--7---7-------|-5-4-4-4-(4)--5--|-2---7-------o||
||--3-2-2-2-(2)--3--|-0--------------|-3-2-2-2-(2)--3--|-0------------||


    Gtr II
     E  E        E  E  +Q    Q        Q   Q   H
||------------------------------|------------------|
||o-----------------------------|------------------|
||------------------------------|------------------|
||------------------------------|---------9---9----|
||o--5--4--------4--4--(4)---5--|-----2---7---7----|
||---3--2--------2--2--(2)---3--|-----0------------|
|
|   Gtr III
|                   ~~~~~~~                   ~~
|       |--3--|
|    E  S  S  S  E  E  +Q    Q     a  Q   Q   H
||------------------------------|------------------|
||o-12-10h12p10----10-(10)--12--|------------------|
||--------------12--------------|-11h12------------|
||------------------------------|--------12--14----|
||o-----------------------------|------------------|
||------------------------------|------------------|
|
|   Gtr IV
|                   ~~~~~~~                   ~~
|       |--3--|
|    E  S  S  S  E  E  +Q    Q     a  Q   Q   H
||------------------------------|------------------|
||o-----------------------------|------------------|
||--12-11h12p11----11-(11)--12--|------------------|
||--------------14--------------|-12h14------------|
||o-----------------------------|--------10--14----|
||------------------------------|------------------|


   E  E        E  E  +Q    Q        Q   H.
|-----------------------------|----------------||
|-----------------------------|---------------o||
|-----------------------------|----------------||
|-----------------------------|---------9------||
|--5--4--------4--4--(4)---5--|-----2---7-----o||
|--3--2--------2--2--(2)---3--|-----0----------||
|
|                 ~~~~~~~               ~~~
|     |--3--|
|  E  S  S  S  E  E  +Q    Q     a  Q   H.
|-----------------------------|----------------||
|-12-10h12p10----10-(10)--12--|---------------o||
|-------------12--------------|-11h12----------||
|-----------------------------|----------------||
|-----------------------------|--------14-----o||
|-----------------------------|----------------||
|
|                 ~~~~~~~               ~~~
|     |--3--|
|  E  S  S  S  E  E  +Q    Q     a  Q   H.
|-----------------------------|----------------||
|-----------------------------|---------------o||
|-12-11h12p11----11-(11)--12--|----------------||
|-------------14--------------|-12h14----------||
|-----------------------------|--------10-----o||
|-----------------------------|----------------||


     E  E        E  E  +Q    Q        Q   Q   H
||------------------------------|------------------|
||o-----------------------------|------------------|
||------------------------------|------------------|
||------------------------------|---------9---9----|
||o--5--4--------4--4--(4)---5--|-----2---7---7----|
||---3--2--------2--2--(2)---3--|-----0------------|
|
|                   ~~~~~~~                   ~~
|       |--3--|
|    E  S  S  S  E  E  +Q    Q     a  Q   Q   H
||------------------------------|------------------|
||o-12-10h12p10----10-(10)--12--|------------------|
||--12-11h12p11-12-11-(11)--12--|-11h12------------|
||--------------14--------------|-12h14--12--14----|
||o-----------------------------|--------10--14----|
||------------------------------|------------------|
|
|                                             ~~
|       |--3--|
|    E  S  S  S  E  E  +Q    Q     a  Q   Q   H
||--10--9h10p=9-----9--(9)--10--|------------------|
||o-------------12--------------|-10h12------------|
||------------------------------|--------11--12----|
||------------------------------|------------------|
||o-----------------------------|------------------|
||------------------------------|------------------|


                               1.
   E  E        E  E  +Q    Q        Q   H.
|-----------------------------|----------------||
|-----------------------------|---------------o||
|-----------------------------|----------------||
|-----------------------------|---------9------||
|--5--4--------4--4--(4)---5--|-----2---7-----o||
|--3--2--------2--2--(2)---3--|-----0----------||
|
|                 ~~~~~~~               ~~~
|     |--3--|
|  E  S  S  S  E  E  +Q    Q     a  Q   H.
|-----------------------------|----------------||
|-12-10h12p10----10-(10)--12--|---------------o||
|-12-11h12p11-12-11-(11)--12--|-11h12----------||
|-------------14--------------|-12h14----------||
|-----------------------------|--------14-----o||
|-----------------------------|--------15------||
|
|     |--3--|
|  E  S  S  S  E  E  +Q    Q     a  Q   H.
|-10--9h10p=9-----9--(9)--10--|----------------||
|-------------12--------------|-10h12---------o||
|-----------------------------|----------------||
|-----------------------------|--------12------||
|-----------------------------|---------------o||
|-----------------------------|----------------||


  2.
                                      D.S. al Coda
      Q   H     E  E    +Q    E  E  +H        +W
|--------------------|---------------------|----------||
|--------------------|---------------------|----------||
|--------------------|---------------------|----------||
|---------------4--4-|--(4)---4--4--(4)----|--(4)-----||
|-----2---2-----2--2-|--(2)---2--2--(2)----|--(2)-----||
|-----0---0----------|---------------------|----------||
|
|  a  Q   H     E  E    +Q    E  E  +H        +W
|--------------------|---------------------|----------||
|--------------------|---------------------|----------||
|-11h12--------------|---------------------|----------||
|-12h14--------12-12-|-(12)--12-12-(12)----|-(12)-----||
|--------14----14-14-|-(14)--14-14-(14)----|-(14)-----||
|--------15----------|---------------------|----------||
|
|  a  Q   H     E  E    +Q    E  E  +H        +W
|--------------------|---------------------|----------||
|-10h12--------------|---------------------|----------||
|--------------11-11-|-(11)----------------|----------||
|--------12----------|-------12-12-(12)----|-(12)-----||
|--------------------|---------------------|----------||
|--------------------|---------------------|----------||


 Outro
  &
  Gtr I
   E  E E E E E E E   E E E E E E E E   E    E E E E E E E   E E E E E E E E
|-----5---------5---|---5---------5---|------6---------6---|---6---------6---|
|---------6---5---6-|-------6---5---6-|----------6-------6-|-------6-------6-|
|-------7-----------|-----7-----------|--------7-----9-----|-----7-----9-----|
|--0--------7-------|-0-------7-------|-0----------8-------|-0-------8-------|
|-------------------|-----------------|--------------------|-----------------|
|-------------------|-----------------|--------------------|-----------------|
|
| Gtr II
|                                       T
|  W                  W                 W                    W
|-<5>---------------|-----------------|-1(6)---------------|-----------------|
|-------------------|-----------------|--------------------|-----------------|
|-------------------|-----------------|--------------------|-----------------|
|-------------------|-----------------|--------------------|-----------------|
|-------------------|-----------------|--------------------|-----------------|
|-------------------|-----------------|--------------------|-----------------|


                                H.=H
  E    E E E  E E E E   E E E E  E E E E   E    E E E E E E E    H    H
|------8----------8---|---8----------8---|------5---------5---|-^5---------||
|----------8--------8-|-------8--------8-|----------6-------5-|-^6---------||
|--------9------9-----|-----9------9-----|--------7-----7-----|-^7---------||
|-0----------10-------|-0-------10-------|-0----------7-------|-^0---------||
|---------------------|------------------|--------------------|------------||
|---------------------|------------------|--------------------|------------||
|
|                     Gtr VI
| T
| W                     H        E E Q     H          H          W
|-3(8)----------------|----------5-6p5---|-5tr6---------------|------------||
|---------------------|------------------|--------------------|------------||
|---------------------|------------------|--------------------|------------||
|---------------------|------------------|--------------------|------------||
|---------------------|------------------|--------------------|------------||
|---------------------|------------------|--------------------|------------||


  Slower Q=90
  Gtrs II, III, IV, V
                                                     TP
  Q  Q  Q  Q    Q   Q  Q.   E   Q  Q  Q  Q    Q   Q  H
|-------------|---------------|-------------|-------------|
|-6--5--6--3--|-6--10--6------|-6--5--6--3--|-6--10--6----|
|-7--5--7--3--|-7--10--7------|-7--5--7--3--|-7--10--7----|
|-7--5--7--3--|-7--10--7------|-7--5--7--3--|-7--10--7----|
|-5--3--5--1--|-5---8--5------|-5--3--5--1--|-5---8--5----|
|-------------|---------------|-------------|-------------|


   TP           TP           TP
  +W           +W           +H     Q   Q
|------------|------------|---------------*|
|-(6)--------|-(6)--------|-(6)----6\-----*|
|-(7)--------|-(7)--------|-(7)----7\-----*|
|-(7)--------|-(7)--------|-(7)----7\-----*|
|-(5)--------|-(5)--------|-(5)----5\-----*|
|------------|------------|---------------*|
comments
print report bad tab
7 comments total. Showing first comments.
0 reply
bennyhill64 wrote on October 18 2005, 07:21 pm

in for whom the bell tolls it goes like this

|-------------------------------|-------------------------------|
|-------------------------------|-------------------------------|
|-------------------------------|-------------------------------|
|------------------------------2|------------------------------4|
|2-5-4-3-2-5-4-3-2-5-4-3-2-4-5-0|2-5-4-3-2-5-4-3-2-5-4-3-2-4-5-2|
|0-3-2-1-0-3-2-1-0-3-2-1-0-2-3--|0-3-2-1-0-3-2-1-0-3-2-1-0-2-3--|
. . . . . . . . . . . . . . . . . . . . . . . . . . . . . .
twice

0 reply
exiledsoul wrote on November 12 2005, 05:20 pm

fade to black is a copy

0 reply
METSOAD wrote on March 17 2006, 11:28 am

oh well it is perfect

I want to post or [tab]
guest
You may want to rate the tab now too:
select rating
Please do not post tabs as comments. Select "correction" instead!