Oops, an error
Loading. Please wait.

Ride The Lightning Tab

ver5
ver5
More versions @911Tabs.com
12,957 views 3 this week
14 commentsread comments
1 2 3 4 5
worth learning
x 12
Autoscroll
+/-
esc
set tempo
stop
Contributor
Hey! There's an official Ultimate Guitar app which is ideal
for learning songs when you're away from computer. Get the app
WARNING: You are trying to view
                                    content from Ultimate-Guitar.com
                                    in an unauthorized application,
                                    which is prohibited.

                                    Please use an official Ultimate
                                    Guitar Tabs application for iPhone,
                                    iPad or Android to access legitimate
                                    chords, guitar, bass, and drum tabs
                                    from Ultimate-Guitar.com database.

                                    Type "ultimate guitar tabs" in Apple
                                    App Store's or Android Market's
                                    search to find the application.
                        Metallica - Ride The Lightning                          


Lead
                                                                    
E||------------------|----------------7--||---8~---------7~--------|
B||------------------|----------------7--||---8~-----10------------|
G||------------------|-------------------||*---------7---9~-----9--|
D||------------------|-------------------||*--------------------7--|
A||------------------|-------------------||------------------------|
E||------------------|-------------------||------------------------|


                                                                           
-------------------7---||---8~---------7~--------|-------------------7---||
--7~-----8---------7---||---8~-----10------------|--7~-----8---------7---||
------------9~--------*||*---------7---9~-----9--|------------9~--------*||
--9~------------------*||*--------------------7--|--9~------------------*||
---------5--7~---------||------------------------|---------5--7~---------||
-----------------------||------------------------|-----------------------||


                                                           
-----------------------------||---------------------------|
--7~-----8-------------------||---------------------------|
------------9~---------------||*--------------------------|
--9~-------------------------||*--------------------------|
---------5--7~---x-x-x-x-x---||---8--------8--------------|
-----------------x-x-x-x-x-x-||---6--0--0--6--0--0--0--0--|


                                                         
---------------------------||---------------------------|
---------------------------||---------------------------|
--------------------------*||*--------------------------|
--------------------------*||*--------------------------|
--8--------8---------------||---8--------8--------------|
--6--0--0--6--0--0--0--0---||---6--0--0--6--0--0--0--0--|


                           3x                          
---------------------------||-------------------------|
---------------------------||-------------------------|
--------------------------*||*------------------------|
--------------------------*||*---------------2-----5--|
--8--------8---------------||---4----2----4--0--4--3--|
--6--0--0--6--0--0--0--0---||---2----0----2-----2-----|


                                                                        
-------------------------||-----------------|--------------------------|
-------------------------||-----------------|--------------------------|
------------------------*||-----------------|--------------------------|
---------------2-----5--*||-----------5--4--|--------------------------|
--4----2----4--0--4--3---||--4--------3--2--|--8--------8--------------|
--2----0----2-----2------||--2--------------|--6--0--0--6--0--0--0--0--|


                                                      
--------------------------|--------------------------|
--------------------------|--------------------------|
--------------------------|--------------------------|
--------------------------|--------------------------|
--8--------8--------------|--8--------8--------------|
--6--0--0--6--0--0--0--0--|--6--0--0--6--0--0--0--0--|


                                                      
--------------------------|--------------------------|
--------------------------|--------------------------|
--------------------------|--------------------------|
--------------------------|--------------------------|
--8--------8--------------|--8--------8--------------|
--6--0--0--6--0--0--0--0--|--6--0--0--6--0--0--0--0--|


                                                      
--------------------------|--------------------------|
--------------------------|--------------------------|
--------------------------|--------------------------|
--------------------------|--------------------------|
--8--------8--------------|--8--------8--------------|
--6--0--0--6--0--0--0--0--|--6--0--0--6--0--0--0--0--|


                                                        
--------------------------|----------------------------|
--------------------------|----------------------------|
--------------------------|----------------------------|
--------------------------|----------------------------|
--8--------8--------------|--2h4-------2h4-------------|
--6--0--0--6--0--0--0--0--|--2---2--2--2---2--2--2--2--|


                                                          
----------------------------|----------------------------|
----------------------------|----------------------------|
----------------------------|----------------------------|
----------------------------|----------------------------|
--2h4-------2h4-------------|--2h4-------2h4-------------|
--2---2--2--2---2--2--2--2--|--2---2--2--2---2--2--2--2--|


                                                                               
----------------------------|----------------------|-----------------------|
----------------------------|----------------------|-----------------------|
----------------------------|----------------------|-----------------------|
----------------------------|--6------5--4------6--|--2--2--2--2--2--2--2-2|
--2h4-------2h4-------------|--4------3--2------4--|--0--0--0--0--0--0--0-0|
--2---2--2--2---2--2--2--2--|----------------------|-----------------------|


                                                                               
----------------------|--------------------------|-------------------------|
----------------------|--------------------------|-------------------------|
----------------------|--------------------------|-------------------------|
--6------5--4------6--|--2--2--2--2--2--2--------|-------------------------|
--4------3--2------4--|--0--0--0--0--0--0--2-2~--|--2h4-------2h4----------|
----------------------|--------------------------|--2---2--2--2---2--2--2-2|


                                                                               
----------------------------|----------------------|-----------------------|
----------------------------|----------------------|-----------------------|
----------------------------|----------------------|-----------------------|
----------------------------|--6------5--4------6--|--2--2--2--2--2--2--2-2|
--2h4-------2h4-------------|--4------3--2------4--|--0--0--0--0--0--0--0-0|
--2---2--2--2---2--2--2--2--|----------------------|-----------------------|


                                                                           
----------------------|--------------------------|------------------------|
----------------------|--------------------------|------------------------|
----------------------|--------------------------|------------------------|
--6------5--4------6--|--2--2--2--2--2--2--------|---------------2-----5--|
--4------3--2------4--|--0--0--0--0--0--0--2-2~--|--4----2----4--0--4--3--|
----------------------|--------------------------|--2----0----2-----2-----|


                                                                           
------------------------|------------------------|------------------------|
------------------------|------------------------|------------------------|
------------------------|------------------------|------------------------|
---------------2-----5--|---------------2-----5--|---------------2-----5--|
--4----2----4--0--4--3--|--4----2----4--0--4--3--|--4----2----4--0--4--3--|
--2----0----2-----2-----|--2----0----2-----2-----|--2----0----2-----2-----|


                                                      
--------------------------|--------------------------|
--------------------------|--------------------------|
--------------------------|--------------------------|
--------------------------|--------------------------|
--8--------8--------------|--8--------8--------------|
--6--0--0--6--0--0--0--0--|--6--0--0--6--0--0--0--0--|


                                                      
--------------------------|--------------------------|
--------------------------|--------------------------|
--------------------------|--------------------------|
--------------------------|--------------------------|
--8--------8--------------|--8--------8--------------|
--6--0--0--6--0--0--0--0--|--6--0--0--6--0--0--0--0--|


                                                      
--------------------------|--------------------------|
--------------------------|--------------------------|
--------------------------|--------------------------|
--------------------------|--------------------------|
--8--------8--------------|--8--------8--------------|
--6--0--0--6--0--0--0--0--|--6--0--0--6--0--0--0--0--|


                                                      
--------------------------|--------------------------|
--------------------------|--------------------------|
--------------------------|--------------------------|
--------------------------|--------------------------|
--8--------8--------------|--8--------8--------------|
--6--0--0--6--0--0--0--0--|--6--0--0--6--0--0--0--0--|


                                                          
----------------------------|----------------------------|
----------------------------|----------------------------|
----------------------------|----------------------------|
----------------------------|----------------------------|
--2h4-------2h4-------------|--2h4-------2h4-------------|
--2---2--2--2---2--2--2--2--|--2---2--2--2---2--2--2--2--|


                                                          
----------------------------|----------------------------|
----------------------------|----------------------------|
----------------------------|----------------------------|
----------------------------|----------------------------|
--2h4-------2h4-------------|--2h4-------2h4-------------|
--2---2--2--2---2--2--2--2--|--2---2--2--2---2--2--2--2--|


                                                                         
----------------------|--------------------------|----------------------|
----------------------|--------------------------|----------------------|
----------------------|--------------------------|----------------------|
--6------5--4------6--|--2--2--2--2--2--2--2--2--|--6------5--4------6--|
--4------3--2------4--|--0--0--0--0--0--0--0--0--|--4------3--2------4--|
----------------------|--------------------------|----------------------|


                                                        
--------------------------|----------------------------|
--------------------------|----------------------------|
--------------------------|----------------------------|
--2--2--2--2--2--2--------|----------------------------|
--0--0--0--0--0--0--2-2~--|--2h4-------2h4-------------|
--------------------------|--2---2--2--2---2--2--2--2--|


                                                                               
----------------------------|----------------------|-----------------------|
----------------------------|----------------------|-----------------------|
----------------------------|----------------------|-----------------------|
----------------------------|--6------5--4------6--|--2--2--2--2--2--2--2-2|
--2h4-------2h4-------------|--4------3--2------4--|--0--0--0--0--0--0--0-0|
--2---2--2--2---2--2--2--2--|----------------------|-----------------------|


                                                                             
----------------------|--------------------------|-------------------------|
----------------------|--------------------------|-------------------------|
----------------------|--------------------------|--9--8--7-----5-----4----|
--6------5--4------6--|--2--2--2--2--2--2--------|--9--8--7-----5-----4--5-|
--4------3--2------4--|--0--0--0--0--0--0--2-2~--|--7--6--5-----3-----2--5-|
----------------------|--------------------------|-----------6--3--4--2--3-|


                                                            
--------------------------------|--------------------------|
--------------------------------|--------------------------|
--------------------------------|--9--8--7-----5-----4-----|
----------5--------------5------|--9--8--7-----5-----4--5--|
----------5--------------5------|--7--6--5-----3-----2--5--|
--0-0-0-0----0-0-0-0-0-0----0-0-|-----------6--3--4--2--3--|


                                                            
--------------------------------|--------------------------|
--------------------------------|--------------------------|
--------------------------------|--9--8--7-----5-----4-----|
----------5--------------5------|--9--8--7-----5-----4--5--|
----------5--------------5------|--7--6--5-----3-----2--5--|
--0-0-0-0----0-0-0-0-0-0----0-0-|-----------6--3--4--2--3--|


                                                            
--------------------------------|--------------------------|
--------------------------------|--------------------------|
--------------------------------|--9--8--7-----5-----4-----|
----------5--------------5------|--9--8--7-----5-----4--5--|
----------5--------------5------|--7--6--5-----3-----2--5--|
--0-0-0-0----0-0-0-0-0-0----0-0-|-----------6--3--4--2--3--|


                                                                  
--------------------------------|--------------------------------|
--------------------------------|--------------------------------|
--------------------------------|----------5--------------5------|
----------5--------------5------|--5-5-5-5-5--5-5-5-5-5-5-5--5-5-|
----------5--------------5------|--3-3-3-3-3--3-3-3-3-3-3-3--3-3-|
--0-0-0-0----0-0-0-0-0-0----0-0-|--------------------------------|


                                                                  
--------------------------------|--------------------------------|
--------------------------------|--------------------------------|
----------4--------------4------|----------3--------------3------|
--4-4-4-4-4--4-4-4-4-4-4-4--4-4-|--3-3-3-3-3--3-3-3-3-3-3-3--3-3-|
--2-2-2-2-2--2-2-2-2-2-2-2--2-2-|--1-1-1-1-1--1-1-1-1-1-1-1--1-1-|
--------------------------------|--------------------------------|


                                                                  
--------------------------------|--------------------------------|
--------------------------------|--------------------------------|
----------2--------------2------|--------------------------------|
--2-2-2-2-2--2-2-2-2-2-2-2--3-3-|----------3--------------3------|
--0-0-0-0-0--0-0-0-0-0-0-0--3-3-|--3-3-3-3-3--3-3-3-3-3-3-3--3-3-|
----------------------------1-1-|--1-1-1-1-1--1-1-1-1-1-1-1--1-1-|


                                                            
--------------------------------|--------------------------|
--------------------------------|--------------------------|
--------------------------------|--9--8--7-----5-----4-----|
----------5--------------8------|--9--8--7-----5-----4--5--|
--5-5-5-5-5--5-5-8-8-8-8-8--8-8-|--7--6--5-----3-----2--5--|
--3-3-3-3-3--3-3-6-6-6-6-6--6-6-|-----------6--3--4--2--3--|


                                                              
--------------------------------||---------------------------|
--------------------------------||---------------------------|
--------------------------------||*--9--8--7-----5-----4-----|
----------5--------------5------||*--9--8--7-----5-----4--5--|
----------5--------------5------||---7--6--5-----3-----2--5--|
--0-0-0-0----0-0-0-0-0-0----0-0-||------------6--3--4--2--3--|


                                                                      
---------------------------------||--------------|-------------------|
---------------------------------||--------------|-------------------|
--------------------------------*||--9--8--7-----|--5----------------|
----------5--------------5------*||--9--8--7-----|--5----------------|
----------5--------------5-------||--7--6--5--0--|--3----------------|
--0-0-0-0----0-0-0-0-0-0----0-0--||--------------|-------------------|


                                                                                
------------------|-------------------|------------------|-----------------|
------------------|-------------------|------------------|-----------------|
------------------|--4----------------|------------------|-----------------|
------------------|--4----------------|------------------|-----------------|
------------------|--2----------------|------------------|--2--------------|
------------------|-------------------|------------------|--0-----------0-3|


                                                               
---------------------|---------------------|------------------|
---------------------|---------------------|------------------|
--5------------------|---------------------|------------------|
--5------------------|--5----7----7--------|------------------|
--3------------------|--5----7----7--------|------------------|
---------------0--2--|--3----5----5--------|------------------|


                                                                  
---------------------|---------------------|---------------------|
---------------------|---------------------|---------------------|
---------------------|--5------------------|---------------------|
---------------------|--5------------------|--5----7----7--------|
--2------------------|--3------------------|--5----7----7--------|
--0------------0--3--|---------------0--2--|--3----5----5--------|


                   
------------------|
------------------|
------------------|
------------------|
------------------|
------------------|


                                                                             
---------------------------------------------------------------------------|
---------------------------------------------------------------------------|
--12-9-5-12-5-9-12-5-12-9-5-12-9-12-5-9-12-9-5-12-9-12-5-9-12-9-5-12-9-5-12|
---------------------------------------------------------------------------|
---------------------------------------------------------------------------|
---------------------------------------------------------------------------|


                                                                       
----------------------------------------------------------------------|
----------------------------------------------------------------------|
---9-5-9-12-5-12-9-5-9-12-5-9-12-5-9-12-5-9-12-5-9-12-5-9-12-5-9-12-5-|
----------------------------------------------------------------------|
----------------------------------------------------------------------|
----------------------------------------------------------------------|


                                                                      
---------------------------------------------------------------------|
---------------------------------------------------------------------|
--5-12-9-12-9-5-9-12-5-9-12-9-5-12-9-5-9-12-9-5-12-9-5-9-12-9-5-12-9-|
---------------------------------------------------------------------|
---------------------------------------------------------------------|
---------------------------------------------------------------------|


                                                                            
------------------------------------------------|--------------------------|
------------------------------------------------|--------------------------|
---5-12-9-5-9-12-9-5-12-9-5-12-9-5-14-----------|--14b---14b-----14----12--|
------------------------------------------------|--------------------------|
------------------------------------------------|--------------------------|
------------------------------------------------|--------------------------|


                                                               
---------------------------------|----------------------------|
---------------------------------|----------------------------|
--11~-------11--12--11-12-11-----|----------------------------|
-----------------------------14--|--12------12--12--14~-------|
---------------------------------|------14--------------------|
---------------------------------|----------------------------|


                                                           
-------------------------------|--------------------------|
-----------------------------5-|--5--7--7--7--7--8--8--8--|
-------------------------------|--------------------------|
--------14-------------------2-|--2--4--4--4--4--5--5--5--|
------------x-x-x-x-x-x-x-x----|--------------------------|
------------x-x-x-x-x-x-x-x----|--------------------------|


                                                                   
-------------------------------|----------------------------------|
--8--10--10--10--10--8--8--10--|--10--12--12--10--10--12--12--13--|
-------------------------------|----------------------------------|
--5--7---7---7---7---5--5--7---|--7---9---9---7---7---9---9---10--|
-------------------------------|----------------------------------|
-------------------------------|----------------------------------|


                                                            
--------------------------------|--------------------------|
--13--15--15--17--17------------|--------------------------|
--------------------------------|--------------19--21r--19-|
--10--12--12--14--14----17--19--|--21~---------------------|
--------------------------------|--------------------------|
--------------------------------|--------------------------|


                                                                  
----------------------------------|--------19--------------22~---|
----------------------------------|------------22~---22-19-------|
--21--19------19~-------19--19h21-|--21~-------------------------|
----------21--------21------------|------------------------------|
----------------------------------|------------------------------|
----------------------------------|------------------------------|


                                          
--22-19-19h22-19-19-----19------------14-|
---------------------22----22b-----17----|
-----------------------------------------|
-----------------------------------------|
-----------------------------------------|
-----------------------------------------|


                                                   
--17-14----14-17-14----14-------------17-14-------|
--------17----------17-------14h17p14-------17-14-|
--------------------------16----------------------|
--------------------------------------------------|
--------------------------------------------------|
--------------------------------------------------|


                                                   
--------------------------------------------------|
-----14-17-14-------------------------------------|
--16b---------16-14----14-16-14-------------------|
--------------------16----------16-14----14-16-14-|
--------------------------------------16----------|
--------------------------------------------------|


                                               
----------------------------------------------|
----------------------------------------------|
--------------------------------------14--16--|
------------------------------14--16----------|
--16-14-14-12-14-12----12-16------------------|
--------------------14------------------------|


                                                                
----------------------------------|------------------------17b-|
------------------------------14--|--17r---17r---17r---14------|
--16-14-----14h-16--14~---16------|----------------------------|
--------16------------------------|----------------------------|
----------------------------------|----------------------------|
----------------------------------|----------------------------|


                               
----17--17b-17--17~---17--14--|
------------------------------|
------------------------------|
------------------------------|
------------------------------|
------------------------------|


                                                                                
--17-14-14-14-17-14-------------------------------|--19b---17b---------14--|
--------------------17-14----14-17-14-------------|--------------19/---17--|
--------------------------16b---------16-14----14-|--16b---14b-------------|
--------------------------------------------16----|--------------16/-------|
--------------------------------------------------|------------------------|
--------------------------------------------------|------------------------|


                                                      
--17-14-14-14-14-17-14-19-14-17-14----14-17-17-19-14-|
-----------------------------------17----------------|
-----------------------------------------------------|
-----------------------------------------------------|
-----------------------------------------------------|
-----------------------------------------------------|


                                                      
--17-14----14-14-17-17-19-14-17-14----14-17-17-19-14-|
--------17-------------------------17----------------|
-----------------------------------------------------|
-----------------------------------------------------|
-----------------------------------------------------|
-----------------------------------------------------|


                                                   
--17--14------14----------------------------------|
----------17------17--14--17--14------14----------|
----------------------------------16------16--14--|
--------------------------------------------------|
--------------------------------------------------|
--------------------------------------------------|


                                                                             
------------------------------------|--------------------------------------|
------------------------------------|----------14--15--14-15-14-----14--15-|
--16--14------14--16----------------|--14--16-------------------16---------|
----------16----------14----14--16--|--------------------------------------|
------------------------------------|--------------------------------------|
------------------------------------|--------------------------------------|


                                     
------14--15p14---------------------|
--17------------17--15--14--15--17--|
------------------------------------|
------------------------------------|
------------------------------------|
------------------------------------|


                                                                                
--14--15--17--15--17--19--17--19--20--19-20-22-22b|-----22b---22b--17-19-21|
--------------------------------------------------|----------------15-17-19|
--------------------------------------------------|------------------------|
--------------------------------------------------|------------------------|
--------------------------------------------------|------------------------|
--------------------------------------------------|------------------------|


                                                     
--21-19-17-15-19-17-15-14-17--15--12--15--12-13-14--|
--21-19-17-15-19-17-15-13-17--15--12--15--13-12-13--|
----------------------------------------------------|
----------------------------------------------------|
----------------------------------------------------|
----------------------------------------------------|


                                                                          
--17--15--12--15--12------14--12------12------------|--------------------|
------15--12--15--13--15--13--12--13------15--13-12-|--------------------|
----------------------12----------12--16--14--12-11-|--10----------------|
----------------------------------------------------|--10----------------|
----------------------------------------------------|--8-----------------|
----------------------------------------------------|--------------------|


                                                  
--------------|--12--12--12--12--12--12--12--12--|
--------------|--15b-----15b-----15b-----15b-----|
--------------|----------------------------------|
--------------|----------------------------------|
--------------|----------------------------------|
--------------|----------------------------------|


                                     
--12--12--12--12--12--12--12--12-12-|
--15b-----15b-----15b-----15b-------|
------------------------------------|
------------------------------------|
------------------------------------|
------------------------------------|


                                                      
--15-12-14-12----12----------------------------------|
--------------15----15-14-12-14-12-------------------|
-----------------------------------14-12----12-14-12-|
-----------------------------------------14----------|
-----------------------------------------------------|
-----------------------------------------------------|


                                                                              
----------------------12--|--16--14--12--------------16--14--12------------|
--15~---15~---15~-----12--|--16--14--12--16--14--12--16--14--12--16--14--12|
--14~---14~---14~---------|--------------15--13--11--------------15--13--11|
--------------------------|------------------------------------------------|
--------------------------|------------------------------------------------|
--------------------------|------------------------------------------------|


                                                   
--17--16--14--------------17--16--14--------------|
--17--16--14--17--16--14--17--16--14--17--16--14--|
--------------16--15--13--------------16--15--13--|
--------------------------------------------------|
--------------------------------------------------|
--------------------------------------------------|


                                                   
--19--17--16--------------19--17--16--------------|
--19--17--16--19--17--16--19--17--16--19--17--16--|
--------------18--16--15--------------18--16--15--|
--------------------------------------------------|
--------------------------------------------------|
--------------------------------------------------|


                                        
--22--21--19--------------22b-------8--|
--22--21--19--22--21--19--22b---10-----|
--------------21--20--18---------------|
---------------------------------------|
---------------------------------------|
---------------------------------------|


                                                   
--19-15----15-19-15----15-19-15----17-19-15----14-|
--------17----------17----------17----------17----|
--------------------------------------------------|
--------------------------------------------------|
--------------------------------------------------|
--------------------------------------------------|


                                                   
--17-14----14-17-14----14-17-14----14-17-14----13-|
--------15----------15----------15----------15----|
--------------------------------------------------|
--------------------------------------------------|
--------------------------------------------------|
--------------------------------------------------|


                                                   
--17-13----13-17-13----13-17-13----13-17-13----12-|
--------15----------15----------15----------15----|
--------------------------------------------------|
--------------------------------------------------|
--------------------------------------------------|
--------------------------------------------------|


                                                   
--16-12----12-16-12----12-16-12----12-16-12----12/|
--------12----------12----------12----------12----|
--------------------------------------------------|
--------------------------------------------------|
--------------------------------------------------|
--------------------------------------------------|


                                                   
--19-15----15-19-15----15-19-15----17-19-15----14-|
--------17----------17----------17----------17----|
--------------------------------------------------|
--------------------------------------------------|
--------------------------------------------------|
--------------------------------------------------|


                                                   
--17-14----14-17-14----14-17-14----14-17-14----13-|
--------15----------15----------15----------15----|
--------------------------------------------------|
--------------------------------------------------|
--------------------------------------------------|
--------------------------------------------------|


                                                   
--17-13----13-17-13----13-17-13----13-17-13----12-|
--------15----------15----------15----------15----|
--------------------------------------------------|
--------------------------------------------------|
--------------------------------------------------|
--------------------------------------------------|


                                                   
--16-12----12-16-12----12-16-12----12-16-12----10-|
--------12----------12----------12----------12----|
--------------------------------------------------|
--------------------------------------------------|
--------------------------------------------------|
--------------------------------------------------|


                                            
--13-8----8-13-8----8-13-8----8-13-8----10-|
-------10-8-10-8-10-8-10-8-10-8-10-8-10-10-|
-----------------9---------9---------9-----|
-------------------------------------------|
-------------------------------------------|
-------------------------------------------|


                                                   
--15-10----10-15-10----13-18-13----13-18-13----15-|
--12-10-12-10-12-10-12-13-15-13-15-13-15-13-15-15-|
--------11----------11----------14----------14----|
--------------------------------------------------|
--------------------------------------------------|
--------------------------------------------------|


                                                   
--20-15----15-20-15-20-15----15-20-15-20-15----15-|
--20-15-17-15-20-15-20-15-17-15-20-15-20-15-17-15-|
--------16----------------16----------------16----|
--------------------------------------------------|
--------------------------------------------------|
--------------------------------------------------|


                                                   
--19-15----15-19-15-19-15----15-19-15-19-15----15-|
--19-15-17-15-19-15-19-15-17-15-19-15-19-15-17-15-|
--------16----------------16----------------16----|
--------------------------------------------------|
--------------------------------------------------|
--------------------------------------------------|


                                                   
--18-15----15-18-15-18-15----15-18-15-18-15----15-|
--18-15-17-15-18-15-18-15-17-15-18-15-18-15-17-15-|
--------16----------------16----------------16----|
--------------------------------------------------|
--------------------------------------------------|
--------------------------------------------------|


                                                   
--17-15----15-17-15-17-15----15-17-15-17-15----15-|
--17-15-17-15-17-15-17-15-17-15-17-15-17-15-17-15-|
--------16----------------16----------------16----|
--------------------------------------------------|
--------------------------------------------------|
--------------------------------------------------|


                                           
--13-8----8-13-8-13-8----8-13-8-13-8----8-|
--10-8-10-8-10-8-10-8-10-8-10-8-10-8-10-8-|
-------9--------------9--------------9----|
------------------------------------------|
------------------------------------------|
------------------------------------------|


                                                                                
--15-10----10-15-10----12-18-13----13-18-13----13-||-----------------------|
--12-10-12-10-12-10-12-12-15-13-15-13-15-13-15-13-||-----------------------|
--------11----------11----------14----------14----||*-9--8--7-----5-----4--|
--------------------------------------------------||*-9--8--7-----5-----4-5|
--------------------------------------------------||--7--6--5-----3-----2-5|
--------------------------------------------------||-----------6--3--4--2-3|


                                                            
--------------------------------|--------------------------|
--------------------------------|--------------------------|
--------------------------------|--9--8--7-----5-----4-----|
----------5--------------5------|--9--8--7-----5-----4--5--|
----------5--------------5------|--7--6--5-----3-----2--5--|
--0-0-0-0----0-0-0-0-0-0----0-0-|-----------6--3--4--2--3--|


                                                                    
---------------------------------||--------------------------------|
---------------------------------||--------------------------------|
--------------------------------*||----------5--------------5------|
----------5--------------5------*||--5-5-5-5-5--5-5-5-5-5-5-5--5-5-|
----------5--------------5-------||--3-3-3-3-3--3-3-3-3-3-3-3--3-3-|
--0-0-0-0----0-0-0-0-0-0----0-0--||--------------------------------|


                                                                  
--------------------------------|--------------------------------|
--------------------------------|--------------------------------|
----------4--------------4------|----------3--------------3------|
--4-4-4-4-4--4-4-4-4-4-4-4--4-4-|--3-3-3-3-3--3-3-3-3-3-3-3--3-3-|
--2-2-2-2-2--2-2-2-2-2-2-2--2-2-|--1-1-1-1-1--1-1-1-1-1-1-1--1-1-|
--------------------------------|--------------------------------|


                                                                  
--------------------------------|--------------------------------|
--------------------------------|--------------------------------|
----------2--------------2------|--------------------------------|
--2-2-2-2-2--2-2-2-2-2-2-2--3-3-|----------3--------------3------|
--0-0-0-0-0--0-0-0-0-0-0-0--3-3-|--3-3-3-3-3--3-3-3-3-3-3-3--3-3-|
----------------------------1-1-|--1-1-1-1-1--1-1-1-1-1-1-1--1-1-|


                                                            
--------------------------------|--------------------------|
--------------------------------|--------------------------|
--------------------------------|--9--8--7-----5-----4-----|
----------5--------------8------|--9--8--7-----5-----4--5--|
--5-5-5-5-5--5-5-8-8-8-8-8--8-8-|--7--6--5-----3-----2--5--|
--3-3-3-3-3--3-3-6-6-6-6-6--6-6-|-----------6--3--4--2--3--|


                                                              
--------------------------------||---------------------------|
--------------------------------||---------------------------|
--------------------------------||*--9--8--7-----5-----4-----|
----------5--------------5------||*--9--8--7-----5-----4--5--|
----------5--------------5------||---7--6--5-----3-----2--5--|
--0-0-0-0----0-0-0-0-0-0----0-0-||------------6--3--4--2--3--|


                                                                      
---------------------------------||--------------|-------------------|
---------------------------------||--------------|-------------------|
--------------------------------*||--9--8--7-----|-------------------|
----------5--------------5------*||--9--8--7-----|--5----------------|
----------5--------------5-------||--7--6--5--0--|--3----------------|
--0-0-0-0----0-0-0-0-0-0----0-0--||--------------|-------------------|


                                                              
------------------|------------------|-----------------------|
------------------|------------------|-----------------------|
------------------|------------------|-----------------------|
------------------|------------------|-----------------------|
------------------|------------------|--------------0--x-x-x-|
------------------|------------------|-----------------x-x-x-|


                                                      
--------------------------|--------------------------|
--------------------------|--------------------------|
--------------------------|--------------------------|
--------------------------|--------------------------|
--8--------8--------------|--8--------8--------------|
--6--0--0--6--0--0--0--0--|--6--0--0--6--0--0--0--0--|


                                                      
--------------------------|--------------------------|
--------------------------|--------------------------|
--------------------------|--------------------------|
--------------------------|--------------------------|
--8--------8--------------|--8--------8--------------|
--6--0--0--6--0--0--0--0--|--6--0--0--6--0--0--0--0--|


                                                        6x
|---------------------------|---------------------------||
|---------------------------|---------------------------||
|*--------------------------|--------------------------*||
|*--------------------------|--------------------------*||
|---8--------8--------------|--8--------8---------------||
|---6--0--0--6--0--0--0--0--|--6--0--0--6--0--0--0--0---||


                                                                        
--------------------------|-----------------|--------------------------|
--------------------------|-----------------|--------------------------|
--------------------------|-----------------|--------------------------|
--------------------5--4--|--3--------5--4--|--------------------------|
--8--------8--------3--2--|--1--------3--2--|--8--------8--------------|
--6--0--0--6--0--0--------|-----------------|--6--0--0--6--0--0--0--0--|


                                                      
--------------------------|--------------------------|
--------------------------|--------------------------|
--------------------------|--------------------------|
--------------------------|--------------------------|
--8--------8--------------|--8--------8--------------|
--6--0--0--6--0--0--0--0--|--6--0--0--6--0--0--0--0--|


                                                      
--------------------------|--------------------------|
--------------------------|--------------------------|
--------------------------|--------------------------|
--------------------------|--------------------------|
--8--------8--------------|--8--------8--------------|
--6--0--0--6--0--0--0--0--|--6--0--0--6--0--0--0--0--|


                                                      
--------------------------|--------------------------|
--------------------------|--------------------------|
--------------------------|--------------------------|
--------------------------|--------------------------|
--8--------8--------------|--8--------8--------------|
--6--0--0--6--0--0--0--0--|--6--0--0--6--0--0--0--0--|


                                                        
--------------------------|----------------------------|
--------------------------|----------------------------|
--------------------------|----------------------------|
--------------------------|----------------------------|
--8--------8--------------|--2h4-------2h4-------------|
--6--0--0--6--0--0--0--0--|--2---2--2--2---2--2--2--2--|


                                                          
----------------------------|----------------------------|
----------------------------|----------------------------|
----------------------------|----------------------------|
----------------------------|----------------------------|
--2h4-------2h4-------------|--2h4-------2h4-------------|
--2---2--2--2---2--2--2--2--|--2---2--2--2---2--2--2--2--|


                                                                               
----------------------------|----------------------|-----------------------|
----------------------------|----------------------|-----------------------|
----------------------------|----------------------|-----------------------|
----------------------------|--6------5--4------6--|--2--2--2--2--2--2--2-2|
--2h4-------2h4-------------|--4------3--2------4--|--0--0--0--0--0--0--0-0|
--2---2--2--2---2--2--2--2--|----------------------|-----------------------|


                                                                               
----------------------|--------------------------|-------------------------|
----------------------|--------------------------|-------------------------|
----------------------|--------------------------|-------------------------|
--6------5--4------6--|--2--2--2--2--2--2--------|-------------------------|
--4------3--2------4--|--0--0--0--0--0--0--2-2~--|--2h4-------2h4----------|
----------------------|-------------------------|-2---2--2--2---2--2--2--2-|


                                                                               
----------------------------|----------------------|--------------------------|
----------------------------|----------------------|--------------------------|
----------------------------|----------------------|--------------------------|
----------------------------|--6------5--4------6--|--2--2--2--2--2--2--2--2--|
--2h4-------2h4-------------|--4------3--2------4--|--0--0--0--0--0--0--0--0--|
--2---2--2--2---2--2--2--2--|----------------------|--------------------------|


                                                                           
----------------------|--------------------------|------------------------|
----------------------|--------------------------|------------------------|
----------------------|--------------------------|------------------------|
--6------5--4------6--|--2--2--2--2--2--2--2--2--|---------------2-----5--|
--4------3--2------4--|--0--0--0--0--0--0--0--0--|--4----2----4--0--4--3--|
----------------------|--------------------------|--2----0----2-----2-----|


                                                                           
------------------------|------------------------|------------------------|
------------------------|------------------------|------------------------|
------------------------|------------------------|------------------------|
---------------2-----5--|---------------2-----5--|---------------2-----5--|
--4----2----4--0--4--3--|--4----2----4--0--4--3--|--4----2----4--0--4--3--|
--2----0----2-----2-----|--2----0----2-----2-----|--2----0----2-----2-----|


                                                                       
|-------------------------|------------------|------------------------|
|-------------------------|------------------|------------------------|
|*------------------------|------------------|------------------------|
|*---------------2-----5--|------------------|---------------2--------|
|---4----2----4--0--4--3--|------------------|--4----2----4--0--4--2--|
|---2----0----2-----2-----|------------------|--2----0----2-----2--0--|


                                                                            
-------------------||-------------------------|----------------------------|
-------------------||-------------------------|----------------------------|
------------------*||*------------------------|----------------------------|
------------------*||*---------------2-----5--|--------5------5------5-4---|
-------------------||---4----2----4--0--4--3--|----3-3-3--3-3-3--3-3-3-2---|
-------------------||---2----0----2-----2-----|----------------------------|


                                                                              
------------------------|---------------------------||----7--8~---------7~---|
------------------------|---------------------------||----7--8~-----10-------|
------------------------|--------------------------*||--------------7---9~---|
---------------2--------|--------------------------*||-----------------------|
--4----2----4--0--4--2--|---------------------------||-----------------------|
--2----0----2-----2--0--|----------0-0-0-0-0-0-0-0--||-----------------------|


                               
----------------------|------||
-------7~-----8-------|------||
----9------------9/---|------||
----7--9~-------------|------||
--------------5--7/---|------||
----------------------|------||
comments
print report bad tab
14 comments total. Showing first comments.
0 reply
ludachris0606 wrote on January 26 2005, 12:00 am

Im lost, what park of ride the lightning is this?

+1 reply
ludachris0606 wrote on January 26 2005, 12:00 am

*part

0 reply
humpacow6 wrote on April 2 2006, 02:23 pm

makes no sence whatsoever

I want to post or [tab]
guest
You may want to rate the tab now too:
select rating
Please do not post tabs as comments. Select "correction" instead!