Oops, an error
Loading. Please wait.

Ride The Lightning Tab

ver6
ver6

Album

Solo

Video

More versions @911Tabs.com
11,412 views 9 this week
3 commentsread comments
1 2 3 4 5
accurate
x 9
Autoscroll
+/-
esc
set tempo
stop
WARNING: You are trying to view
                                    content from Ultimate-Guitar.com
                                    in an unauthorized application,
                                    which is prohibited.

                                    Please use an official Ultimate
                                    Guitar Tabs application for iPhone,
                                    iPad or Android to access legitimate
                                    chords, guitar, bass, and drum tabs
                                    from Ultimate-Guitar.com database.

                                    Type "ultimate guitar tabs" in Apple
                                    App Store's or Android Market's
                                    search to find the application.
RIDE THE LIGHTNING
                            As recorded by Metallica
                    (From the 1984 Album RIDE THE LIGHTNING)

Words and Music by James Hetfield, Lars Ulrich, Cliff Burton & Dave Mustaine

Gtr I (E A D G B E) - 'James Hetfield - Rhythm w/dist'
Gtr II (E A D G B E) - 'James Hetfield - Rhythm w/dist'
Gtr III (E A D G B E) - 'Kirk Hammett - Lead w/dist'
Gtr IV (E A D G B E) - 'Kirk Hammett - Lead II'
Gtr V (E A D G B E) - 'Cliff Burton - Bass arr. for guitar'

 Intro
  Q=152                           1.,2.,3.           4.
          E
 4/4
  Gtr V
  H.      Q       Q  Q    Q  Q     Q  Q   Q  Q       Q  Q   H
          |          |       |        |      |          |
          o          /       /        /      /          /

  Gtrs I, II
                  ~~      ~~       ~~     ~          ~~
  H.      E E     Q  E  E Q  E E   Q  E E Q  E E     Q  E E Q    Q
|-----------7-||--8-------7------|-------------7--||-----------------||
|-----------7-||o-8----10--------|-7----8------7-o||-7----8----------||
|-------------||--------7-9----9-|--------9-------||--------9-------||
|-------------||---------------7-|-9--------------||-9---------------||
|-------------||o----------------|------5-7------o||------5-7---/x--||
|-------------||-----------------|----------------||------------/x--||
  H.      E E     Q  E  E Q  E E   Q  E E Q  E E     Q  E E Q    Q


                                                 3/4
    Gtrs I, II
        PM|     PM----|               PM
    a E E E a E E E E E 12x     Q  Q  E E E E  4x E E Q  E E
||-----------------------||-||-----------------||------------||
||o---------------------o||-||o---------------o||------------||
||-----------------------||-||-----------------||------------||
||-----------------------||-||----------2---5--||--------5-4-||
||o-7s8-----7s8---------o||-||o-4--2--4-0-4-3-o||-4------3-2-||
||--5s6-0-0-5s6-0-0-0-0--||-||--2--0--2---2----||-2----------||


   Verses
    $
   4/4
        PM|     PM----|       PM|     PM----|
    a E E E a E E E E E   a E E E a E E E E E
||----------------------|---------------------|
||o---------------------|---------------------|
||----------------------|---------------------|
||----------------------|---------------------|
||o-7s8-----7s8---------|-7s8-----7s8---------|
||--5s6-0-0-5s6-0-0-0-0-|-5s6-0-0-5s6-0-0-0-0-|


      PM|     PM----|       PM|     PM|
  a E E E a E E E E E   a E E E a E E E E E
|---------------------|---------------------|
|---------------------|---------------------|
|---------------------|---------------------|
|---------------------|-----------------5-4-|
|-7s8-----7s8---------|-7s8-----7s8-----3-2-|
|-5s6-0-0-5s6-0-0-0-0-|-5s6-0-0-5s6-0-0-----|


      PM|     PM----|       PM|     PM----|
  a E E E a E E E E E   a E E E a E E E E E
|---------------------|---------------------|
|---------------------|---------------------|
|---------------------|---------------------|
|---------------------|---------------------|
|-7s8-----7s8---------|-7s8-----7s8---------|
|-5s6-0-0-5s6-0-0-0-0-|-5s6-0-0-5s6-0-0-0-0-|


      PM|     PM----|       PM|     PM|
  a E E E a E E E E E   a E E E a E E E E E
|---------------------|----------------------|
|---------------------|----------------------|
|---------------------|----------------------|
|---------------------|-----------------5-4--|
|-7s8-----7s8---------|-7s8-----7s8-----3-2--|
|-5s6-0-0-5s6-0-0-0-0-|-5s6-0-0-5s6-0-0------|


      PM|     PM----|       PM|     PM----|
  S S E E S S E E E E   S S E E S S E E E E
|---------------------|---------------------|
|---------------------|---------------------|
|---------------------|---------------------|
|---------------------|---------------------|
|-2h4-----2h4---------|-2h4-----2h4---------|
|-2---2-2-2---2-2-2-2-|-2---2-2-2---2-2-2-2-|


      PM|     PM----|       PM|     PM----|
  S S E E S S E E E E   S S E E S S E E E E
|---------------------|----------------------||
|---------------------|----------------------||
|---------------------|----------------------||
|---------------------|----------------------||
|-2h4-----2h4---------|-2h4-----2h4----------||
|-2---2-2-2---2-2-2-2-|-2---2-2-2---2-2-2-2--||


 Chorus
                  PM------------|
  Q  E E Q  E E   E E E E E E E E
|---------------|-----------------|
|---------------|-----------------|
|---------------|-----------------|
|-6----5-4----6-|-2-2-2-2-2-2-2-2-|
|-4----3-2----4-|-0-0-0-0-0-0-0-0-|
|---------------|-----------------|


                  PM--------|
  Q  E E Q  E E   E E E E E E S E.
|---------------|--------------------|
|---------------|--------------------|
|---------------|--------------------|
|-6----5-4----6-|-2-2-2-2-2-2--------|
|-4----3-2----4-|-0-0-0-0-0-0-2-2tr3-|
|---------------|--------------------|


      PM|     PM----|       PM|     PM----|                   PM------------|
  S S E E S S E E E E   S S E E S S E E E E   Q  E E Q  E E   E E E E E E E E
|---------------------|---------------------|---------------|-----------------|
|---------------------|---------------------|---------------|-----------------|
|---------------------|---------------------|---------------|-----------------|
|---------------------|---------------------|-6----5-4----6-|-2-2-2-2-2-2-2-2-|
|-2h4-----2h4---------|-2h4-----2h4---------|-4----3-2----4-|-0-0-0-0-0-0-0-0-|
|-2---2-2-2---2-2-2-2-|-2---2-2-2---2-2-2-2-|---------------|-----------------|


                  1.
          To Coda
                   PM------------|         PM
  Q  E E Q  E E    E E E E E E E E   Q  Q  E E E E
|----------------|-----------------|---------------|
|----------------|-----------------|---------------|
|----------------|-----------------|---------------|
|-6----5-4----6--|-2-2-2-2-2-2-2-2-|---------2---5-|
|-4----3-2----4--|-0-0-0-0-0-0-0-0-|-4--2--4-0-4-3-|
|----------------|-----------------|-2--0--2---2---|


                                                    2.
        PM              PM              PM          PM------------|
  Q  Q  E E E E   Q  Q  E E E E   Q  Q  E E E E     E E E E E E E E
|---------------|---------------|----------------||-----------------|
|---------------|---------------|---------------o||-----------------|
|---------------|---------------|----------------||-----------------|
|---------2---5-|---------2---5-|---------2---5--||-2-2-2-2-2-2-2-2-|
|-4--2--4-0-4-3-|-4--2--4-0-4-3-|-4--2--4-0-4-3-o||-0-0-0-0-0-0-0-0-|
|-2--0--2---2---|-2--0--2---2---|-2--0--2---2----||-----------------|


          PM  PM      PM----|   PM--------|
    E E E E E E E E   S S S S E S S S S S S E S S  4x
||------------------|------------------------------||
||o-----------------|-----------------------------o||
||--9-8-7---5---4---|------------------------------||
||--9-8-7---5---4-5-|---------5-------------5------||
||o-7-6-5---3---2-5-|---------5-------------5-----o||
||--------6-3-4-2-3-|-0-0-0-0---0-0-0-0-0-0---0-0--||


  PM----|   PM--------|   PM---
  S S S S E S S S S S S E S S
|-----------------------------|
|-----------------------------|
|-----------------------------|
|---------5-------------5-----|
|-3-3-3-3-3-3-3-3-3-3-3-3-3-3-|
|-----------------------------|


 -------|   PM--------|   PM----------|   PM--------|   PM|
  S S S S E S S S S S S E S S   S S S S E S S S S S S E S S
|-----------------------------|-----------------------------|
|-----------------------------|-----------------------------|
|-----------------------------|-----------------------------|
|---------4-------------4-----|---------3-------------3-----|
|-2-2-2-2-2-2-2-2-2-2-2-2-2-2-|-1-1-1-1-1-1-1-1-1-1-1-1-1-1-|
|-----------------------------|-----------------------------|


  PM----|   PM--------|   PM---
  S S S S E S S S S S S E S S
|-----------------------------|
|-----------------------------|
|-----------------------------|
|---------2-------------2-----|
|-0-0-0-0-0-0-0-0-0-0-0-0-----|
|-------------------------1-1-|


 -------|   PM--------|   PM----------|   PM--------|   PM|
  S S S S E S S S S S S E S S   S S S S E S S S S S S E S S
|-----------------------------|-----------------------------|
|-----------------------------|-----------------------------|
|-----------------------------|-----------------------------|
|-----------------------------|-----------------------------|
|---------3-------------3-----|---------5-------------8-----|
|-1-1-1-1-1-1-1-1-1-1-1-1-1-1-|-3-3-3-3-3-3-3S6-6-6-6-6-6-6-|


          PM  PM      PM----|   PM--------|
    E E E E E E E E   S S S S E S S S S S S E S S  3x
||------------------|------------------------------||
||o-----------------|-----------------------------o||
||--9-8-7---5---4---|------------------------------||
||--9-8-7---5---4-5-|---------5-------------5------||
||o-7-6-5---3---2-5-|---------5-------------5-----o||
||--------6-3-4-2-3-|-0-0-0-0---0-0-0-0-0-0---0-0--||


 2/4       4/4
  E E E E   W          +W           W          +W
|---------|----------|------------|----------|--------||
|---------|----------|------------|----------|--------||
|-9-8-7---|-5--------|-(5)--------|-4--------|-(4)----||
|-9-8-7---|-5--------|-(5)--------|-4--------|-(4)----||
|-7-6-5-0-|-3--------|-(3)--------|-2--------|-(2)----||
|---------|----------|------------|----------|--------||


            PM|           PM|
    H.      E E   H.      E E   Q  E E H      +W
||--------------|-------------|-------------|---------||
||o-------------|-------------|-------------|--------o||
||--------------|-5-----------|-------------|---------||
||--------------|-5-----------|-5s=7---7----|-(7)-----||
||o-2-----------|-3-----------|-5--5---7----|-(7)----o||
||--0-------0-3-|---------0-2-|-3s=5---5----|-(5)-----||


 Guitar Solo
  Gtr III
   T      T      T    T      T    T      T      T    T      T        T      T
   |------7------| |------7-------|                    |--------9:8---------|
   S S S  S S S  S S  S S S  S S  S T T  T T T  T T  T T T  T T T    T T T  T
|-----------------------------------------------------------------------------|
|-----------------------------------------------------------------------------|
|-12p9p5-12p5h9-12p5-12p9p5-12p9-12p5h9-12p9p5-12p9-12p5h9-12p9p5---12p9p5-12-|
|-----------------------------------------------------------------------------|
|-----------------------------------------------------------------------------|
|-----------------------------------------------------------------------------|
|
| Gtr I
|                                                      PM---------|
|  H.                                                  E          E
|-----------------------------------------------------------------------------|
|-----------------------------------------------------------------------------|
|-----------------------------------------------------------------------------|
|-----------------------------------------------------------------------------|
|--2--------------------------------------------------------------------------|
|--0---------------------------------------------------0----------3-----------|


              T    T        T      T      T        T        T        T
                       |-----6-----|
   +T  T T T  T T  T T S S  S S S  S T T  T T T T  T T T T  T T T T  T T
|--------------------------------------------------------------------------|
|--------------------------------------------------------------------------|
|-(12)p9p5h9-12p5-12p9p5h9-12p5h9-12p5h9-12p9p5h9-12p9p5h9-12p9p5h9-12p9p==|
|--------------------------------------------------------------------------|
|--------------------------------------------------------------------------|
|--------------------------------------------------------------------------|
|
|                                                      PM-------|
|   H.                                                 E        E
|--------------------------------------------------------------------------|
|--------------------------------------------------------------------------|
|---5----------------------------------------------------------------------|
|---5----------------------------------------------------------------------|
|---3----------------------------------------------------------------------|
|------------------------------------------------------0--------2----------|


     T    T        T      T        T        T      T        T      T
                     |-------7-------| |------7------| |------7------|
  T  T T  T T T T  T S S  S S   S  S S S S  S S S  S S S S  S S S  S S
|----------------------------------------------------------------------|
|----------------------------------------------------------------------|
|-5-12p9-12p9p5h9-12p5h9-12p9p==5-12p9p5h9-12p9p5-12p9p5h9-12p9p5-12p9-|
|----------------------------------------------------------------------|
|----------------------------------------------------------------------|
|----------------------------------------------------------------------|
|
| Q                  E        E        H
|----------------------------------------------------------------------|
|----------------------------------------------------------------------|
|----------------------------------------------------------------------|
|-5s=================7-----------------7-------------------------------|
|-5------------------5-----------------7-------------------------------|
|-3s=================5-----------------5-------------------------------|


         T        T      T      T      T
                      |-----6-----| |3-|
  +T  T  T T T T  T T S  S S S  S S S  E  +Q.
|-----------------------------------------------|
|-----------------------------------------------|
|-(9)p5-12p9p5h9-12p9p5-12p9p5-12p9p5-14-(14)---|
|-----------------------------------------------|
|-----------------------------------------------|
|-----------------------------------------------|
|
| +W
|-----------------------------------------------|
|-----------------------------------------------|
|-----------------------------------------------|
|-(7)-------------------------------------------|
|-(7)-------------------------------------------|
|-(5)-------------------------------------------|


    Q      Q       +E    Q    E
|-------------------------------|
|-------------------------------|
|-/14b16--14b16===(14)r-14---12-|
|-------------------------------|
|-------------------------------|
|-------------------------------|
|
|                          PM|
|   H.                     E  E
|-------------------------------|
|-------------------------------|
|-------------------------------|
|-------------------------------|
|---2---------------------------|
|---0----------------------0--3-|


   ~~~                                            ~~~~
                |--3--|
   H      E  E  S  S  S  E    E  E  E  E  a  Q   +Q
|--------------------------|--------------------------|
|--------------------------|--------------------------|
|-11-----11-12-11h12p11----|--------------------------|
|-----------------------14-|-12----12-12-12s14--(14)--|
|--------------------------|----14--------------------|
|--------------------------|--------------------------|
|
|               PM------|
|  H.           E        E    Q     E  E     H
|--------------------------|--------------------------|
|--------------------------|--------------------------|
|--5-----------------------|--------------------------|
|--5-----------------------|--5s====7--------7--------|
|--3-----------------------|--5-----5--------7--------|
|---------------0--------2-|--3s====5--------5--------|


    ~~~~
   +Q.    +E   Q  E.  S   E E E E E E E E   E  E  E  E  E E E  E
|-----------------------|-----------------|----------------------|
|--------------------/5-|-5s7-7-7-7s8-8-8-|-8s10-10-10-10s8-8s10-|
|-----------------------|-----------------|----------------------|
|-(14)---(14)/-------/2-|-2s4-4-4-4s5-5-5-|-5s=7--7--7--7s5-5s=7-|
|--------------xs=x----|-----------------|----------------------|
|-----------------------|-----------------|----------------------|
|
|                                     PM|                   PM|
|  +W                     H.          E E   H.              E  E
|-----------------------|-----------------|----------------------|
|-----------------------|-----------------|----------------------|
|-----------------------|-----------------|-5--------------------|
|--(7)------------------|-----------------|-5--------------------|
|--(7)------------------|-2---------------|-3--------------------|
|--(5)------------------|-0-----------0-3-|-----------------0--2-|


   E  E  E  E  E  E  E  E    E   E  E  E  Q   E  E
|-------------------------|------------------------|
|-10s12-12s10-10s12-12s13-|-13s=15-15s17-17--------|
|-------------------------|------------------------|
|--7s=9--9s=7--7s=9--9s10-|-10s=12-12s14-14--17-19-|
|-------------------------|------------------------|
|-------------------------|------------------------|
|
|  Q     E  E  H            +W
|-------------------------|------------------------|
|-------------------------|------------------------|
|-------------------------|------------------------|
|--5s====7-----7----------|-(7)--------------------|
|--5-----5-----7----------|-(7)--------------------|
|--3s====5-----5----------|-(5)--------------------|


      ~~~
   a  H      +E   E  E     +S   S
|----------------------------------|
|----------------------------------|
|----------------19-21b23r(21)p19--|
|-19s21-----(21)-------------------|
|----------------------------------|
|----------------------------------|
|
|                    PM---|
|     H.             E      E
|----------------------------------|
|----------------------------------|
|----------------------------------|
|----------------------------------|
|-----2----------------------------|
|-----0--------------0------3------|


             ~~~~~~~                         ~~~~~~~~~~~~       ~~~~~
   E   E  E  E  +E   E  E  S  S    Q      E  E      +E    S  S  Q
|-------------------------------|--------19--------------------22b24--|
|-------------------------------|-----------22b24==(22)r-22p19--------|
|-21--19----19-(19)----19-19h21-|-21b23-------------------------------|
|--------21---------21----------|-------------------------------------|
|-------------------------------|-------------------------------------|
|-------------------------------|-------------------------------------|
|
|                       PM|
|  H.                   E  E       Q      E  E       H
|-------------------------------|-------------------------------------|
|-------------------------------|-------------------------------------|
|--5----------------------------|-------------------------------------|
|--5----------------------------|--5s=====7----------7----------------|
|--3----------------------------|--5------5----------7----------------|
|-----------------------0--2----|--3s=====5----------5----------------|


   S   S  T  T  S  E  S  S  E      a       +E   +E     S  S
|-22--19-19-22-19-19----19-------------------------------14--||
|--------------------22----22b24r(22)b24==(22)-(22)r-17-----||
|------------------------------------------------------------||
|------------------------------------------------------------||
|------------------------------------------------------------||
|------------------------------------------------------------||
|
| +W
|------------------------------------------------------------||
|------------------------------------------------------------||
|------------------------------------------------------------||
|-(7)--------------------------------------------------------||
|-(7)--------------------------------------------------------||
|-(5)--------------------------------------------------------||


   S  S  S  S  S  S  S  S  S  S  S  S  S  S  S  S
|-17p14----14-17p14----14-------------17p14-------|
|-------17----------17-------14-17p14-------17-14-|
|-------------------------16----------------------|
|-------------------------------------------------|
|-------------------------------------------------|
|-------------------------------------------------|
|
|              PM---|                  PM---|
|  Q           E     E     Q           E     E
|-------------------------------------------------|
|-------------------------------------------------|
|-------------------------------------------------|
|-------------------------------------------------|
|--4-----------4-----4-----4----------------------|
|--2-----------2-----2-----2-----------2-----4----|


                                                                                         |---3---|
   S     S  S  S  S  S  S  S  S  S  S  S  S  S  S  S    S  S  S  S  S  S  S  S  a  E  E  E  E    E
|----------------------------------------------------|---------------------------------------------|
|-------14-17p14-------------------------------------|---------------------------------------------|
|-16b18----------16-14----14-16p14-------------------|-------------------------------------14---16-|
|----------------------16----------16-14----14-16p14-|-------------------------------14-16---------|
|----------------------------------------16----------|-16-14-14-12-14-12----12-14s16---------------|
|----------------------------------------------------|-------------------14------------------------|
|
|                 PM---|                  PM---|                          PM             PM---|
|  Q              E     E     Q           E     E       Q           E     E        Q     E    E
|----------------------------------------------------|---------------------------------------------|
|----------------------------------------------------|---------------------------------------------|
|----------------------------------------------------|---------------------------------------------|
|--7--------------7-----7-----7----------------------|--7S==========9-----9--------9-----9----9----|
|--5--------------5-----5-----5----------------------|--7S==========9-----7--------9-----9----9----|
|-----------------------------------------2-----4----|--5S==========7-----7--------7-----7----7----|


                  ~~
   S  S  E  E  E  Q   E  E    E.    +S   E.      +S   E     +E   E  E
|--------------------------|---------------------------------------17b19==|
|-----------------------14-|-17b19r(17)-17b19r==(17)-17b19r(17)-14--------|
|-16-14----14-16-14--16----|----------------------------------------------|
|-------16-----------------|----------------------------------------------|
|--------------------------|----------------------------------------------|
|--------------------------|----------------------------------------------|
|
|           PM|       PM|                PM---|                  PM|
|  Q        E  E  Q   E  E    Q          E    E       Q          E  E
|--------------------------|----------------------------------------------|
|--------------------------|----------------------------------------------|
|--------------------------|----------------------------------------------|
|--9--------9--9--9---9--9-|----------------------------------------------|
|--9--------9--9--9---9--9-|--4----------4----4-------4-------------------|
|--7--------7--7--7---7--7-|--2----------2----2-------2----------2--4-----|


                     ~~~~~
   +E    E  E     E  Q      E  E
|-(17)r-17-17b19-17-17b19--17-14-|
|--------------------------------|
|--------------------------------|
|--------------------------------|
|--------------------------------|
|--------------------------------|
|
|           PM---|          PM|
|   Q       E     E  Q      E  E
|--------------------------------|
|--------------------------------|
|--------------------------------|
|---7-------7-----7--7-----------|
|---5-------5-----5--5-----------|
|---------------------------2--4-|


                                                     G
   S  S  S  S  S  S  S  S  S     S  S  S  S  S  S  S
|-17p14-14-14-17p14----------------------------------|
|-------------------17-14-------14-17p14-------------|
|-------------------------16b18----------16-14----14-|
|----------------------------------------------16----|
|----------------------------------------------------|
|----------------------------------------------------|
|
|                    PM                   PM---|
|  Q           E     E     Q              E     E
|----------------------------------------------------|
|----------------------------------------------------|
|----------------------------------------------------|
|--7S==========9-----9-----9--------------9-----9----|
|--7S==========9-----7-----9--------------9-----9----|
|--5S==========7-----7-----7--------------7-----7----|


 trs III, IV                         Gtr III
                                        |-----5-----|
   E      +E    Q         Q     Q       S  S  S  S  S  S  S  S  S  S  S  S  S  S  S  S  S
|-19b21==(19)r-17b17.5------------14-|-17p14-14-14-14-17p14-19p14-17-14----14-17-17-19p14-|
|------------------------19--/17----|----------------------------------17----------------|
|-16b18==(16)r-14b14.5---------------|----------------------------------------------------|
|------------------------16---------|----------------------------------------------------|
|------------------------------------|----------------------------------------------------|
|------------------------------------|----------------------------------------------------|
|  E      +E    Q         Q     E  E
|
|               PM-----|        PM|                    PM---|                  PM---|
|  Q            E      E  Q     E  E    Q              E     E     Q           E     E
|------------------------------------|----------------------------------------------------|
|------------------------------------|----------------------------------------------------|
|------------------------------------|----------------------------------------------------|
|--9------------9------9--9-----9--9-|----------------------------------------------------|
|--9------------9------9--9-----9--9-|--4--------------4-----4-----4----------------------|
|--7------------7------7--7-----7--7-|--2--------------2-----2-----2-----------2-----4----|


   |-----5-----|
   S  S  S  S  S  S  S  S  S  S  S  S  S  S  S  S  S
|-17p14----14-14-17-17-19p14-17p14----14-17-17-19p14-|
|-------17-------------------------17----------------|
|----------------------------------------------------|
|----------------------------------------------------|
|----------------------------------------------------|
|----------------------------------------------------|
|
|                 PM---|                  PM---|
|  Q              E     E     Q           E     E
|----------------------------------------------------|
|----------------------------------------------------|
|----------------------------------------------------|
|--7--------------7-----7-----7----------------------|
|--5--------------5-----5-----5----------------------|
|-----------------------------------------2-----4----|


   |--3--|  |---3---|  |--3--|  |---3---|    |--3--|
   E  E  E  E  E    E  E  E  E  E  E    E    E  E  E  E  E  Q   E  E
|-17-14----14-----------------------------|---------------------------|
|-------17----17---14-17-14----14---------|---------------------------|
|---------------------------16----16---14-|-16-14----14-16------------|
|-----------------------------------------|-------16-------14--14-16--|
|-----------------------------------------|---------------------------|
|-----------------------------------------|---------------------------|
|
|                PM             PM---|                PM|       PM|
|  Q        E    E     Q        E    E       Q        E  E  Q   E  E
|-----------------------------------------|---------------------------|
|-----------------------------------------|---------------------------|
|-----------------------------------------|---------------------------|
|--7S=======9----9-----9--------9----9----|--9--------9--9--9---9--9--|
|--7S=======9----7-----9--------9----9----|--9--------9--9--9---9--9--|
|--5S=======7----7-----7--------7----7----|--7--------7--7--7---7--7--|


               |--3--|
   E  E  E  E  S  S  S  E  E  E    E  E  S  S  E  E  E  E  E
|-------------------------------|----14-15p14----------------|
|-------14-15-14h15p14----14-15-|-17----------17-15-14-15-17-|
|-14-16----------------16-------|----------------------------|
|-------------------------------|----------------------------|
|-------------------------------|----------------------------|
|-------------------------------|----------------------------|
|
|        PM|               PM|           PM---|         PM|
|  Q     E  E  Q           E  E    Q     E     E  Q     E  E
|-------------------------------|----------------------------|
|-------------------------------|----------------------------|
|-------------------------------|----------------------------|
|-------------------------------|--7-----7-----7--7----------|
|--4-----4--4--4----------------|--5-----5-----5--5----------|
|--2-----2--2--2-----------2--4-|-----------------------2--4-|


   |--3--|  |---3---|  |--3--|
   E  E  E  E  E    E  E  E  E  S  S  S  S
|-14-15-17-15-17---19-17-19-20-19-20-22-22b24===|
|-----------------------------------------------|
|-----------------------------------------------|
|-----------------------------------------------|
|-----------------------------------------------|
|-----------------------------------------------|
|
|                PM             PM---|
|  Q        E    E     Q        E     E
|-----------------------------------------------|
|-----------------------------------------------|
|-----------------------------------------------|
|--7S=======9----9-----9--------9-----9---------|
|--7S=======9----7-----9--------9-----9---------|
|--5S=======7----7-----7--------7-----7---------|


  Gtr III              Gtrs III, IV
                                                             |--3--|  |---3----|
   +Q     Q       Q      S  S  E     S  S  S  S  S  S  S  S  E  E  E  E  S  S  E
|-(22)r--22b24---22b24--17-19-21-||-21-19-17-15-19-17-15-14-17-15-12-15-12-13-14-|
|-----------------------15-17-19-||-21-19-17-15-19-17-15-13-17-15-12-15-13-12-13-|
|--------------------------------||----------------------------------------------|
|--------------------------------||----------------------------------------------|
|--------------------------------||----------------------------------------------|
|--------------------------------||----------------------------------------------|
|   H.                   S  S  E     S  S  S  S  S  S  S  S  E  E  E  E  S  S  E
|                                                            |--3--|  |---3----|
|
|         PM---|         PM---|
|   Q     E    E  Q      E     E     E     E     E     E     H
|--------------------------------||----------------------------------------------|
|--------------------------------||----------------------------------------------|
|--------------------------------||----------------------------------------------|
|---9-----9----9--9------9-----9-||--7-----7-----7-------------------------------|
|---9-----9----9--9------9-----9-||--7-----7-----7-------------------------------|
|---7-----7----7--7------7-----7-||--5-----5-----5-------------------------------|


   |---3---|  |--3--|  |--3--|  |---3----|
   E  E    E  E  E  E  E  E  E  E  E  S  S
|-17-15---12-15-12----14-12----12-----------|
|-17-15---12-15-13-15-13-12-13----15-13p12--|
|------------------12-------12-16-14-12p11--|
|-------------------------------------------|
|-------------------------------------------|
|-------------------------------------------|
|  E  E    E  E  E  E  E  E  E  E  E  S  S
|  |---3---|  |--3--|  |--3--|  |---3----|
|
|  E    E     Q        H
|-------------------------------------------|
|-------------------------------------------|
|-------------------------------------------|
|--5----5-----------------------------------|
|--5----3-----------------------------------|
|--3----3-----------------------------------|


                    3/4          4/4
   7____/
   a    +W            +H.          E       E    E       E  E       E    E       E
|------------------|-----------||-12------12---12------12-12------12---12------12-|
|------------------|-----------||-15b17--------15b17------15b17--------15b17------|
|-10---(10)--------|-(10)------||-------------------------------------------------|
|-10---(10)--------|-(10)------||-------------------------------------------------|
|--8----(8)--------|--(8)------||-------------------------------------------------|
|------------------|-----------||-------------------------------------------------|
|
|                                  PM----------------|     PM----------------|
|        W            +H.          S    S  S S  S    S  E  S    S  S S  S    S  E
|------------------|-----------||-------------------------------------------------|
|------------------|-----------||-------------------------------------------------|
|------------------|-----------||-------------------------------------------------|
|--------3---------|--(3)------||-------------------------------------------------|
|--------3---------|--(3)------||-----------------------5-----------------------5-|
|--------1---------|--(1)------||--0----0--0-0--0----0--3--0----0--0-0--0----0--3-|


   E       E    E       E  E     E  E     S  S
|-12------12---12------12-12----12-12----12-12--|
|-15b17--------15b17------15b17----15b17--------|
|-----------------------------------------------|
|-----------------------------------------------|
|-----------------------------------------------|
|-----------------------------------------------|
|
|  PM----------------|
|  S    S  S S  S    S  E  E     E  Q
|-----------------------------------------------|
|-----------------------------------------------|
|-----------------------------------------------|
|--------------------------4-----5--4-----------|
|-----------------------5--2-----3--2-----------|
|--0----0--0-0--0----0--3-----------------------|


                                                                                          G
                                                        ~~~~~~~~~~~~~~~~~~~~~~~~~~~
                     |--3--|
   S  S  S  S  S  S  S  S  S  S  S  S  S  S  S  S  S    Q           Q         Q.        E
|-15-12-14-12----12----------------------------------|---------------------------------12-|
|-------------15----15p14p12-14-12-------------------|-15----------15--------15--------12-|
|----------------------------------14-12----12-14-12-|-14b16-------14b16-----14b16--------|
|----------------------------------------14----------|------------------------------------|
|----------------------------------------------------|------------------------------------|
|----------------------------------------------------|------------------------------------|
|
|  PM------------|            PM------------|           PM---------------|
|  S  S  S  S  S  S  E        S  S  S  S  S  S  E       S    S S S  S    S E  E    E Q
|----------------------------------------------------|------------------------------------|
|----------------------------------------------------|------------------------------------|
|----------------------------------------------------|------------------------------------|
|----------------------------------------------------|------------------------4----5-4----|
|--------------------5--------------------------5----|---------------------5--2----3-2----|
|--0--0--0--0--0--0--3--------0--0--0--0--0--0--3----|--0----0-0-0--0----0-3--------------|


 trs III, IV
   |----3----|    |----3----|  |----3----|    |----3----|
   E    E    E    E    E    E  E    E    E    E    E    E
|-16---14---12----------------16---14---12------------------|
|-16---14---12---16---14---12-16---14---12---16---14---12---|
|----------------15---13---11----------------15---13---11---|
|-----------------------------------------------------------|
|-----------------------------------------------------------|
|-----------------------------------------------------------|
|  E    E    E    E    E    E  E    E    E    E    E    E
|  |----3----|    |----3----|  |----3----|    |----3----|
|
|  PM---------------|          PM---------------|
|  S S    S    S  S S    E     S S    S    S  S S    E
|-----------------------------------------------------------|
|-----------------------------------------------------------|
|-----------------------------------------------------------|
|-----------------------------------------------------------|
|------------------------5---------------------------5------|
|--0-0----0----0--0-0----3-----0-0----0----0--0-0----3------|


   |----3----|    |----3----|  |---3---|  |--3--|
   E    E    E    E    E    E  E  E    E  E  E  E
|-17---16---14----------------17-16---14----------|
|-17---16---14---17---16---14-17-16---14-17-16-14-|
|----------------16---15---13------------16-15-13-|
|-------------------------------------------------|
|-------------------------------------------------|
|-------------------------------------------------|
|  E    E    E    E    E    E  E  E    E  E  E  E
|  |----3----|    |----3----|  |---3---|  |--3--|
|
|  PM---------------|
|  S S    S    S  S S    E     E    E     Q
|-------------------------------------------------|
|-------------------------------------------------|
|-------------------------------------------------|
|------------------------------4----5-----4-------|
|------------------------5-----2----3-----2-------|
|--0-0----0----0--0-0----3------------------------|


   |----3----|    |----3----|  |----3----|    |----3----|    |----3----|    |----3----|
   E    E    E    E    E    E  E    E    E    E    E    E    E    E    E    E    E    E  Q.    E
|-19---17---16----------------21---19---17----------------|-22---21---19----------------22b24----8|
|-19---17---16---19---17---16-21---19---17---21---19---17-|-22---21---19---22---21---19-22b24--/10|
|----------------18---16---15----------------20---18---16-|----------------21---20---18-----------|
|---------------------------------------------------------|---------------------------------------|
|---------------------------------------------------------|---------------------------------------|
|---------------------------------------------------------|---------------------------------------|
|  E    E    E    E    E    E  E    E    E    E    E    E    E    E    E    E    E    E  Q     E E
|  |----3----|    |----3----|  |----3----|    |----3----|    |----3----|    |----3----|
|
|  PM---------------|          PM---------------|            PM---------------|
|  S S    S    S  S S    E     S S    S    S  S S    E       S S    S    S  S S    E     E    E   Q
|---------------------------------------------------------|---------------------------------------|
|---------------------------------------------------------|---------------------------------------|
|---------------------------------------------------------|---------------------------------------|
|---------------------------------------------------------|----------------------------4----5---4-|
|------------------------5---------------------------5----|------------------------5---2----3---2-|
|--0-0----0----0--0-0----3-----0-0----0----0--0-0----3----|--0-0----0----0--0-0--3----------------|


   S  S  S  S  S  S  S  S  S  S  S  S  S  S  S  S
|-19p15----15-19p15----15-19p15----15-19p15----14-|
|-17-13-17-13-17-13-17-13-17-13-17-13-17-13-17-12-|
|-------14----------14----------14----------14----|
|-------------------------------------------------|
|-------------------------------------------------|
|-------------------------------------------------|
|  S  S  S  S  S  S  S  S  S  S  S  S  S  S  S  S
|
|  PM------|         PM------------|         PM----
|  S  S  S  S  E     S  S  S  S  S  S  E     S  S
|-------------------------------------------------|
|-------------------------------------------------|
|-------------------------------------------------|
|--------------5-----------------------5----------|
|--3--3--3--3--3-----3--3--3--3--3--3--3-----3--3-|
|-------------------------------------------------|


   S  S  S  S  S  S  S  S  S  S  S  S  S  S  S  S
|-17p14----14-17p14----14-17p14----14-17p14----13-|
|-15-12-15-12-15-12-15-12-15-12-15-12-15-12-15-11-|
|-------12----------12----------12----------12----|
|-------------------------------------------------|
|-------------------------------------------------|
|-------------------------------------------------|
|  S  S  S  S  S  S  S  S  S  S  S  S  S  S  S  S
|
|----------|         PM------------|         PM|
|  S  S  S  S  E     S  S  S  S  S  S  E     S  S
|-------------------------------------------------|
|-------------------------------------------------|
|-------------------------------------------------|
|--------------4-----------------------4----------|
|--2--2--2--2--2-----2--2--2--2--2--2--2-----2--2-|
|-------------------------------------------------|


   S  S  S  S  S  S  S  S  S  S  S  S  S  S  S  S
|-17p13----13-17p13----13-17p13----13-17p13----12-|
|-15-11-15-11-15-11-15-11-15-11-15-11-15-11-15-10-|
|-------12----------12----------12----------12----|
|-------------------------------------------------|
|-------------------------------------------------|
|-------------------------------------------------|
|  S  S  S  S  S  S  S  S  S  S  S  S  S  S  S  S
|
|  PM------|         PM------------|         PM----
|  S  S  S  S  E     S  S  S  S  S  S  E     S  S
|-------------------------------------------------|
|-------------------------------------------------|
|-------------------------------------------------|
|--------------3-----------------------3----------|
|--1--1--1--1--1-----1--1--1--1--1--1--1-----1--1-|
|-------------------------------------------------|


   S  S  S  S  S  S  S  S  S  S  S  S  S  S  S  S
|-16p12----12-16p12----12-16p12----12-16p12----12S=|
|-14-10-12-10-14-10-12-10-14-10-12-10-14-10-12-10S=|
|--------9-----------9-----------9-----------9-----|
|--------------------------------------------------|
|--------------------------------------------------|
|--------------------------------------------------|
|  S  S  S  S  S  S  S  S  S  S  S  S  S  S  S  S
|
|----------|         PM------------|         PM|
|  S  S  S  S  E     S  S  S  S  S  S  E     S  S
|--------------------------------------------------|
|--------------------------------------------------|
|--------------------------------------------------|
|--------------2-----------------------2-----------|
|--0--0--0--0--0-----0--0--0--0--0--0--0-----0--0--|
|--------------------------------------------------|


   S  S  S  S  S  S  S  S  S  S  S  S  S  S  S  S
|-19p15----15-19p15----15-19p15----15-19p15----14-|
|-17-13-17-13-17-13-17-13-17-13-17-13-17-13-17-12-|
|-------14----------14----------14----------14----|
|-------------------------------------------------|
|-------------------------------------------------|
|-------------------------------------------------|
|  S  S  S  S  S  S  S  S  S  S  S  S  S  S  S  S
|
|  PM------|         PM------------|         PM----
|  S  S  S  S  E     S  S  S  S  S  S  E     S  S
|-------------------------------------------------|
|-------------------------------------------------|
|-------------------------------------------------|
|--------------5-----------------------5----------|
|--3--3--3--3--3-----3--3--3--3--3--3--3-----3--3-|
|-------------------------------------------------|


   S  S  S  S  S  S  S  S  S  S  S  S  S  S  S  S
|-17p14----14-17p14----14-17p14----14-17p14----13-|
|-15-12-15-12-15-12-15-12-15-12-15-12-15-12-15-11-|
|-------12----------12----------12----------12----|
|-------------------------------------------------|
|-------------------------------------------------|
|-------------------------------------------------|
|  S  S  S  S  S  S  S  S  S  S  S  S  S  S  S  S
|
|----------|         PM------------|         PM|
|  S  S  S  S  E     S  S  S  S  S  S  E     S  S
|-------------------------------------------------|
|-------------------------------------------------|
|-------------------------------------------------|
|--------------4-----------------------4----------|
|--2--2--2--2--2-----2--2--2--2--2--2--2-----2--2-|
|-------------------------------------------------|


   S  S  S  S  S  S  S  S  S  S  S  S  S  S  S  S
|-17p13----13-17p13----13-17p13----13-17p13----12-|
|-15-11-15-11-15-11-15-11-15-11-15-11-15-11-15-10-|
|-------12----------12----------12----------12----|
|-------------------------------------------------|
|-------------------------------------------------|
|-------------------------------------------------|
|  S  S  S  S  S  S  S  S  S  S  S  S  S  S  S  S
|
|  PM------|         PM------------|         PM----
|  S  S  S  S  E     S  S  S  S  S  S  E     S  S
|-------------------------------------------------|
|-------------------------------------------------|
|-------------------------------------------------|
|--------------3-----------------------3----------|
|--1--1--1--1--1-----1--1--1--1--1--1--1-----1--1-|
|-------------------------------------------------|


   S  S  S  S  S  S  S  S  S  S  S  S  S  S  S  S
|-16p12----12-16p12----12-16p12----12-16p12----10-|
|-14-10-12-10-14-10-12-10-14-10-12-10-14-10-12-15-|
|--------9-----------9-----------9-----------9----|
|-------------------------------------------------|
|-------------------------------------------------|
|-------------------------------------------------|
|  S  S  S  S  S  S  S  S  S  S  S  S  S  S  S  S
|
|----------|         PM------------|         PM|
|  S  S  S  S  E     S  S  S  S  S  S  E     S  S
|-------------------------------------------------|
|-------------------------------------------------|
|-------------------------------------------------|
|--------------2-----------------------2----------|
|--0--0--0--0--0-----0--0--0--0--0--0--0-----8--8-|
|-------------------------------------------------|


   S  S  S S  S S  S S  S S  S S  S S  S  S
|-13p=8----8-13p8----8-13p8----8-13p8----10-|
|-18-13-10-8-10-8-10-8-10-8-10-8-10-8-10-10-|
|-------14---------9---------9---------9----|
|-------------------------------------------|
|-------------------------------------------|
|-------------------------------------------|
|  S  S  S S  S S  S S  S S  S S  S S  S  S
|
|  PM------|       PM----------|       PM----
|  S  S  S S  E    S S  S S  S S  E    S  S
|-------------------------------------------|
|-------------------------------------------|
|------------10------------------10---------|
|------------10------------------10---------|
|--8--8--8-8--8----8-8--8-8--8-8--8----8--8-|
|-------------------------------------------|


   S  S  S  S  S  S  S  a  S  S  S  S  S  S  S  S  S
|-15p10----10-15p10----10s13-18p13----13-18p13----15--|
|-12-10-12-10-12-10-12----13-15-13-15-13-15-13-15-15--|
|-------11----------11-------------14----------14-----|
|-----------------------------------------------------|
|-----------------------------------------------------|
|-----------------------------------------------------|
|  S  S  S  S  S  S  S     S  S  S  S  S  S  S  S  S
|
|----------|         PM---------------|         PM|
|  S  S  S  S  E     S     S  S  S  S  S  E     S  S
|-----------------------------------------------------|
|-----------------------------------------------------|
|-----------------------------------------3-----------|
|--------------5--------------------------3-----------|
|--------------5--------------1--1--1--1--1-----1--1--|
|--3--3--3--3--3-----3-----3--------------------------|


   S  S  S  S  S  S  S  S  S  S  S  S  S  S  S  S
|-20p15----15-20p15-20p15----15-20p15-20p15----15-|
|-20-15-17-15-20-15-20-15-17-15-20-15-20-15-17-15-|
|-------16----------------16----------------16----|
|-------------------------------------------------|
|-------------------------------------------------|
|-------------------------------------------------|
|  S  S  S  S  S  S  S  S  S  S  S  S  S  S  S  S
|
|  PM------|         PM------------|         PM----
|  S  S  S  S  E     S  S  S  S  S  S  E     S  S
|-------------------------------------------------|
|-------------------------------------------------|
|-------------------------------------------------|
|--------------5-----------------------5----------|
|--3--3--3--3--3-----3--3--3--3--3--3--3-----3--3-|
|-------------------------------------------------|


   S  S  S  S  S  S  S  S  S  S  S  S  S  S  S  S
|-19p15----15-19p15-19p15----15-19p15-19p15----15-|
|-19-15-17-15-19-15-19-15-17-15-19-15-19-15-17-15-|
|-------16----------------16----------------16----|
|-------------------------------------------------|
|-------------------------------------------------|
|-------------------------------------------------|
|  S  S  S  S  S  S  S  S  S  S  S  S  S  S  S  S
|
|----------|         PM------------|         PM|
|  S  S  S  S  E     S  S  S  S  S  S  E     S  S
|-------------------------------------------------|
|-------------------------------------------------|
|-------------------------------------------------|
|--------------4-----------------------4----------|
|--2--2--2--2--2-----2--2--2--2--2--2--2-----2--2-|
|-------------------------------------------------|


   S  S  S  S  S  S  S  S  S  S  S  S  S  S  S  S
|-18p15----15-18p15-18p15----15-18p15-18p15----15-|
|-18-15-17-15-18-15-18-15-17-15-18-15-18-15-17-15-|
|-------16----------------16----------------16----|
|-------------------------------------------------|
|-------------------------------------------------|
|-------------------------------------------------|
|  S  S  S  S  S  S  S  S  S  S  S  S  S  S  S  S
|
|  PM------|         PM------------|         PM----
|  S  S  S  S  E     S  S  S  S  S  S  E     S  S
|-------------------------------------------------|
|-------------------------------------------------|
|-------------------------------------------------|
|--------------3-----------------------3----------|
|--1--1--1--1--1-----1--1--1--1--1--1--1-----1--1-|
|-------------------------------------------------|


   S  S  S  S  S  S  S  S  S  S  S  S  S  S  E
|-17p15----15-17p15-17p15----15-17p15-17p15-17---|
|-17-15-17-15-17-15-17-15-17-15-17-15-17-15-17---|
|-------16----------------16----------------------|
|-------------------------------------------------|
|-------------------------------------------------|
|-------------------------------------------------|
|  S  S  S  S  S  S  S  S  S  S  S  S  S  S  E
|
|----------|         PM------------|         PM-|
|  S  S  S  S  E     S  S  S  S  S  S  E     S  S
|-------------------------------------------------|
|-------------------------------------------------|
|-------------------------------------------------|
|--------------2-----------------------2----------|
|--0--0--0--0--0-----0--0--0--0--0--0--0----------|
|--------------------------------------------1--1-|


   S S  S S  S S  S S  S S  S S  S S  S S
|-13p8----8-13p8-13p8----8-13p8-13p8----8-|
|-10-8-10-8-10-8-10-8-10-8-10-8-10-8-10-8-|
|-------9--------------9--------------9---|
|-----------------------------------------|
|-----------------------------------------|
|-----------------------------------------|
|  S S  S S  S S  S S  S S  S S  S S  S S
|
|  PM-----|       PM----------|       PM---
|  S S  S S  E    S S  S S  S S  E    S S
|-----------------------------------------|
|-----------------------------------------|
|-----------------------------------------|
|-----------------------------------------|
|------------3-------------------3--------|
|--1-1--1-1--1----1-1--1-1--1-1--1----1-1-|


   S  S  S  S  S  S  S  S  S  S  S  S  S  S  S  S
|-15p10----10-15p10----12-18p13----13-18p13----13-|
|-12-10-12-10-12-10-12-10-15-13-15-13-15-13-15-13-|
|-------11----------11----------14----------14----|
|-------------------------------------------------|
|-------------------------------------------------|
|-------------------------------------------------|
|  S  S  S  S  S  S  S  S  S  S  S  S  S  S  S  S
|
|----------|         PM---------------|
|  S  S  S  S  E     S  S  S  S  S  S  E     E
|-------------------------------------------------|
|-------------------------------------------------|
|-------------------------------------------------|
|--------------5----------------------------10----|
|--------------5----------------------------10----|
|--3--3--3--3--3-----3--3--6--6--6--6--6-----8----|


   E     E     E     E    H         W
|-12----13----12----13------------|-----------------------------|
|-15b17-16b18-15b17-16b18---------|-----------------------------|
|---------------------------------|-----------------------------|
|---------------------------------|-----------------------------|
|---------------------------------|-----------------------------|
|---------------------------------|-----------------------------|
|
|                    PM     PM      PM----|   PM--------|
|  E     E     E     E    E E E E   S S S S E S S S S S S E S S
|---------------------------------|-----------------------------|
|---------------------------------|-----------------------------|
|--9-----8-----7----------5---4---|-----------------------------|
|--9-----8-----7----------5---4-5-|---------5-------------5-----|
|--7-----6-----5----------3---2-5-|---------5-------------5-----|
|--------------------6----3-4-2-3-|-0-0-0-0---0-0-0-0-0-0---0-0-|


    Gtrs I, II
          PM  PM      PM----|   PM--------|
    E E E E E E E E   S S S S E S S S S S S E S S  3x
||------------------|------------------------------||
||o-----------------|-----------------------------o||
||--9-8-7---5---4---|------------------------------||
||--9-8-7---5---4-5-|---------5-------------5------||
||o-7-6-5---3---2-5-|---------5-------------5-----o||
||--------6-3-4-2-3-|-0-0-0-0---0-0-0-0-0-0---0-0--||


  PM----|   PM--------|   PM---
  S S S S E S S S S S S E S S
|-----------------------------|
|-----------------------------|
|-----------------------------|
|---------5-------------5-----|
|-3-3-3-3-3-3-3-3-3-3-3-3-3-3-|
|-----------------------------|


 -------|   PM--------|   PM----------|   PM--------|   PM|
  S S S S E S S S S S S E S S   S S S S E S S S S S S E S S
|-----------------------------|-----------------------------|
|-----------------------------|-----------------------------|
|-----------------------------|-----------------------------|
|---------4-------------4-----|---------3-------------3-----|
|-2-2-2-2-2-2-2-2-2-2-2-2-2-2-|-1-1-1-1-1-1-1-1-1-1-1-1-1-1-|
|-----------------------------|-----------------------------|


  PM----|   PM--------|   PM---
  S S S S E S S S S S S E S S
|-----------------------------|
|-----------------------------|
|-----------------------------|
|---------2-------------2-----|
|-0-0-0-0-0-0-0-0-0-0-0-0-----|
|-------------------------1-1-|


 -------|   PM--------|   PM----------|   PM--------|   PM|
  S S S S E S S S S S S E S S   S S S S E S S S S S S E S S
|-----------------------------|-----------------------------|
|-----------------------------|-----------------------------|
|-----------------------------|-----------------------------|
|-----------------------------|-----------------------------|
|---------3-------------3-----|---------5-------------8-----|
|-1-1-1-1-1-1-1-1-1-1-1-1-1-1-|-3-3-3-3-3-3-3S6-6-6-6-6-6-6-|


          PM  PM      PM----|   PM--------|
    E E E E E E E E   S S S S E S S S S S S E S S  3x
||------------------|------------------------------||
||o-----------------|-----------------------------o||
||--9-8-7---5---4---|------------------------------||
||--9-8-7---5---4-5-|---------5-------------5------||
||o-7-6-5---3---2-5-|---------5-------------5-----o||
||--------6-3-4-2-3-|-0-0-0-0---0-0-0-0-0-0---0-0--||


 2/4       4/4
        PM
  E E E E   W          +W           +W           +H     +E  E  Q
|---------|----------|------------|------------|--------------------|
|---------|----------|------------|------------|--------------------|
|---------|----------|------------|------------|--------------------|
|-9S8S7---|-5--------|-(5)--------|-(5)--------|-(5)----(5)---------|
|-7S6S5-0-|-3--------|-(3)--------|-(3)--------|-(3)----(3)-0-------|
|---------|----------|------------|------------|--------------/x---|


                                                 D.S. al Coda
                                                 3/4
        PM|     PM----|         PM|     PM|
    a E E E a E E E E E 11x a E E E a E E E E E   E E Q  E E
||-----------------------||---------------------|-------------||
||o---------------------o||---------------------|-------------||
||-----------------------||---------------------|-------------||
||-----------------------||-----------------5-4-|-3------5-4--||
||o-7s8-----7s8---------o||-7s8-----7s8-----3-2-|-1------3-2--||
||--5s6-0-0-5s6-0-0-0-0--||-5s6-0-0-5s6-0-0-----|-------------||


  &
 4/4
  PM------------|           PM
  E E E E E E E E     Q  Q  E E E E  4x
|-----------------||-----------------||
|-----------------||o---------------o||
|-----------------||-----------------||
|-2-2-2-2-2-2-2-2-||----------2---5--||
|-0-0-0-0-0-0-0-0-||o-4--2--4-0-4-3-o||
|-----------------||--2--0--2---2----||


          PM                           PM
    Q  Q  E E E E   +W           Q  Q  E E E E   +W
||----------------|------------|---------------|---------||
||o---------------|------------|---------------|--------o||
||----------------|------------|---------------|---------||
||----------2---5-|-(5)--------|---------2-----|---------||
||o-4--2--4-0-4-3-|-(3)--------|-4--2--4-0-4-2-|-(2)----o||
||--2--0--2---2---|------------|-2--0--2---2-0-|-(0)-----||


          PM            PM|   PM|   PM|
    Q  Q  E E E E   +E  S S E S S E S S S E.
||----------------|--------------------------|
||o---------------|--------------------------|
||----------------|--------------------------|
||----------2---5-|-(5)-----5-----5-----5s4--|
||o-4--2--4-0-4-3-|-(3)-3-3-3-3-3-3-3-3-3s2--|
||--2--0--2---2---|--------------------------|


        PM               PM------------|
  Q  Q  E E E E   +H     S S S S S S S S
|---------------|--------------------------||
|---------------|-------------------------o||
|---------------|--------------------------||
|---------2-----|--------------------------||
|-4--2--4-0-4-2-|-(2)---------------------o||
|-2--0--2---2-0-|-(0)----0-0-0-0-0-0-0-0---||


    Gtrs I, II
    Q   Q  Q    Q    Q   Q  E E Q
||-----------------|-----------------||
||o----------------|----------------o||
||-----------------|-----------------||
||-----------------|-----------------||
||o-2------2-------|-2------2-2-2---o||
||--0------0-------|-0------0-0-0----||
|
|   Gtrs III, IV
|       ~       ~~       ~~
|   E E Q  E  E Q    E E Q  E E Q
||----7-8-------7--|-----------------||
||o---7-8----10----|-----7----8-----o||
||------------7-9--|---9--------9---||
||-----------------|---7-9-----------||
||o----------------|----------5-7--o||
||-----------------|-----------------||
    E E Q  E  E Q    E E Q  E E Q


Duration Legend
---------------
W - whole; H - half; Q - quarter; E - 8th; S - 16th; T - 32nd; X - 64th; a - acciaccatura
+ - note tied to previous; . - note dotted; .. - note double dotted
Uncapitalized letters represent notes that are staccato (1/2 duration)
Irregular groupings are notated above the duration line
Duration letters will always appear directly above the note/fret number it represents the
duration for.  Duration letters with no fret number below them represent rests.  Multi-
bar rests are notated in the form Wxn, where n is the number of bars to rest for.  Low
melody durations appear below the staff

Tablature Legend
----------------
 h   - hammer-on
 p   - pull-off
 b   - bend
 pb  - pre-bend
 r   - bend release (if no number after the r, then release immediately)
 /  - slide into or out of (from/to "nowhere")
 s   - legato slide
 S   - shift slide
  - natural harmonic
[n]  - artificial harmonic
n(n) - tapped harmonic
 ~   - vibrato
 tr  - trill
 T   - tap
 TP  - trem. picking
 PM  - palm muting
n/  - tremolo bar dip; n = amount to dip
 n  - tremolo bar down
 n/  - tremolo bar up
/n  - tremolo bar inverted dip
 =   - hold bend; also acts as connecting device for hammers/pulls
 <>  - volume swell (louder/softer)
 x   - on rhythm slash represents muted slash
 o   - on rhythm slash represents single note slash

Misc Legend
-----------
 |  - bar
||  - double bar
||o - repeat start
o|| - repeat end
*|  - double bar (ending)
 :  - bar (freetime)
 $  - Segno
 &  - Coda
Tempo markers -  = BPM(8/16=s8/s16), where s8 = swing 8ths, s16 = swing 16ths


This took freakin ages to write, aprox. 12-14 hours!
comments
print report bad tab
3 comments total.
0 reply
Doom_The_Sky wrote on February 21 2009, 11:39 am

*****
Fuck Yeah!!!!!!!!!!!!!!!!!!!
Finally the right tab for Ride the Lightning!
*****

0 reply
andrew10134 wrote on April 20 2010, 06:10 pm

this was a powertab right and you turned it into text
if im rong tell me

0 reply
andrew10134 wrote on February 16 2011, 10:08 pm

But still a good as ****en hell tab

I want to post or [tab]
guest
You may want to rate the tab now too:
select rating
Please do not post tabs as comments. Select "correction" instead!