Oops, an error
Loading. Please wait.

Ron Mcgovneys 82 Garage Demo Tab

1,892 views 1 this week
1 commentread comment
1 2 3 4 5
excellent!
x 2
Autoscroll
+/-
esc
set tempo
stop
Contributor
Difficulty
advanced
Hey! There's an official Ultimate Guitar app which is ideal
for learning songs when you're away from computer. Get the app
WARNING: You are trying to view
                                    content from Ultimate-Guitar.com
                                    in an unauthorized application,
                                    which is prohibited.

                                    Please use an official Ultimate
                                    Guitar Tabs application for iPhone,
                                    iPad or Android to access legitimate
                                    chords, guitar, bass, and drum tabs
                                    from Ultimate-Guitar.com database.

                                    Type "ultimate guitar tabs" in Apple
                                    App Store's or Android Market's
                                    search to find the application.
1.	"Hit the Lights" - 4:19
2.	"Jump in the Fire" - 4:25
3.	"Killing Time" - 2:36
4.	"Let It Loose" - 3:10
5.	"Sucking My Love" - 6:43
6.	"The Prince" - 5:00
7.	"Am I Evil?" - 7:43
8.	"Helpless" - 6:13
1. Hit the lights

Line up

James Hetfield, Lloyd grant, Lars Ulrich, Ron Mcgovney.

E||------------------|----------------------|------------|------------------|
B||------------------|----------------------|------------|------------------|
G||------------------|----------------------|------------|------------------|
D||--2---------------|--2----2----2----2----|--2----2----|--2---------------|
A||--2---------------|--2----2----2----2----|--2----2----|--2---------------|
E||--0---------------|--0----0----0----0----|--0----0----|--0---------------|
//
|------------------|-----------------|------------------|
|------------------|-----------------|------------------|
|------------------|-----------------|------------------|
|------------------|-----------------|------------------|
|--4---------------|-----------------|--x\--------------|
|--2---------------|-----------------|--x\--------------|
//
|-----------------------------|-------------------------------|
|-----------------------------|-------------------------------|
|-----------------5--7-7---0--|-------------------------------|
|--5--------------5--7-7---0--|--5--------------7p5---5-------|
|--0--0-0-0-0-0-0-------------|--0--0-0-0-0-0-0-----7----6-7--|
|-----------------------------|-------------------------------|
\
|------------------------------|----------------------------|
|------------------------------|----------------------------|
|-----------------5--7-7--0-0--|--5-------------------7b----|
|--5--------------5--7-7--0-0--|--5-------------------------|
|--0--0-0-0-0-0-0--------------|-----0-0-0-0-0-0-6h7--------|
|------------------------------|----------------------------|

|-----------------------------|-------------------------------|
|-----------------------------|-------------------------------|
|-----------------5--7-7---0--|--5----------------------------|
|--5--------------5--7-7---0--|--5--------------7p5---5-------|
|--0--0-0-0-0-0-0-------------|-----0-0-0-0-0-0-----7----6-7--|
|-----------------------------|-------------------------------|

|------------------------------|----------------------------------|
|------------------------------|----------------------------------|
|-----------------5--7-7--0-0--|----------------------------------|
|--5--------------5--7-7--0-0--|--5-------------------------------|
|--0--0-0-0-0-0-0--------------|--0--0-0-0-0-0--------------------|
|------------------------------|----------------------------------|

|------------------------------|-------------------------------|
|------------------------------|-------------------------------|
|-----------------5--7-7--0-0--|-------------------------------|
|--5--------------5--7-7--0-0--|--5--------------7p5---5-------|
|--0--0-0-0-0-0-0--------------|--0--0-0-0-0-0-0-----7----6-7--|
|------------------------------|-------------------------------|

|------------------------------|-------------------------------|
|------------------------------|-------------------------------|
|-----------------5--7-7--0-0--|--5----------------------------|
|--5--------------5--7-7--0-0--|--5--------------7p5---5-------|
|--0--0-0-0-0-0-0--------------|-----0-0-0-0-0-0-----7----6-7--|
|------------------------------|-------------------------------|
Verses
|----------------------|-----------------------|------------------------------|
|----------------------|-----------------------|------------------------------|
|--7--7----------------|--7--7-----------------|-----------------5--7-7--0-0--|
|--7--7------5--5------|--7--7-----------------|--5--------------5--7-7--0-0--|
|--5--5------5--5------|--5--5------3---2------|--0--0-0-0-0-0-0--------------|
|------------3--3------|--------------------3--|------------------------------|
No life till leather...
|-------------------------------|------------------------------|
|-------------------------------|------------------------------|
|-------------------------------|-----------------5--7-7--0-0--|
|--5--------------7p5---5-------|--5--------------5--7-7--0-0--|
|--0--0-0-0-0-0-0-----7----6-7--|--0--0-0-0-0-0-0--------------|
|-------------------------------|------------------------------|


|-------------------------------|----------------------|-----------------------|
|-------------------------------|----------------------|-----------------------|
|--5----------------------------|--7--7----------------|--7--7-----------------|
|--5--------------7p5---5-------|--7--7------5--5------|--7--7-----------------|
|-----0-0-0-0-0-0-----7----6-7--|--5--5------5--5------|--5--5------3---2------|
|-------------------------------|------------3--3------|--------------------3--|

------------------------------|-------------------------------|
------------------------------|-------------------------------|
-----------------5--7-7--0-0--|-------------------------------|
--5--------------5--7-7--0-0--|--5--------------7p5---5-------|
--0--0-0-0-0-0-0--------------|--0--0-0-0-0-0-0-----7----6-7--|
------------------------------|-------------------------------|

|--------------------|--------------------------------|-----------------------|
|--------------------|--------------------------------|-----------------------|
|--------------------|--------------------------------|-----------------------|
|-----9--------------|--------------------------------|--2----2------2---2----|
|-----7--------------|-----------------3----2---------|--0----0------0---0----|
|--0-----------------|--3----2----3--------------3----|------------3----------|

|---------------------|-----------------------|---------------------|
|---------------------|-----------------------|---------------------|
|---------------------|-----------------------|---------------------|
|----2---2----5-------|--2----2------2---2----|----2---2----5-------|
|----0---0----3---5---|--0----0------0---0----|----0---0----3---5---|
|--3--------------3---|------------3----------|--3--------------3---|

|-----------------------|---------------------|-----------------------|
|-----------------------|---------------------|-----------------------|
|-----------------------|---------------------|-----------------------|
|--2----2------2---2----|----2---2----5-------|--2----2------2---2----|
|--0----0------0---0----|----0---0----3---5---|--0----0------0---0----|
|------------3----------|--3--------------3---|------------3----------|

|-----------------|------------------------------|
|-----------------|------------------------------|
|-----------------|-----------------5--7-7--0-0--|
|-----------------|--5--------------5--7-7--0-0--|
|-----------------|--0--0-0-0-0-0-0--------------|
|-----------------|------------------------------|

|-------------------------------|------------------------------|
|-------------------------------|------------------------------|
|-------------------------------|-----------------5--7-7--0-0--|
|--5--------------7p5---5-------|--5--------------5--7-7--0-0--|
|--0--0-0-0-0-0-0-----7----6-7--|--0--0-0-0-0-0-0--------------|
|-------------------------------|------------------------------|

|-------------------------------|----------------------|-----------------------|
|-------------------------------|----------------------|-----------------------|
|--5----------------------------|--7--7----------------|--7--7-----------------|
|--5--------------7p5---5-------|--7--7------5--5------|--7--7-----------------|
|-----0-0-0-0-0-0-----7----6-7--|--5--5------5--5------|--5--5------3---2------|
|-------------------------------|------------3--3------|--------------------3--|

|------------------------------|-------------------------------|
|------------------------------|-------------------------------|
|-----------------5--7-7--0-0--|-------------------------------|
|--5--------------5--7-7--0-0--|--5--------------7p5---5-------|
|--0--0-0-0-0-0-0--------------|--0--0-0-0-0-0-0-----7----6-7--|
|------------------------------|-------------------------------|

|------------------------------|-------------------------------|
|------------------------------|-------------------------------|
|-----------------5--7-7--0-0--|--5----------------------------|
|--5--------------5--7-7--0-0--|--5--------------7p5---5-------|
|--0--0-0-0-0-0-0--------------|-----0-0-0-0-0-0-----7----6-7--|
|------------------------------|-------------------------------|


|----------------------|-----------------------|------------------------------|
|----------------------|-----------------------|------------------------------|
|--7--7----------------|--7--7-----------------|-----------------5--7-7--0-0--|
|--7--7------5--5------|--7--7-----------------|--5--------------5--7-7--0-0--|
|--5--5------5--5------|--5--5------3---2------|--0--0-0-0-0-0-0--------------|
|------------3--3------|--------------------3--|------------------------------|

|-------------------------------|--------------------|
|-------------------------------|--------------------|
|-------------------------------|--------------------|
|--5--------------7p5---5-------|-----9--------------|
|--0--0-0-0-0-0-0-----7----6-7--|-----7--------------|
|-------------------------------|--0-----------------|

|--------------------------------|-----------------------|---------------------|
|--------------------------------|-----------------------|---------------------|
|--------------------------------|-----------------------|---------------------|
|--------------------------------|--2----2------2---2----|----2---2----5-------|
|-----------------3----2---------|--0----0------0---0----|----0---0----3---5---|
|--3----2----3--------------3----|------------3----------|--3--------------3---|

|-----------------------|---------------------|-----------------------|
|-----------------------|---------------------|-----------------------|
|-----------------------|---------------------|-----------------------|
|--2----2------2---2----|----2---2----5-------|--2----2------2---2----|
|--0----0------0---0----|----0---0----3---5---|--0----0------0---0----|
|------------3----------|--3--------------3---|------------3----------|

|---------------------|-----------------------|----------------|
|---------------------|-----------------------|----------------|
|---------------------|-----------------------|----------------|
|----2---2----5-------|--2----2------2---2----|----------------|
|----0---0----3---5---|--0----0------0---0----|----------------|
|--3--------------3---|------------3----------|----------------|

|------------------------------|-------------------------------|
|------------------------------|-------------------------------|
|-----------------5--7-7--0-0--|-------------------------------|
|--5--------------5--7-7--0-0--|--5--------------7p5---5-------|
|--0--0-0-0-0-0-0--------------|--0--0-0-0-0-0-0-----7----6-7--|
|------------------------------|-------------------------------|

|------------------------------|-------------------------------|
|------------------------------|-------------------------------|
|-----------------5--7-7--0-0--|--5----------------------------|
|--5--------------5--7-7--0-0--|--5--------------7p5---5-------|
|--0--0-0-0-0-0-0--------------|-----0-0-0-0-0-0-----7----6-7--|
|------------------------------|-------------------------------|

|----------------------|-----------------------|------------------------------|
|----------------------|-----------------------|------------------------------|
|--7--7----------------|--7--7-----------------|-----------------5--7-7--0-0--|
|--7--7------5--5------|--7--7-----------------|--5--------------5--7-7--0-0--|
|--5--5------5--5------|--5--5------3---2------|--0--0-0-0-0-0-0--------------|
|------------3--3------|--------------------3--|------------------------------|

|-------------------------------|------------------------------|
|-------------------------------|------------------------------|
|-------------------------------|-----------------5--7-7--0-0--|
|--5--------------7p5---5-------|--5--------------5--7-7--0-0--|
|--0--0-0-0-0-0-0-----7----6-7--|--0--0-0-0-0-0-0--------------|
|-------------------------------|------------------------------|

|-------------------------------|----------------------|-----------------------|
|-------------------------------|----------------------|-----------------------|
|--5----------------------------|--7--7----------------|--7--7-----------------|
|--5--------------7p5---5-------|--7--7------5--5------|--7--7-----------------|
|-----0-0-0-0-0-0-----7----6-7--|--5--5------5--5------|--5--5------3---2------|
|-------------------------------|------------3--3------|--------------------3--|


|------------------------------|-------------------------------|
|------------------------------|-------------------------------|
|-----------------5--7-7--0-0--|-------------------------------|
|--5--------------5--7-7--0-0--|--5--------------7p5---5-------|
|--0--0-0-0-0-0-0--------------|--0--0-0-0-0-0-0-----7----6-7--|
|------------------------------|-------------------------------|

|--------------------|--------------------------------|-----------------------|
|--------------------|--------------------------------|-----------------------|
|--------------------|--------------------------------|-----------------------|
|-----9--------------|--------------------------------|--2----2------2---2----|
|-----7--------------|-----------------3----2---------|--0----0------0---0----|
|--0-----------------|--3----2----3--------------3----|------------3----------|

|---------------------|-----------------------|---------------------|
|---------------------|-----------------------|---------------------|
|---------------------|-----------------------|---------------------|
|----2---2----5-------|--2----2------2---2----|----2---2----5-------|
|----0---0----3---5---|--0----0------0---0----|----0---0----3---5---|
|--3--------------3---|------------3----------|--3--------------3---|

|-----------------------|---------------------|-----------------------|
|-----------------------|---------------------|-----------------------|
|-----------------------|---------------------|-----------------------|
|--2----2------2---2----|----2---2----5-------|--2----2------2---2----|
|--0----0------0---0----|----0---0----3---5---|--0----0------0---0----|
|------------3----------|--3--------------3---|------------3----------|

|---------------------|--------------------||------------------------|
|---------------------|--------------------||------------------------|
|---------------------|-----------4--------||*------------------5----|
|----2---2----5-------|--2--------5--------||*--7---7---7---7---5----|
|----0---0----3---5---|--0--------5--------||---0---0---0---0--------|
|--3--------------3---|-----------3--------||------------------------|
3x
|-----------------------|-----------------------|-----------------------||
|-----------------------|-----------------------|-----------------------||
|------------------7----|------------------5----|----------------------*||
|--7---7---7---7---7----|--7---7---7---7---5----|--7---5---------------*||
|--0---0---0---0--------|--0---0---0---0--------|----------7--6--5------||
|-----------------------|-----------------------|-------------------8---||

|-----------------------|-----------------------|-----------------------|
|-----------------------|-----------------------|-----------------------|
|--4---4---4---4---7----|--4---4---4---4---9----|--4---4---4---4---7----|
|--4---4---4---4---7----|--4---4---4---4---9----|--4---4---4---4---7----|
|--2---2---2---2---5----|--2---2---2---2---7----|--2---2---2---2---5----|
|-----------------------|-----------------------|-----------------------|

|-----------------------|-----------------------|-----------------------|
|-----------------------|-----------------------|-----------------------|
|-----------------------|--4---4---4---4---7----|--4---4---4---4---9----|
|--9---7----------------|--4---4---4---4---7----|--4---4---4---4---9----|
|----------9--8--7------|--2---2---2---2---5----|--2---2---2---2---7----|
|-------------------10--|-----------------------|-----------------------|

|-----------------------|-----------------------|-----------------------|
|-----------------------|-----------------------|-----------------------|
|--4---4---4---4---7----|-----------------------|--4---4---4---4---7----|
|--4---4---4---4---7----|--9---7----------------|--4---4---4---4---7----|
|--2---2---2---2---5----|----------9--8--7------|--2---2---2---2---5----|
|-----------------------|-------------------10--|-----------------------|

|-----------------------|-----------------------|-----------------------|
|-----------------------|-----------------------|-----------------------|
|--4---4---4---4---9----|--4---4---4---4---7----|-----------------------|
|--4---4---4---4---9----|--4---4---4---4---7----|--9---7----------------|
|--2---2---2---2---7----|--2---2---2---2---5----|----------9--8--7------|
|-----------------------|-----------------------|-------------------10--|


|-----------------------|-----------------------|-----------------------|
|-----------------------|-----------------------|-----------------------|
|--4---4---4---4---7----|--4---4---4---4---9----|--4---4---4---4---7----|
|--4---4---4---4---7----|--4---4---4---4---9----|--4---4---4---4---7----|
|--2---2---2---2---5----|--2---2---2---2---7----|--2---2---2---2---5----|
|-----------------------|-----------------------|-----------------------|

|-----------------------|-----------------------|-----------------------|
|-----------------------|-----------------------|-----------------------|
|-----------------------|--4---4---4---4---7----|--4---4---4---4---9----|
|--9---7----------------|--4---4---4---4---7----|--4---4---4---4---9----|
|----------9--8--7------|--2---2---2---2---5----|--2---2---2---2---7----|
|-------------------10--|-----------------------|-----------------------|

|-----------------------|-----------------------|-----------------------|
|-----------------------|-----------------------|-----------------------|
|--4---4---4---4---7----|-----------------------|--4---4---4---4---7----|
|--4---4---4---4---7----|--9---7----------------|--4---4---4---4---7----|
|--2---2---2---2---5----|----------9--8--7------|--2---2---2---2---5----|
|-----------------------|-------------------10--|-----------------------|

|-----------------------|-----------------------|-----------------------|
|-----------------------|-----------------------|-----------------------|
|--4---4---4---4---9----|--4---4---4---4---7----|-----------------------|
|--4---4---4---4---9----|--4---4---4---4---7----|--9---7----------------|
|--2---2---2---2---7----|--2---2---2---2---5----|----------9--8--7------|
|-----------------------|-----------------------|-------------------10--|

|-----------------------|-----------------------|-----------------------|
|-----------------------|-----------------------|-----------------------|
|--4---4---4---4---7----|--4---4---4---4---9----|--4---4---4---4---7----|
|--4---4---4---4---7----|--4---4---4---4---9----|--4---4---4---4---7----|
|--2---2---2---2---5----|--2---2---2---2---7----|--2---2---2---2---5----|
|-----------------------|-----------------------|-----------------------|

|-----------------------|-----------------------|-----------------------|
|-----------------------|-----------------------|-----------------------|
|-----------------------|--4---4---4---4---7----|--4---4---4---4---9----|
|--9---7----------------|--4---4---4---4---7----|--4---4---4---4---9----|
|----------9--8--7------|--2---2---2---2---5----|--2---2---2---2---7----|
|-------------------10--|-----------------------|-----------------------|

|-----------------------|-----------------------|-----------------------|
|-----------------------|-----------------------|-----------------------|
|--4---4---4---4---7----|-----------------------|------------------5----|
|--4---4---4---4---7----|--9---7----------------|--7---7---7---7---5----|
|--2---2---2---2---5----|----------9--8--7------|--7---7---7---7---3----|
|-----------------------|-------------------10--|--5---5---5---5--------|

|-----------------------|-----------------------|----------------------|
|-----------------------|-----------------------|----------------------|
|------------------7----|------------------5----|----------------------|
|--7---7---7---7---7----|--7---7---7---7---5----|--7---5---------------|
|--7---7---7---7---5----|--7---7---7---7---3----|----------7--6--5-----|
|--5---5---5---5--------|--5---5---5---5--------|-------------------8--|

|-----------------------|-----------------------|-----------------------|
|-----------------------|-----------------------|-----------------------|
|------------------5----|------------------7----|------------------5----|
|--7---7---7---7---5----|--7---7---7---7---7----|--7---7---7---7---5----|
|--7---7---7---7---3----|--7---7---7---7---5----|--7---7---7---7---3----|
|--5---5---5---5--------|--5---5---5---5--------|--5---5---5---5--------|

|----------------------|----------------------|----------------------|
|----------------------|----------------------|----------------------|
|----------------------|----------------------|----------------------|
|--7---5---------------|--7---5---------------|--7---5---------------|
|----------7--6--5-----|----------7--6--5-----|----------7--6--5-----|
|-------------------8--|-------------------8--|-------------------8--|


|------------------------------------------------------------------|
|------------------------------------------------------------------|
|--2-2-2-2-2-2-2-2-2-2-2-2-2-2-2-2-2-2-2-2-2-2-2-2-2-2-2-2-2-2-2-2-|
|--2-2-2-2-2-2-2-2-2-2-2-2-2-2-2-2-2-2-2-2-2-2-2-2-2-2-2-2-2-2-2-2-|
|--0-0-0-0-0-0-0-0-0-0-0-0-0-0-0-0-0-0-0-0-0-0-0-0-0-0-0-0-0-0-0-0-|
|------------------------------------------------------------------|

|------------------------------------------------------------------|
|------------------------------------------------------------------|
|--2-2-2-2-2-2-2-2-2-2-2-2-2-2-2-2-2-2-2-2-2-2-2-2-2-2-2-2-2-2-2-2-|
|--2-2-2-2-2-2-2-2-2-2-2-2-2-2-2-2-2-2-2-2-2-2-2-2-2-2-2-2-2-2-2-2-|
|--0-0-0-0-0-0-0-0-0-0-0-0-0-0-0-0-0-0-0-0-0-0-0-0-0-0-0-0-0-0-0-0-|
|------------------------------------------------------------------|

|-----------------|----------------|-------------------||
|-----------------|----------------|-------------------||
|--2--------------|----------------|--2----2-----------||
|--2--------------|----------------|--2----2-----------||
|--0--------------|----------------|--0----0-----------||
|-----------------|----------------|-------------------||
Guitar 2:
First little solo:
|-----17----------------------17-------20p17-------|
|--------20p17----17-20p17-------20p17-------20-17-|
|--19b---------19b---------19b---------------------|
|--------------------------------------------------|
|--------------------------------------------------|
|--------------------------------------------------|

|--------------20p17-------------------------------|
|-----17-20p17-------20-17\16-17-20p17-------------|
|--19b---------------------------------19-17----17-|
|--------------------------------------------19----|
|--------------------------------------------------|
|--------------------------------------------------|

|--------------------------------------20b---|
|-----17-20p17----17-20p17----17-20p17-------|
|--19b---------19b---------19b---------------|
|--------------------------------------------|
|--------------------------------------------|
|--------------------------------------------|

|--20p17-17-17-20p17-------------------------|----------------|
|--------------------20-17----17-20p17-------|----------------|
|--------------------------19b---------19b---|----------------|
|--------------------------------------------|----------------|
|--------------------------------------------|----------------|
|--------------------------------------------|----------------|
Second little solo:
|------17-----17-----17------17------17--|
|--20b----20b----20b-----20b-----20b-----|
|----------------------------------------|
|----------------------------------------|
|----------------------------------------|
|----------------------------------------|

|-----17-----17------17------17-----17----17-|
|--------20b-----20b-----20b-----------20b---|
|--19b--------------------------19b----------|
|--------------------------------------------|
|--------------------------------------------|
|--------------------------------------------|

|--20p17----17-20p17-------------------------------|
|--------20----------20-17-17-17-20p17-19----------|
|--------------------------------------19-17----17-|
|--------------------------------------------19----|
|--------------------------------------------------|
|--------------------------------------------------|


|----------------------------------------|----------------|----------------|
|----------------------------------------|----------------|----------------|
|--19b17---------------------------------|----------------|----------------|
|--------19-17----17-19-17---------------|----------------|----------------|
|--------------19----------19--17--15----|----------------|----------------|
|----------------------------------------|----------------|----------------|
Main solo (w/ wah pedal)
|-----7--------7------------------------|--------------------------------------|
|------10p7------10p7---7-10p7---7-10p7-|----7-10p7---7-10p7---7-10p7---7-10p7-|
|--9b-------9b--------9b-------9b-------|--9b-------9b-------9b-------9b-------|
|---------------------------------------|--------------------------------------|
|---------------------------------------|--------------------------------------|
|---------------------------------------|--------------------------------------|

|--10p7-9p7---7-9p7-10p7-9p7---7-10p7-|-----------------7--7--7--|
|-----------9----------------9--------|--10b12----r10------------|
|-------------------------------------|--------------------------|
|-------------------------------------|--------------------------|
|-------------------------------------|--------------------------|
|-------------------------------------|--------------------------|

|--7-10p7----7-10p7-----------------------|-------------------------------|
|---------10--------10-7-7-7-10-7---------|-------------------------------|
|---------------------------------9-7-7-7-|--9p7--------------------------|
|-----------------------------------------|------9-7---7-9-7--------------|
|-----------------------------------------|----------9-------9-7-5--5-----|
|-----------------------------------------|----------------------------7--|

|---------------------------------|------------------------|
|---------------------------------|--------------------19--|
|-----------------------------7---|--9b--9b--9b-9b-21b-----|
|-------------7-7-9p7-7-7-7-9---9-|------------------------|
|------5--7/9---------------------|------------------------|
|--5h7----------------------------|------------------------|

|----------------------------------------------|
|-------19----19----19-22-19----19-22p19-24p19-|
|---21b----21b---21b---------21----------------|
|----------------------------------------------|
|----------------------------------------------|
|----------------------------------------------|

|--------------------------------------------------|
|--22-19----19-22p19-24p19-22-19----19-22p19-24p19-|
|--------21----------------------21----------------|
|--------------------------------------------------|
|--------------------------------------------------|
|--------------------------------------------------|

|--------------------------------------------------|
|--22-19----19-22p19-------------17----------------|
|--------21----------21-18\16-18----18-16-14-14-14-|
|--------------------------------------------------|
|--------------------------------------------------|
|--------------------------------------------------|

|------------------------------|--22r-------22b---21r-19----19-|
|--17---17---17--17~-17--17-14-|-------------------------22----|
|--16b--16b--16b-16b-16b-16-14-|-------------------------------|
|------------------------------|-------------------------------|
|------------------------------|-------------------------------|
|------------------------------|-------------------------------|

|--22p19-------------------------------------------|
|--------22-19----19-22p19-------------------------|
|--------------21b---------21-19----19-21p19-------|
|--------------------------------21----------21-19-|
|--------------------------------------------------|
|--------------------------------------------------|


|--------------------------------------------------|
|--------------------------------------------------|
|--------------------------------------------------|
|-----19-21p19-----------------------------19--21--|
|--21----------21-19-17-17-19-17-16-17/21----------|
|--------------------------------------------------|

|------------------19---14p12-|
|-----------------------------|
|--21b--21b--21b--------------|
|-----------------------------|
|-----------------------------|
|-----------------------------|

|--17p14--17p14p12-17p14p12-17p14p12-17p14p12-17p14p12-17p14p12--------|
|---------------------------------------------------------------17p14--|
|----------------------------------------------------------------------|
|----------------------------------------------------------------------|
|----------------------------------------------------------------------|
|----------------------------------------------------------------------|

|--17p14-14-----17p14p12------17p14p12----0-17p14p12----0-|
|-----------x-0----------17-0----------17------------17---|
|---------------------------------------------------------|
|---------------------------------------------------------|
|---------------------------------------------------------|
|---------------------------------------------------------|

|--17p14p12----0-17p14p12----0-17p14-----14-17p14-------|
|-----------17------------17----------17----------17-14-|
|-------------------------------------------------------|
|-------------------------------------------------------|
|-------------------------------------------------------|
|-------------------------------------------------------|

|----------------------------|-----------------------|
|-----14-17--17b-17b-17r-----|----9b-----------------|
|--16b-----------------------|----9b-----7-------7-9b|
|----------------------------|-------------9---------|
|----------------------------|-----------------------|
|----------------------------|-----------------------|

|-----------------------------------|
|---7-10-7---7-10-7-----------------|
|----------9--------9-7-9-7---7~-9\-|
|---------------------------9-------|
|-----------------------------------|
|-----------------------------------|

|--------14-------17p14-------------------------------|
|--12/14----17p14-------17-14----14-17p14-------------|
|-----------------------------16b---------16-14-14-14-|
|-----------------------------------------------------|
|-----------------------------------------------------|
|-----------------------------------------------------|

|--------------------------|--22r-------22b---21r-19-19-19-|
|--------------------------|-------------------------------|
|--16b--16b--16b---16r-14--|-------------------------------|
|--------------------------|-------------------------------|
|--------------------------|-------------------------------|
|--------------------------|-------------------------------|

|--22p19-------------------------------------------|
|--------22-19----19-22p19-------------------------|
|--------------21b---------21-19-19-19-21p19-------|
|--------------------------------------------21-19-|
|--------------------------------------------------|
|--------------------------------------------------|


|--------------------------------------------------|
|--------------------------------------------------|
|--------------------------------------------------|
|-----19-21p19-------------------------------19-21-|
|--21----------21-19-17-17-19-17-16-17-19/21-------|
|--------------------------------------------------|

|--------------------------------------------|
|--------------------------------------------|
|--19-19-21p19-19-19-21p19-21-19----19/20----|
|--------------------------------21-18/19-21-|
|--------------------------------------------|
|--------------------------------------------|

|--------------------------------------------------|
|--15-15-12----13-16-13-14-17p14----15-18p15----16-|
|-----------13-------------------15----------16----|
|--------------------------------------------------|
|--------------------------------------------------|
|--------------------------------------------------|

|---------------------------------------------13-|
|--19p16----17-20p17----18-21p18----18-21~-15----|
|--------17----------18----------18--------------|
|------------------------------------------------|
|------------------------------------------------|
|------------------------------------------------|

|--17p14----15-19p16----16-20p17----18-21p18----19-|--22b--22b--22r-------|
|--------16----------18----------20----------20----|----------------------|
|--------------------------------------------------|----------------------|
|--------------------------------------------------|----------------------|
|--------------------------------------------------|----------------------|
|--------------------------------------------------|----------------------|

|--------------------------------------------------|
|---17-17-20p17-19p17-x-17-22p17-20p17----17\16-17-|
|--------------------------------------20----------|
|--------------------------------------------------|
|--------------------------------------------------|
|--------------------------------------------------|

|--------------------------------------------------|
|--22p17-20p17-19p17----17-22p17-20p17-19p17-17-17-|
|--------------------20----------------------------|
|--------------------------------------------------|
|--------------------------------------------------|
|--------------------------------------------------|

|--------------------------------------------------|--22b-------22b-----|
|--22p17-20p17-19p17----17-22p17-20p17-19p17-17-17-|--------------------|
|--------------------20----------------------------|--------------------|
|--------------------------------------------------|--------------------|
|--------------------------------------------------|--------------------|
|--------------------------------------------------|--------------------|

|--20p17-17-17-20p17-------------------------------|
|--------------------20-17-17-17-20p17-------------|
|--------------------------------------19-17----19-|
|--------------------------------------------19----|
|--------------------------------------------------|
|--------------------------------------------------|

|---------------------------------------------------|
|---------------------------------------------------|
|--17-17-17h19p17-----------------------------------|
|-----------------19-17----17-19p17-----------------|
|-----------------------19----------19-17-15--------|
|--------------------------------------------17-17b-|


|------------------------------------------------|
|---------------------------------------------17-|
|---------------------------------------17-19----|
|------------------17-17-19p17----17-19----------|
|--------15-17/19--------------19----------------|
|--15-17-----------------------------------------|

|-----------------------20p17----------------------------|
|--20-17\16-20p17-20p17-------20-17-17-17-17-20-17\16-17-|
|--------------------------------------------------------|
|--------------------------------------------------------|
|--------------------------------------------------------|
|--------------------------------------------------------|

|--------------------------------------------------|
|--20p17----------------------------------17-20p17-|
|--------19b17-17-17-19-17----17-19-17-19b---------|
|--------------------------19----------------------|
|--------------------------------------------------|
|--------------------------------------------------|

|--20p17----------------------------------------------|
|--------20-17-17-17-20p17-17-------------------------|
|-----------------------------19-17-17-17-19p17-17-17-|
|-----------------------------------------------------|
|-----------------------------------------------------|
|-----------------------------------------------------|

|--------------------------|--------------------------|------------------|
|--20----20----20----20----|--20----20----------------|--20--------------|
|--19b---19b---19b---19b---|--19b---19b---19b---19b---|--19b-------------|
|--------------------------|--------------------------|------------------|
|--------------------------|--------------------------|------------------|
|--------------------------|--------------------------|------------------|

|----------------|---------------------||
|----------------|--20----20-----------||
|----------------|--19b---19b----------||
|----------------|---------------------||
|----------------|---------------------||
|----------------|---------------------||

2. Jump in the fire.

Line up from now on.

James Hetfield, Dave Mustaine, Lars Ulrich, Ron Mcgovney.

Intro

|------------------------------------------------------
|------------------------------------------------------
|-------------------------------------------------X5x3-
|---------3---------------3---------------3-------x5x3-
|-----3-5---5-4-3-----3-5---5-4-3-----3-5---5-4-3-x3x1-
|-3-6-------------3-6-------------3-6------------------
P.m._             ___             ___
|------------------------------------------------------
|------------------------------------------------------
|-------------------------------------------------X5x3-
|---------3---------------3-------3-------3-------x5x3-
|-----3-5---5-4-3-----3-5---5-4-3---5-4-3---5-4-3-x3x1-
|-3-6-------------3-6----------------------------------
P.m._             ___
|-----------------------------------------------------------
|-----------------------------------------------------------
|-----------------------------------------------------------
|---------3---------------3-------5p3---3--------------3-5--
|-----3-5---5-4-3-----3-5---5-4-3-----5---5-4-3-----3-5-----
|-3-6-------------3-6---------------------------3-6---------
P.m._             ___                         ___
|------------------------------------------------------
|------------------------------------------------------
|-------------------------------------------------X5x3-
|---------3---------------3-------3-------3-------x5x3-
|-----3-5---5-4-3-----3-5---5-4-3---5-4-3---5-4-3-x3x1-
|-3-6-------------3-6----------------------------------
P.m._             ___
|------------------------------------------------------
|------------------------------------------------------
|----------------3--------------------5xxx6------------
|----------------3-3-3-3--------------5xxx6------------
|----------------1-3-3-3--------------3xxx4------------
|----1-3-3-1-3-1---1-1-1--1-3-3-1-3-1------------------

|------------------------------------------------------
|------------------------------------------------------
|-------------------------------------------------X5x3-
|---------3---------------3---------------3-------x5x3-
|-----3-5---5-4-3-----3-5---5-4-3-----3-5---5-4-3-x3x1-
|-3-6-------------3-6-------------3-6------------------
P.m._             ___             ___
|------------------------------------------------------
|------------------------------------------------------
|-------------------------------------------------X5x3-
|---------3---------------3-------3-------3-------x5x3-
|-----3-5---5-4-3-----3-5---5-4-3---5-4-3---5-4-3-x3x1-
|-3-6-------------3-6----------------------------------
P.m._             ___
|-----------------------------------------------------------
|-----------------------------------------------------------
|-----------------------------------------------------------
|---------3---------------3-------5p3---3--------------3-5--
|-----3-5---5-4-3-----3-5---5-4-3-----5---5-4-3-----3-5-----
|-3-6-------------3-6---------------------------3-6---------
P.m._             ___                         ___

|------------------------------------------------------
|------------------------------------------------------
|-------------------------------------------------X5x3-
|---------3---------------3-------3-------3-------x5x3-
|-----3-5---5-4-3-----3-5---5-4-3---5-4-3---5-4-3-x3x1-
|-3-6-------------3-6----------------------------------

|----------------------------------------------------
|----------------------------------------------------
|----------------------------------------------------
|-8-8-8-8-8--8-8-8-8-8-6-8--5-5-5-5-5--5-5-5-5-5-3-5-
|-8-8-8-8-8--8-8-8-8-8-6-8--5-5-5-5-5--5-5-5-5-5-3-5-
|-6-6-6-6-6--6-6-6-6-6-4-6--3-3-3-3-3--3-3-3-3-3-1-3-

|-----------------------------------------------------------------
|-----------------------------------------------------------------
|-----------------------------------------------------------------
|-----------------------------------------------------------------
|-1-1-1-1-1-1-1-1-1-1-1-1-1-1-1-1---------------------------------
|---------------------------------3-3-3-3-3-3-3-3-3-3-3-3-3-3-3-3-

|-----------------------------------------------------------------
|-----------------------------------------------------------------
|-----------------------------------------------------------------
|-----------------------------------------------------------------
|-1-1-1-1-1-1-1-1-1-1-1-1-1-1-1-1---------------------------------
|---------------------------------3-3-3-3-3-3-3-3-3-3-3-3-3-3-3-3-

|---------------------------------------------------3-------3-----0-|
|-6/3p0-------6/3p0-------6/3p0-------6/3p0-------3-3-6-3-----3---0-|
|-------5/3p0-------5/3p0-------5/3p0-------5/3p0---------3-----0-0-|
|-------------------------------------------------------------------|
|-------------------------------------------------------------------|
|-------------------------------------------------------------------|

|---------------------------------------------------3-5-3-5-5-----|
|-3-3-3-3-3-3-3-3-3-3-3-0b-5-5-5-5-5-5-5-5-5-5-5-3b-3-5-3-5-5-----|
|-----------------------------------------------------------------|
|-----------------------------------------------------------------|
|-----------------------------------------------------------------|
|-----------------------------------------------------------------|

|------------------------------------------4^---------------------|
|-3-3-3-3-3-3-3-3-3-3-3-3-3-3-3-3-3-4-3-2-------------------------|
|-----------------------------------------------------------------|
|-----------------------------------------------------------------|
|-----------------------------------------------------------------|
|-----------------------------------------------------------------|

|------------------------------------------------------
|------------------------------------------------------
|----------------3--------------------5xxx6------------
|----------------3-3-3-3--------------5xxx6------------
|----------------1-3-3-3--------------3xxx4------------
|----1-3-3-1-3-1---1-1-1--1-3-3-1-3-1------------------


|------------------------------------------------------
|------------------------------------------------------
|-------------------------------------------------X5x3-
|---------3---------------3---------------3-------x5x3-
|-----3-5---5-4-3-----3-5---5-4-3-----3-5---5-4-3-x3x1-
|-3-6-------------3-6-------------3-6------------------
P.m._             ___             ___
|------------------------------------------------------
|------------------------------------------------------
|-------------------------------------------------X5x3-
|---------3---------------3-------3-------3-------x5x3-
|-----3-5---5-4-3-----3-5---5-4-3---5-4-3---5-4-3-x3x1-
|-3-6-------------3-6----------------------------------
P.m._             ___
|-----------------------------------------------------------
|-----------------------------------------------------------
|-----------------------------------------------------------
|---------3---------------3-------5p3---3--------------3-5--
|-----3-5---5-4-3-----3-5---5-4-3-----5---5-4-3-----3-5-----
|-3-6-------------3-6---------------------------3-6---------
P.m._             ___                         ___
|------------------------------------------------------
|------------------------------------------------------
|-------------------------------------------------X5x3-
|---------3---------------3-------3-------3-------x5x3-
|-----3-5---5-4-3-----3-5---5-4-3---5-4-3---5-4-3-x3x1-
|-3-6-------------3-6----------------------------------

|-1-1-1-2-2-2-3-3-3-4-4-4--12-12-12-12-13^-12-14^-12-15^-
|--------------------------------------------------------
|--------------------------------------------------------
|--------------------------------------------------------
|--------------------------------------------------------
|--------------------------------------------------------

|-12-12-12-15-14-13-12-13^-12-14-15-13^-12-12-12-13-13-13-
|---------------------------------------------------------
|---------------------------------------------------------
|---------------------------------------------------------
|---------------------------------------------------------
|---------------------------------------------------------

|-13-13-13-14-14-14-15-15-13^-12-12^- -12-12-12-15-12-12-12-14-15-15-
|------------------------------------ -------------------------------
|------------------------------------ -------------------------------
|------------------------------------ -------------------------------
|------------------------------------ -------------------------------
|------------------------------------ -------------------------------

|-12-12-12-15-12-12-12-14-12-12-15-12-15-12-14-12-14---
|------------------------------------------------------
|------------------------------------------------------
|------------------------------------------------------
|------------------------------------------------------
|------------------------------------------------------


|-12-12-12-12-12-17^-17^-17^-17^-17^+++++++---------------------------
|---------------------------------------------------------------------
|-------------------------------------------7+++++++++--7+-2+---------
|-------------------------------------------5+++++++++--5+-0+---------
|---------------------------------------------------------------------
|---------------------------------------------------------------------

3 Killing time

Intro
Q=231
4/4
Gtr I
TP          TP          TP         TP
Wx5           W           W           W          W
|------------|-----------|-----------|-----------|-------||
|------------|-----------|-----------|-----------|-------||
|------------|-----------|-----------|-----------|-------||
|------------|-----------|-----------|-----------|-------||
|------------|-12--------|-12S=======|=10S=======|=7\----||
|------------|-----------|-----------|-----------|-------||


Gtr III
W                   W                  W
||----------------------|-----------------|--------|
||o-(<7>)---------------|-----------------|--------|
||----------------------|-----------------|--------|
||----------------------|-----------------|--------|
||o---------------------|-----------------|--------|
||----------------------|-----------------|--------|
|-play 2nd time only
|
|   Gtr I
|     PM------------------------------|
|     E   E E E E E E E   E E E E E E E E   +W
||----------------------|-----------------|--------|
||o---------------------|-----------------|--------|
||----------------------|---------------5-|-(5)----|
||----------------------|---------------5-|-(5)----|
||o---0---0-0-0-0-0-0-0-|-0-0-0-0-0-0-0-3-|-(3)----|
||----------------------|-----------------|--------|


|---3---|
Q   Q   Q   H            +W                   W
|------------------------|---------------------|-----------------|
|---------<7>------------|---------------------|-----------------|
|-----<7>-----<5>--------|-(<5>)---------------|-----------------|
|-<7>--------------------|---------------------|-----------------|
|------------------------|---------------------|-----------------|
|------------------------|---------------------|-----------------|
|-play 2nd time only
|
|                            PM------------------------------|
| +H.              +Q        E   E E E E E E E   E E E E E E E E
|------------------------|---------------------|-----------------|
|------------------------|---------------------|-----------------|
|-(5)--------------(5)\--|---------------------|---------------7-|
|-(5)--------------(5)\--|---------------------|---------------7-|
|-(3)--------------(3)\--|---0---0-0-0-0-0-0-0-|-0-0-0-0-0-0-0-5-|
|------------------------|---------------------|-----------------|


1.                           2.
|---3---|   |--3---|
W            Q   Q   Q   Q      H       a a  Q      +Q    Q   +Q
|------------|-------------<7>----------||-----20b24r=(20)--------------||
|------------|---------<7>--------<7>--o||---x--------------------------||
|------------|-----<7>------------------||-x----------------17--(17)\---||
|------------|-<7>----------------------||------------------------------||
|------------|-------------------------o||------------------------------||
|------------|--------------------------||------------------------------||
|
| +W           +H          +E  Q.               H.                Q
|------------|--------------------------||------------------------------||
|------------|-------------------------o||------------------------------||
|-(7)--------|-(7)---------(7)----------||-----(7)----------------------||
|-(7)--------|-(7)---------(7)-7\-------||-----(7)----------------7\----||
|-(5)--------|-(5)---------(5)-7\------o||-----(5)----------------7\----||
|------------|--------------------------||------------------------------||


1.,2.,3.             4.
~~~~~~~
W                 W                     Q.      E      +E   +E   Q
||------------------|------------------||--17------17-----(17)-(17)-17-------||
||o-----------------|-----------------o||--20b22---20b22==(20)r(20)-20pb22===||
||------------------|------------------||------------------------------------||
||------------------|------------------||------------------------------------||
||o-----------------|-----------------o||------------------------------------||
||------------------|------------------||------------------------------------||
|
|   PM|   PM|   PM|       PM
|   E E E E E E E E   E E E E +Q   Q        Q.      E      +Q        Q
||------------------|------------------||------------------------------------||
||o-----------------|-----------------o||--10------10-----(10)------10\------||
||------7-----5-----|-------7-(7)--9---||---9-------9------(9)-------9\------||
||------------------|-7p5---5-(5)--7---||---7-------7------(7)-------7\------||
||o-0-0---0-0---0-0-|-----0-----------o||------------------------------------||
||------------------|------------------||------------------------------------||


+Q      Q   H        W
||--(17)\---------------|-----------------|
||o-(20)r\--------------|-----------------|
||----------------------|-----------------|
||----------------------|-----------------|
||o---------------------|-----------------|
||----------------------|-----------------|
|
|   Gtrs I, II
|     PM---|                  PM
|     E    E E E E Q  E   E E E E +Q   Q
||----------------------|-----------------|
||o---------------------|-----------------|
||-----------7p5---5----|-7p5---7-(7)--9--|
||-----------7p5---5----|-7p5---5-(5)--7--|
||o---0----0-----0----0-|-----0-----------|
||----------------------|-----------------|
|-Rhy Fig 1

1.
PM|                  PM
E E E E E Q  E   E E E E +Q   Q
|----------------|-------------------||
|----------------|------------------o||
|-----7p5---5----|-7p5---5-(5)--5----||
|-----7p5---5----|-7p5---5-(5)--5----||
|-0-0-----0----0-|-----0-3-(3)--3---o||
|----------------|-------------------||
end Rhy Fig 1-|

2.
Gtrs I, II
PM
E E E E +Q   Q     H.      Q     Q.    E  +Q    Q
|-----------------|-------------|--------------------||
|-----------------|-------------|--------------------||
|-7p5---5-(5)--5S=|=10----------|-12----12-(12)--12--||
|-7p5---5-(5)--5S=|=10----------|-12----12-(12)--12--||
|-----0-3-(3)--3S=|==8----------|-10----10-(10)--10--||
|-----------------|-------------|--------------------||


Verse 1, 3

||--
||o-
||-- Rhy Fig 1
||--
||o-
||--
|-Rhy Fig 2

PM|                  PM            PM|                  PM
E E E E E Q  E   E E E E +Q   Q    E E E E E Q  E   E E E E +Q   Q
|----------------|-----------------|----------------|-----------------|
|----------------|-----------------|----------------|-----------------|
|-----7p5---5----|-7p5---7-(7)--9--|-----7p5---5----|-7p5---5-(5)--4--|
|-----7p5---5----|-7p5---5-(5)--7--|-----7p5---5----|-7p5---5-(5)--4--|
|-0-0-----0----0-|-----0-----------|-0-0-----0----0-|-----0-3-(3)--2--|
|----------------|-----------------|----------------|-----------------|
|-Rhy Fill 1    --|

Bb5                          C5
Gtrs I, II
W                            W
|                            |
/                            /

Gtr III
|-3--| |-3-|   |-3-| |-3-| |-3-| |-3-|
S E. S S S S +E  E E E E E   E E E E E E E E E E E E
|----------------------------|-------------------------|
|-5p1------------------------|-6p3p0-------------------|
|------3p1p0-----------------|-------5p3p0-------------|
|------------3-(3)p1p0-------|-------------5p3p0-------|
|----------------------3p1p0-|-------------------5p3p0-|
|----------------------------|-------------------------|
|-play 2nd time only

D     D5  D   D5        D   D5  D     D5
E   E Q   E E Q         E E Q    E  E  Q
|   | |   | | |         | | |    |  |  |
o   / /   o / /         o / /    o  /  /

~~~
Q     E E E Q     E     E E E E +Q    +Q
|-----------------------|---------------------|
|-------6-----5---------|---------------------|
|-------7p5---5-----5h==|=7p5-----------------|
|-----------7-----------|-----7-5-(5)---(5)\--|
|-----------------------|---------------------|
|-----------------------|---------------------|
|-play 1st time only
|
|                               ~~~~~~
| S S E E E E E S S S S   E E E E +H
|-----------------------|---------------------|
|-----------5-6-5h6p5---|-5-6-8-8-(8)---------|
|-------5-7-----------7-|---------------------|
|-5h6h7-----------------|---------------------|
|-----------------------|---------------------|
|-----------------------|---------------------|
|-play 2nd time only

Bb5                   C5           end Rhy Fig 2-|
H.             Q     Q.       E     +Q    Q
|                    |        |      |    |
/                    /        /      /    /

E  S S E E E E E E   E  Q     E     +Q    Q
|-^5----7---8---7-5---|-5--------5-----(5)---5-----||
|-^5----------------8-|----8b10--8b10==(8)r--8b10--||
|---------------------|----------------------------||
|---------------------|----------------------------||
|---------------------|----------------------------||
|---------------------|----------------------------||
|-play 2nd time only

Verse 2, 4, 6
$
w/Rhy Fig 1
Q       a      +Q     H        W
|-5------(5)-----(5)-----------|-----------------|
|-8b10r==(8)b10==(8)r----------|-----------------|
|------------------------------|-----------------|
|------------------------------|-----------------|
|------------------------------|-----------------|
|------------------------------|-----------------|


Rhy Fig 1
Rhy Fill 1


Bb5                                 C5
Gtrs I, II
W                                   W
|                                   |
/                                   /

Gtr III
~~~~~~~~~~~
E      E  E  E  E  E   E      E     Q.      E      +Q    +Q
|-17-----17-17-17-17-17--17-----17--|-20b23---20b23==(20)--(20)r\--||
|-20b22==20-20-20-20-20r-20b22==20r-|------------------------------||
|-----------------------------------|------------------------------||
|-----------------------------------|------------------------------||
|-----------------------------------|------------------------------||
|-----------------------------------|------------------------------||


Chorus
D5           Bb5VIF5   E5     D5
Q  H.        Q.   E +E Q.     Q  H.
|  |         |    |  | |      |  |
/  /         /    /  / /      /  /
|------------|----------------|----------|


To Coda
Bb5VIF5   G5     D5           Bb5VIF5   E5     D5
Q.   E +E Q.     Q  H.        Q.   E +E Q.     Q  H.
|    |  | |      |  |         |    |  | |      |  |
/    /  / /      /  /         /    /  / /      /  /
|----------------|------------|----------------|------------|


1.
Bb5VIG5III
Q.   E +Q   Q          W
|    |  |
/    /  /

|--3--|    |--3--|  |--3--|  |--3--|  |--3--|
H       Q   E  E  E    E  E  E  E  E  E  E  E  E  E  E  E
|---------------------|-------------------------------------|
|------------10s17-17-|-20p17-17-20p17----20p17----20p17----|
|---------------------|----------------18-------18-------18-|
|---------------------|-------------------------------------|
|---------------------|-------------------------------------|
|---------------------|-------------------------------------|


W
~~~~~
|--3--|  |3-|
E  E  E  E  Q  H
|----------------20b23-----||
|-20p17----20p17----------o||
|-------18-----------------||
|--------------------------||
|-------------------------o||
|--------------------------||


2.
Bb5VIG5III
Q.   E +Q  Q    W          W
|    |  |
/    /  /
|---------------|----------|------||


Interlude
A5
Gtrs I, II
Q    Q   H           W                   Q   Q      H
|                                        |
/                                        /

Gtr III
PM|    PM|    PM|      PM|    PM|
E E  E E E  E E E    E E E  E E E  Q     Q  +H         +Q
|-------------------|--------------------|---------------------|
|-------------------|--------------------|-7--(7)b8======(7)r--|
|-----14-----17-----|-16-----15-----14\--|-7--(7)b9======(7)r--|
|-----14-----17-x-x-|-16-x---15-----14\--|---------------------|
|-0-0-12-0-0-15-x-x-|-14-x-0-13-0-0-12\--|---------------------|
|-------------------|--------------------|---------------------|


W                   Q   Q  H         W
|
/

~~~~~~~~~~~                        ~~
E E E E S S Q.     +Q   Q  E E E E   E E E E E Q.
|------------------|-----------------|-----------------|
|-7p5--------------|-----------------|-----------------|
|-7p5---5-9p5------|-----------------|---------5-------|
|-----7-------7----|-(7)-------------|---5-6-7---7-----|
|------------------|------0--3-4-5-6-|-7---------------|
|------------------|-----------------|-----------------|


Q     Q     H
|
/

|-3-|  |-3--|
E S S E S S E E E  E E  E
|---------------------------|
|---------------------------|
|-5-7p5---7h9p7---9-11p9h11-|
|-------7-------9-----------|
|---------------------------|
|---------------------------|


Guitar Solo
A5XII                               E5(type 2)
Q.          E +Q        Q           Q     Q  E E  Q
|           |  |        |           |     |  | |  |
/           /  /        /           /     /  / /  /

|--3--|        |--3--|  |--3--|
E  E  E  E  E  E  E  E  E  E  E     H.            E  E
|----------------------------------||---------------17-19-|
|-------------------------------19-||-20b22---------------|
|-10h12p10----14-12----16-14s16----||---------------------|
|----------12-------12-------------||---------------------|
|----------------------------------||---------------------|
|----------------------------------||---------------------|


Q     E  E +Q            Q                Q      Q      E      E  Q
|     |  |  |            |                |      |      |      |  |
/     /  /  /            /                /      /      /      /  /

E  E  E  E  S  S  S  S  +S   E  S        +E   E  E  E   E      E  E  E
|-20-19-17-19-17h19p17---------17--------|------17-17-17--17-----17-17-17--|
|----------------------20-(20)----20b22==|=(20)-20-20-20r-20b22==20-20-20r-|
|----------------------------------------|---------------------------------|
|----------------------------------------|---------------------------------|
|----------------------------------------|---------------------------------|
|----------------------------------------|---------------------------------|


D5
Q         E  E  +Q         Q
|         |  |   |         |
/         /  /   /         /

E      E  E  E   E      E  E  E
|-17-----17-17-17---------17-17-17--|
|-20b22==20-20-20r-20b22==20-20-20r-|
|-----------------------------------|
|-----------------------------------|
|-----------------------------------|
|-----------------------------------|


E5(type 2)                                       G5III
Q         Q      E      E  Q        Q         E  E  +Q        Q
|         |      |      |  |        |         |  |   |        |
/         /      /      /  /        /         /  /   /        /

E      E  E  E   E      E  E  E     E      E  E  E   E      Q    E
|-17-----17-17-17---------17-17-17--|-17-----17-17-17--17-----17---17--|
|-20b22==20-20-20r-20b22==20-20-20r-|-20b22==20-20-20r-20b22==20---20r-|
|-----------------------------------|----------------------------------|
|-----------------------------------|----------------------------------|
|-----------------------------------|----------------------------------|
|-----------------------------------|----------------------------------|


E5(type 2)
Q     Q          E    E        Q
|     |          |    |        |
/     /          /    /        /

Q.       E      +E   +E       +E   +E
|-20b23----20b23==(20)r(20)b23==(20)r(20)b24==|
|---------------------------------------------|
|---------------------------------------------|
|---------------------------------------------|
|---------------------------------------------|
|---------------------------------------------|


G5III             F5I
Q   E E  +Q     Q        Q     H     Q
|   | |   |     |        |     |     |
/   / /   /     /        /     /     /

~~~~~
+H        +Q    +E   E    H.          E  E
|-(20)------(20)r=(20)-17-|-------------17-19-|
|-------------------------|-20b22-------------|
|-------------------------|-------------------|
|-------------------------|-------------------|
|-------------------------|-------------------|
|-------------------------|-------------------|


G5III                               A5V
Q     H              Q               E    E  Q          E      E  Q
|     |              |               |    |  |          |      |  |
/     /              /               /    /  /          /      /  /

|--3--|
E  E  E  S  S  E  E  E  E  E        +E    E  E      E   E      E  E  E
|-20-19-17-19p17----17----17--------|-------17-17-----17--17-----17--x-17-|
|----------------20----20----20b22==|=(20)r----20b22==20r-20b22==20r-x----|
|-----------------------------------|-------------------------------------|
|-----------------------------------|-------------------------------------|
|-----------------------------------|-------------------------------------|
|-----------------------------------|-------------------------------------|


E      E   Q       E  E  Q
|      |   |       |  |  |
/      /   /       /  /  /

|--3--|       |--3--|
E      E   E  E  E E  E  E  E  E
|-17-----17--20p17---------12-------|
|-20b22==20r-------20---15----15p13-|
|-----------------------------------|
|-----------------------------------|
|-----------------------------------|
|-----------------------------------|


F5I                      G5III
H.               Q       Q.      E  +Q     Q
|                        |       |   |     |
/                        /       /   /     /

~~~~~~~
Q.       E  +Q.     E    E   Q   E  +Q    +E  E
|---------------------15-|-15----------------------||
|-15b17====15-(15)-------|-----15--15-(15)r=(15)---||
|------------------------|-------------------------||
|------------------------|-------------------------||
|------------------------|-------------------------||
|------------------------|-------------------------||


Verse 5
w/Rhy Fig 2
Gtr III
~~~~~~~~~~~~
E  Q.      +Q     +Q      Q   Q    H
|--------------------------|-----------------|
|-13-----------------------|-----------------|
|----14------(14)---(14)s==|=x---------------|
|--------------------------|-----------------|
|--------------------------|-----------------|
|--------------------------|-----------------|



|----------------|-----------------|


W                W                 W                H        Q    Q
|----------------|-----------------|----------------|--------------20b23--|
|----------------|-----------------|----------------|---------------------|
|----------------|-----------------|----------------|---------------------|
|----------------|-----------------|----------------|---------------------|
|----------------|-----------------|----------------|---------------------|
|----------------|-----------------|----------------|---------------------|




~~~~~~
|--3--|
H         +E   +E   E  S  S    S  S  S  S  S  S  S  S  S  S  S  S  E  E  E
|-20b22=====(20)r(20)-17-20p17-|-17h20p17-17-20p17-20p17-20p17-------17h20p17-|
|------------------------------|-------------------------------17-20----------|
|------------------------------|----------------------------------------------|
|------------------------------|----------------------------------------------|
|------------------------------|----------------------------------------------|
|------------------------------|----------------------------------------------|



~~~~~~
E  S  S  S  S  S  S  S  S  S  S  S  E  S    +S   S  E  S  E.  Q.        +E
|-17-17h20p17-17-17h20p17-------17h20p17-17-|-(17)-20p17-----------------------|
|-------------------------17h20-------------|------------20p17--20b22r====(20)-|
|-------------------------------------------|----------------------------------|
|-------------------------------------------|----------------------------------|
|-------------------------------------------|----------------------------------|
|-------------------------------------------|----------------------------------|


D.S. al Coda
|---3---|
H         +E   +E   E  E    E   E  E  E    E  E  E  E  E
|---------------------------|-------------------------------||
|-20b25=====(20)r(20)-20-19-|-17-----17h19p==17----17-------||
|---------------------------|-----20------------20----20-19-||
|---------------------------|-------------------------------||
|---------------------------|-------------------------------||
|---------------------------|-------------------------------||


&
Bb5VIG5III      A5V
Gtrs I, II
Q.   E +H        Q  Q   H
|    |  |        |
/    /  /        /

Gtr III
W                H      E  E  E     E
|--------------||--------17-------------|
|--------------||-20--------20-17----17-|
|--------------||--------------19b21----|
|--------------||-----------------------|
|--------------||-----------------------|
|--------------||-----------------------|


H           Q   Q          E    Q.      Q.      E        +H      +H
|          |    |       |       |         |       |
/          /    /       /       /         /       /

E  E  H         Q         +E    Q.      Q.      E        +H      +H
|-------20b22-----15------|-(15)--17------17------17-----|-(17)----(17)\-----*|
|-20-17-----------18b20===|=(18)r-20b22---20b22---20b22==|=(20)----(20)r\----*|
|-------------------------|------------------------------|-------------------*|
|-------------------------|------------------------------|-------------------*|
|-------------------------|------------------------------|-------------------*|
|-------------------------|------------------------------|-------------------*|
4. Let it loose

e:----------------------------|
B:----------------------------|
G:-----5-----5-----5-----7----|
D:-----5-----5-----5-----7----|
A:-0-0---0-0---0-0---0-0------|
E:----------------------------|

e:----------------------------|
B:----------------------------|
G:-----5-----5-----5-----5----|
D:-----5-----5-----5-----5----|
A:-0-0---0-0---0-0---0-0------|
E:----------------------------|

e:----------------------------|
B:----------------------------|
G:-----5-----5-----5-----7----|
D:-----5-----5-----5-----7----|
A:-0-0---0-0---0-0---0-0------|
E:----------------------------|

e:----------------------------|
B:----------------------------|
G:-----5-----5-----5-----5----|
D:-----5-----5-----5-----5----|
A:-0-0---0-0---0-0---0-0------|
E:----------------------------|


e:-------------------------|
B:-------------------------|
G:----5----5----5----5---7-|
D:----5----5----5----5---7-|
A:-0----0----0----0----0---|
E:-------------------------|

e:---------------------------|
B:---------------------------|
G:----5----5----5----7----5--|
D:----5----5----5----7----5--|
A:-0----0----0----0-----0----|
E:---------------------------|

e:-------------------------|
B:-------------------------|
G:----5----5----5----5---7-|
D:----5----5----5----5---7-|
A:-0----0----0----0----0---|
E:-------------------------|

e:---------------------------|
B:---------------------------|
G:----5----5----5----7----5--|
D:----5----5----5----7----5--|
A:-0----0----0----0-----0----|
E:---------------------------|


e:--------------------------------------------------------------------|
B:--------------------------------------------------------------------|
G:--------------------------------------------------------------------|
D:--------------------------------------------------------------------|
A:-7-7-7-7-7-7-7-7-7--5-5-5-5-5-5-5-5--4-4-4-4-4-4-4-4--3-2-3-2-3--5--|
E:-5-5-5-5-5-5-5-5-5--3-3-3-3-3-3-3-3--2-2-2-2-2-2-2-2--1-0-1-0-1--3--|

e:-------------------------|
B:-------------------------|
G:----5----5----5----5---7-|
D:----5----5----5----5---7-|
A:-0----0----0----0----0---|
E:-------------------------|

e:---------------------------|
B:---------------------------|
G:----5----5----5----7----5--|
D:----5----5----5----7----5--|
A:-0----0----0----0-----0----|
E:---------------------------|

e:-------------------------|
B:-------------------------|
G:----5----5----5----5---7-|
D:----5----5----5----5---7-|
A:-0----0----0----0----0---|
E:-------------------------|

e:---------------------------|
B:---------------------------|
G:----5----5----5----7----5--|
D:----5----5----5----7----5--|
A:-0----0----0----0-----0----|
E:---------------------------|


e:--------------------------------------------------------------------|
B:--------------------------------------------------------------------|
G:--------------------------------------------------------------------|
D:--------------------------------------------------------------------|
A:-7-7-7-7-7-7-7-7-7--5-5-5-5-5-5-5-5--4-4-4-4-4-4-4-4--3-2-3-2-3--5--|
E:-5-5-5-5-5-5-5-5-5--3-3-3-3-3-3-3-3--2-2-2-2-2-2-2-2--1-0-1-0-1--3--|

e:-------------------------|
B:-------------------------|
G:----5----5----5----5---7-|
D:----5----5----5----5---7-|
A:-0----0----0----0----0---|
E:-------------------------|

e:---------------------------|
B:---------------------------|
G:----5----5----5----7----5--|
D:----5----5----5----7----5--|
A:-0----0----0----0-----0----|
E:---------------------------|

e:-------------------------|
B:-------------------------|
G:----5----5----5----5---7-|
D:----5----5----5----5---7-|
A:-0----0----0----0----0---|
E:-------------------------|

e:---------------------------|
B:---------------------------|
G:----5----5----5----7----5--|
D:----5----5----5----7----5--|
A:-0----0----0----0-----0----|
E:---------------------------|


:-----------------------------------------|
:-----------------------------------------|
:-----------------------------------------|
:-----------------------7--------12-12-12-|
:-777777777-10-77777777---777777-10-10-10-|
:-----------------------------------------|

:----------------------------------|
:----------------------------------|
:----------------------------------|
:-----------------------7--------7-|
:-777777777-10-77777777---777777-5-|
:----------------------------------|

e:-------------------------|
B:-------------------------|
G:----5----5----5----5---7-|
D:----5----5----5----5---7-|
A:-0----0----0----0----0---|
E:-------------------------|

e:---------------------------|
B:---------------------------|
G:----5----5----5----7----5--|
D:----5----5----5----7----5--|
A:-0----0----0----0-----0----|
E:---------------------------|

e:-------------------------|
B:-------------------------|
G:----5----5----5----5---7-|
D:----5----5----5----5---7-|
A:-0----0----0----0----0---|
E:-------------------------|

e:---------------------------|
B:---------------------------|
G:----5----5----5----7----5--|
D:----5----5----5----7----5--|
A:-0----0----0----0-----0----|
E:---------------------------|


e:--------------------------------------------------------------------|
B:--------------------------------------------------------------------|
G:--------------------------------------------------------------------|
D:--------------------------------------------------------------------|
A:-7-7-7-7-7-7-7-7-7--5-5-5-5-5-5-5-5--4-4-4-4-4-4-4-4--3-2-3-2-3--5--|
E:-5-5-5-5-5-5-5-5-5--3-3-3-3-3-3-3-3--2-2-2-2-2-2-2-2--1-0-1-0-1--3--|

e:-------------------------|
B:-------------------------|
G:----5----5----5----5---7-|
D:----5----5----5----5---7-|
A:-0----0----0----0----0---|
E:-------------------------|

e:---------------------------|
B:---------------------------|
G:----5----5----5----7----5--|
D:----5----5----5----7----5--|
A:-0----0----0----0-----0----|
E:---------------------------|

e:-------------------------|
B:-------------------------|
G:----5----5----5----5---7-|
D:----5----5----5----5---7-|
A:-0----0----0----0----0---|
E:-------------------------|

e:---------------------------|
B:---------------------------|
G:----5----5----5----7----5--|
D:----5----5----5----7----5--|
A:-0----0----0----0-----0----|
E:---------------------------|

e:--------------------------------------------------------------------|
B:--------------------------------------------------------------------|
G:--------------------------------------------------------------------|
D:--------------------------------------------------------------------|
A:-7-7-7-7-7-7-7-7-7--5-5-5-5-5-5-5-5--4-4-4-4-4-4-4-4--3-2-3-2-3--5--|
E:-5-5-5-5-5-5-5-5-5--3-3-3-3-3-3-3-3--2-2-2-2-2-2-2-2--1-0-1-0-1--3--|

e:-------------------------|
B:-------------------------|
G:----5----5----5----5---7-|
D:----5----5----5----5---7-|
A:-0----0----0----0----0---|
E:-------------------------|

e:---------------------------|
B:---------------------------|
G:----5----5----5----7----5--|
D:----5----5----5----7----5--|
A:-0----0----0----0-----0----|
E:---------------------------|

e:-------------------------|
B:-------------------------|
G:----5----5----5----5---7-|
D:----5----5----5----5---7-|
A:-0----0----0----0----0---|
E:-------------------------|

e:---------------------------|
B:---------------------------|
G:----5----5----5----7----5--|
D:----5----5----5----7----5--|
A:-0----0----0----0-----0----|
E:---------------------------|

solo 1
e:-----------------------------------------------------------------------------------------|
B:-14h17p14h17p14h17p14h17p14h17p14/12h15p12h15p12h15p12h15p12h15p12-12/--14-17b--14h17p14-|
G:-----------------------------------------------------------------------------------------|
D:-----------------------------------------------------------------------------------------|
A:-----------------------------------------------------------------------------------------|
E:-----------------------------------------------------------------------------------------|

e:--------------------------------------------------------------------------------------|
B:----14-----------------------------------------------------------14h17p14----14h17p14-|
G:-16----16-14h16p14----14--------------------------------------16----------16----------|
D:-------------------16----16-14h16p14----14--------------------------------------------|
A:-------------------------------------16----16-14h16p14--------------------------------|
E:-------------------------------------------------------17-14/-------------------------|

:------------------------------------------------------------------------------------------|
:----14h17p14----14-17-17b-----14h17p14----14h17p14----17p14-17p14----14h17p14----14h17p14-|
:-16----------16------------16----------16----------16-------------16----------16----------|
:------------------------------------------------------------------------------------------|
:------------------------------------------------------------------------------------------|
:------------------------------------------------------------------------------------------|

e:-----------------------------------------------------------------------------------------|
B:-----------------------------------------------------------------------------------------|
G:-16-14-16-14-----------------------------------------------------------------14-16-14-16-|
D:-------------16-14-16-14-----------------------------------------14-16-14-16-------------|
A:-------------------------16-14-16-14-----------------14-16-14-16-------------------------|
E:--------------------------------------17-14-17-14-17-------------------------------------|

:-------------|
:-------------|
:-14-16-16b---|
:-------------|
:-------------|
:-------------|

e:-------------------------|
B:-------------------------|
G:----5----5----5----5---7-|
D:----5----5----5----5---7-|
A:-0----0----0----0----0---|
E:-------------------------|

e:---------------------------|
B:---------------------------|
G:----5----5----5----7----5--|
D:----5----5----5----7----5--|
A:-0----0----0----0-----0----|
E:---------------------------|

e:-------------------------|
B:-------------------------|
G:----5----5----5----5---7-|
D:----5----5----5----5---7-|
A:-0----0----0----0----0---|
E:-------------------------|

e:---------------------------|
B:---------------------------|
G:----5----5----5----7----5--|
D:----5----5----5----7----5--|
A:-0----0----0----0-----0----|
E:---------------------------|


e:--------------------------------------------------------------------|
B:--------------------------------------------------------------------|
G:--------------------------------------------------------------------|
D:--------------------------------------------------------------------|
A:-7-7-7-7-7-7-7-7-7--5-5-5-5-5-5-5-5--4-4-4-4-4-4-4-4--3-2-3-2-3--5--|
E:-5-5-5-5-5-5-5-5-5--3-3-3-3-3-3-3-3--2-2-2-2-2-2-2-2--1-0-1-0-1--3--|

e:-------------------------|
B:-------------------------|
G:----5----5----5----5---7-|
D:----5----5----5----5---7-|
A:-0----0----0----0----0---|
E:-------------------------|

e:---------------------------|
B:---------------------------|
G:----5----5----5----7----5--|
D:----5----5----5----7----5--|
A:-0----0----0----0-----0----|
E:---------------------------|

e:-------------------------|
B:-------------------------|
G:----5----5----5----5---7-|
D:----5----5----5----5---7-|
A:-0----0----0----0----0---|
E:-------------------------|

e:---------------------------|
B:---------------------------|
G:----5----5----5----7----5--|
D:----5----5----5----7----5--|
A:-0----0----0----0-----0----|
E:---------------------------|



e:--------------------------------------------------------------------|
B:--------------------------------------------------------------------|
G:--------------------------------------------------------------------|
D:--------------------------------------------------------------------|
A:-7-7-7-7-7-7-7-7-7--5-5-5-5-5-5-5-5--4-4-4-4-4-4-4-4--3-2-3-2-3--5--|
E:-5-5-5-5-5-5-5-5-5--3-3-3-3-3-3-3-3--2-2-2-2-2-2-2-2--1-0-1-0-1--3--|

e:-------------------------|
B:-------------------------|
G:----5----5----5----5---7-|
D:----5----5----5----5---7-|
A:-0----0----0----0----0---|
E:-------------------------|

e:---------------------------|
B:---------------------------|
G:----5----5----5----7----5--|
D:----5----5----5----7----5--|
A:-0----0----0----0-----0----|
E:---------------------------|

e:-------------------------|
B:-------------------------|
G:----5----5----5----5---7-|
D:----5----5----5----5---7-|
A:-0----0----0----0----0---|
E:-------------------------|

e:---------------------------|
B:---------------------------|
G:----5----5----5----7----5--|
D:----5----5----5----7----5--|
A:-0----0----0----0-----0----|
E:---------------------------|

solo 2
e:-17-16-14----------17-16-14----------17-16-14----------17-16-14----------17-16-14--------|
B:----------17-16-14----------17-16-14----------17-16-14----------17-16-14----------17-1614|
G:-----------------------------------------------------------------------------------------|
D:-----------------------------------------------------------------------------------------|
A:-----------------------------------------------------------------------------------------|
E:-----------------------------------------------------------------------------------------|

e:-17-16-14----------17-16-14----------17-16-14--------------------------------------------|
B:----------17-16-14----------17-16-14----------17-16-14-----------14-17-14-16-14----------|
G:-------------------------------------------------------16-14--16----------------16-14-16-|
D:-----------------------------------------------------------------------------------------|
A:-----------------------------------------------------------------------------------------|
E:-----------------------------------------------------------------------------------------|

e:--------------------------------------------------------------------------------------|
B:--------------------------------------------------------------------------------------|
G:-14----------------------------------------------------------------14-16-14-16-16b----|
D:----16-14-16-14----------------------------------------14-16-14-16--------------------|
A:----------------16-14-16-14----------------14-16-14-16--------------------------------|
E:----------------------------17-14-17-14-17--------------------------------------------|

:--------------------------------------------------------------------------------------|
:----14h17p14----14h17p14----14h17p14-19--17p14----14h17p14-19----17p14----14h17p14-19-|
:-16----------16----------16--------------------16-------------16-------16-------------|
:--------------------------------------------------------------------------------------|
:--------------------------------------------------------------------------------------|
:--------------------------------------------------------------------------------------|

e:---------------------------------14-16-17----------14-16-17----------14-16-17--17b--14-17|
B:-17p14----14h17p14------14-16-17----------14-16-17----------14-16-17---------------------|
G:-------16----------16b-------------------------------------------------------------------|
D:-----------------------------------------------------------------------------------------|
A:-----------------------------------------------------------------------------------------|
E:-----------------------------------------------------------------------------------------|

e:-14-------------------------|
B:----17-14-17-14-------17b---|
G:----------------16-14-------|
D:----------------------------|
A:----------------------------|
E:----------------------------|

e:-------------------------|
B:-------------------------|
G:----5----5----5----5---7-|
D:----5----5----5----5---7-|
A:-0----0----0----0----0---|
E:-------------------------|

e:---------------------------|
B:---------------------------|
G:----5----5----5----7----5--|
D:----5----5----5----7----5--|
A:-0----0----0----0-----0----|
E:---------------------------|

e:-------------------------|
B:-------------------------|
G:----5----5----5----5---7-|
D:----5----5----5----5---7-|
A:-0----0----0----0----0---|
E:-------------------------|

e:---------------------------|
B:---------------------------|
G:----5----5----5----7----5--|
D:----5----5----5----7----5--|
A:-0----0----0----0-----0----|
E:---------------------------|


:-----------------------------------------------------------------------------------------|
:-----------------------------------------------14-17-14-17----14-17-14----14-17-14-------|
:-----------------------------------14-16-14-16-------------16----------16----------16-14-|
:-----------------------14-16-14-16-------------------------------------------------------|
:-7-5-4-3--/14-16-14-16-------------------------------------------------------------------|
:-5-3-2-1---------------------------------------------------------------------------------|

e:-----------------------------------------------------------------|
B:-----------------------------------------------------------------|
G:-16-14-----------------------------------------------------------|
D:-------16-14-16-14-----------------------------------------------|
A:-------------------16-14-16-14-----------------------------------|
E:-------------------------------17-14-17-14/-0--------------------|


e:-----------------------------|
B:-----------------------------|
G:-----5-----5-----5-----7--2--|
D:-----5-----5-----5-----7--2--|
A:-0-0---0-0---0-0---0-0----0--|
E:-----------------------------|

5. Sucking my love
Repeat a whole bunch of times.
P.M -----|             P.M. -------|          P.M. -----------|
||------------------------------------------------------------------------||
||------------------------------------------------------------------------||
||*----------------------------------------------------------------------*||
||*----------------------------------------------------------------------*||
||------------10--7---------------------5h7------------------------5h7----||
||---0--0----------------------0--0--------------------0--5--7------------||
6. The prince

||-----------------------------------------------------------------||
||-----------------------------------------------------------------||
||*---------------------------------------------------------------*||
||*-------------------------5-------------------------------5---7-*||
||--5-----------------------3-------5-----------------------3---5--||
||--3---5-5---5-5---5-3-0-----------3---5-5---5-5-5-5-3-0----------||



Guitar solo
||--------------|--22^--22^22^--22^22--|---------------------------------||
||--------------|----------------------|---------------------------------||
||--5--7--8--9--|----------------------|--7p5---5-7p5-9p5-8p5-7p5--------||
||--5--7--8--9--|----------------------|--------------------------7p5-7-/||
||--------------|----------------------|---------------------------------||
||--------------|----------------------|---------------------------------||


||-12-12-15p12-12-12-15p12----12-15p12-17p12-15p12----12-15p12-12-12-15p12-||
||-------------------------15----------------------15----------------------||
||-------------------------------------------------------------------------||
||-------------------------------------------------------------------------||
||------------------------------------------------------------------------||
||-------------------------------------------------------------------------||



||-15p12----12-----|-------5h7h9-------5h7h9p5-----5h7h9-------5h9p5-9p7p5-||
||-------15----15^\|-5h7h9-------5h7h9---------7h9-------5h7h9-------------||
||-----------------|-------------------------------------------------------||
||-----------------|-------------------------------------------------------||
||-----------------|-------------------------------------------------------||
||-----------------|-------------------------------------------------------||


||-9p7p5-------|--------------------|3p1p0--------------------------------||
||-------9p7p5-|-9p5-10p5---5-----5-|------3p1p0--------------------------||
||-------------|----------7---7-----|------------2p0-----------------0p2p0||
||-------------|--------------------|----------------3p2p0----------------||
||-------------|--------------------|----------------------3p2p0----------||
||-------------|--------------------|----------------------------4p3------||



Hold bend

P.M. -----|          ~~~~~ ~~~~~ ~~~~~ ~~~~~ ~~~~        P.M. -|
||-------------------------|----------------------------------------------||
||-------------------------|----------------------------------------------||
||-------------------------|-8-8^--8-8^--8-8^--8-8^--8-8^-8-12---9h12p9-9-||
||-2-1-0-------------5-----|----------------------------------------------||
||-------3-3p0-3---3-----7-|----------------------------------------------||
||-------------------------|----------------------------------------------||

||-----------------------|-12-15p12----17p12----15p12----17p12----15p12----||
||-----------------17--14|----------12-------12-------12-------12-------15\||
||9h12p9----9-12p9-17--14|-------------------------------------------------||
||-------10--------------|-------------------------------------------------||
||-----------------------|-------------------------------------------------||
||-----------------------|-------------------------------------------------||


||------------------------------------------------------------------------||
||--13-p10--------10h13-p10--------10h13-p10--------10h13p10----10h11h12--||
||----------12-p9------------12-p9------------12p9-----------12-----------||
||------------------------------------------------------------------------||
||------------------------------------------------------------------------||
||------------------------------------------------------------------------||


||--15p12----17p12----15p12----17p12----15p12-----||
||--------12-------12-------12-------12-------12--||
||------------------------------------------------||
||------------------------------------------------||
||------------------------------------------------||
||------------------------------------------------||


||--17h22p20-17h22p20-17h22p20-17h22p20-17h22p20p17----17-----||
||--------------------------------------------------20----20^-||
||------------------------------------------------------------||
||------------------------------------------------------------||
||------------------------------------------------------------||
||------------------------------------------------------------||



Rhy. Fig. 2

Only 1 guitar first time

P.M. ---|   -|   P.M. -------|    P.M. ---|   -|       Play 3 times
||-----------------------------------------------------------------------||
||-----------------------------------------------------------------------||
||*-2-2-2------5-----7-7-5----------5-2-2-2------5-----7-7-5----------5^*||
||*-2-2-2------5-----7-7-5----------5-2-2-2------5-----7-7-5------------*||
||--0-0-0--5-7----7---------5-7-5-7---0-0-0--5-7----7-----------7p5h7----||
||-----------------------------------------------------------------------||



Rhy. Fig. 3

P.M. ---|   -|   P.M. -------|    P.M. ---|   -|
||--------------------------------------------------------------------||
||--------------------------------------------------------------------||
||--2-2-2------5-----7-7-5----------5-2-2-2------5-----7-7-5--/8-7-5--||
||--2-2-2------5-----7-7-5----------5-2-2-2------5-----7-7-5--/8-7-5--||
||--0-0-0--5-7----7---------5-7-5-7---0-0-0--5-7----7-----------------||
||--------------------------------------------------------------------||



Repeat Rhy. Fig. 2 once

Repeat Rhy. Fig. 3 once



Rhy. Fig. 4 (next 2 bars)

P.M. ---| P.M. -----|
||-------------|---------------------------------|-------------||
||-------------|---------------------------------|-------------||
||------5------|---------------------------------|-------------||
||--2---3---7--|--------5-----------5---7-7-7-7--|--2-------7--||
||--0-------5--|--0-3---3---0-3-3---3---5-5-5-5--|--0---3---5--||
||-------------|---------------------------------|------1------||

P.M. ---| P.M. -----|           P.M. ---| P.M. -----|
||-----------------------------------------------------------------||
||-----------------------------------------------------------------||
||-----------------------------------------------------------------||
||--------5-----------5---7-7-7-7---------5-----------5---7-7-7-7--||
||--0-3---3---0-3-3---3---5-5-5-5---0-3---3---0-3-3---3---5-5-5-5--||
||-----------------------------------------------------------------||

Rhy. Fig. 5

P.M. ---|   -|   P.M. -------|    P.M. ---|   -|
||---------------------------------------------------------------||
||---------------------------------------------------------------||
||--2-2-2------5-----7-7-5----------5-2-2-2------5-----7-7--6-5--||
||--2-2-2------5-----7-7-5----------5-2-2-2------5-----7-7--6-5--||
||--0-0-0--5-7----7---------5-7-5-7---0-0-0--5-7----7------------||
||---------------------------------------------------------------||



Repeat Rhy. Fig. 2 once

Repeat Rhy. Fig. 3 once

Repeat Rhy. Fig. 2 once

Repeat Rhy. Fig. 3 once

Repeat Rhy. Fig. 4 once

Repeat Rhy. Fig. 2 twice



Note in parantheses is only played fourth time

P.M. -------|   P.M. -------|   P.M. -------| Play 4 times
||-----------------------------------------------------------||
||-----------------------------------------------------------||
||*---------------------------------------------------------*||
||*-------------7---------------5---------------7---7-----5-*||
||--5/7---------7---5/7---------5---5/7---------7---5-----3--||
||--3/5-5-5---5-----3/5-5-5---5-----3/5-5-5(5)5--------------||



Gtr. 2 only plays notes in parantheses first time

P.M. ---|   -|   P.M. ------|     P.M. ---|   -|     -----------|
||----------------------------------------------------------------------||
||-------------------3-3------------------------------------------------||
||*-2-2-2----------------5------------2-2-2------------2-0-------------*||
||*--------0-2-5--0---------0--0-2-5---------0-2-5--0------2-1-0-------*||
||-(7\)----------------------------------------------------------4-3-2--||
||-(5\)-----------------------------------------------------------------||



Gtr. 1
P.M. ---|   -|   P.M. ------|     P.M. ---|   -|
||------------------------------------------------------------------------||
||------------------3-3---------------------------------------------------||
||-2-2-2----------------5------------2-2-2------------2---0h2-------------||
||-------0-2-5--0---------0--0-2-5---------0-2-5--0-----------2-1-0-------||
||------------------------------------------------------------------3-2-1-||
||------------------------------------------------------------------------||

| Gtr. 2                                                                   |
||------------------------------------------------------------------------||
||------------------------------------------------------------------------||
||-5-5-------------------------------5-5----------------------------------||
||------------------------------------------------------------------------||
||------------------------------------------------------------------------||
||------------------------------------------------------------------------||
Gtr. 1                                  Gtr. 3 enters second time
||-----------------------------------------------------------------||
||-----------------------------------------------------------------||
||*-2-------4---5-----------4---5--------------------------/5---4-*||
||*-----------------3-----------------------0---1---2-------------*||
||----------------------------------3------------------------------||
||-----------------------------------------------------------------||

| Gtr. 2                                                            |

||-----------------------------------------------------------------||
||-----------------------------------------------------------------||
||*---------------------------------------------------------------*||
||*-2-------------------------------5-----------------------------*||
||--0---------------3---------------3---------------2--------------||
||------------------1-------------------------------0--------------||

| Gtr. 3                                                            |

||-----------------------------------------------------------------||
||---------------------------------------------------------/5---3--||
||-----------------------------------------------------------------||
||-----------------------------------------------------------------||
||-----------------------------------------------------------------||
||-----------------------------------------------------------------||

Gtr. 1
||-----------------------------------------------------------------||
||-----------------------------------------------------------------||
||*-2-------4---5-----------4---5--------------------------/5---4-*||
||*-----------------3-----------------------0---1---2-------------*||
||----------------------------------3------------------------------||
||-----------------------------------------------------------------||

| Gtr. 2                                                            |

||-----------------------------------------------------------------||
||-----------------------------------------------------------------||
||*---------------------------------------------------------------*||
||*-2-------------------------------5-----------------------------*||
||--0---------------3---------------3---------------2--------------||
||------------------1-------------------------------0--------------||

| Gtr. 3                                                            |

||-----------------------------------------------------------------||
||----------3---5-----------3---5--------------------------/5---3--||
||*-5---------------2---------------0-----------0---2-------------*||
||*-----------------------------------------4---------------------*||
||-----------------------------------------------------------------||
||-----------------------------------------------------------------||



P.M. -----------------------------|
||---------------------------------||
||---------------------------------||
||---------------------------------||
||--7-7---------5-5---------2-2-2--||
||--------5-5---------3-3----------||
||---------------------------------||



Gtr. 1

P.M. ---|   -|   P.M. -------|    P.M. ---|   -|
||-----------------------------------------------------------------------||
||-----------------------------------------------------------------------||
||--2-2-2------5-----7-7-5----------5-2-2-2------5-----7-7-5----------5^-||
||--2-2-2------5-----7-7-5----------5-2-2-2------5-----7-7-5-------------||
||--0-0-0--5-7----7---------5-7-5-7---0-0-0--5-7----7-----------7p5h7----||
||-----------------------------------------------------------------------||

| Gtr. 2                                                                  |

||-----------------------------------------------------------------------||
||-----------------------------------------------------------------------||
||-----------------------------------------------------------------------||
||-----------------------------------------------------------------------||
||--7-7-7--\--------------------------7-7-7--\---------------------------||
||--5-5-5--\--------------------------5-5-5--\---------------------------||



Repeat Rhy. Fig. 5 once

Repeat Rhy. Fig. 2 once

Repeat Rhy. Fig. 3 once

Repeat Rhy. Fig. 2 once

Repeat Rhy. Fig. 3 once

Repeat Rhy. Fig. 4 once
P.M. ---| P.M. -----|
||-------------|---------------------------------|-------------||
||-------------|---------------------------------|-------------||
||------5------|---------------------------------|-------------||
||--2---3---7--|--------5-----------5---7-7-7-7--|--2-------7--||
||--0-------5--|--0-3---3---0-3-3---3---5-5-5-5--|--0---3---5--||
||-------------|---------------------------------|------1------||

P.M. ---| P.M. -----|           P.M. ---| P.M. -----|

||-----------------------------------------------------------------||
||-----------------------------------------------------------------||
||*---------------------------------------------------------------*||
||*-------5-----------5---7-7-7-7---------5-----------5---7-7-7-7-*||
||--0-3---3---0-3-3---3---5-5-5-5---0-3---3---0-3-3---3---5-5-5-5--||
||-----------------------------------------------------------------||

7. am I evil?

||---||-----------------|----------------|---------------------|
||-4-||-----------------|----------------|---------------------|
||---||-9-----------7-9-|-10----------12-|-9---9-9-9-9---9-9-9-|
||-4-||-9-----------7-9-|-10----------12-|-9---9-9-9-9---9-9-9-|
||---||-7-----------5-7-|-8-----------10-|-7---7-7-7-7---7-7-7-|
||---||-----------------|----------------|---------------------|

   |   |     |     |       |   |     |   |       |   |     |	 |
 
 |-----------------------|---------------------|-----------------------|
 |-----------------------|---------------------|-----------------------|
 |-9---9-9-9-7-7-7-7-7-7-|-9---9-9-9-9---9-9-9-|-9---9-9-9-7-7-7-7-7-7-|
 |-9---9-9-9-7-7-7-7-7-7-|-9---9-9-9-9---9-9-9-|-9---9-9-9-7-7-7-7-7-7-|
 |-7---7-7-7-5-5-5-5-5-5-|-7---7-7-7-7---7-7-7-|-7---7-7-7-5-5-5-5-5-5-|
 |-----------------------|---------------------|-----------------------|
					       |
					       |
   					       | Gtr 2 : Distorted
					       | ( Trem Strum ) 
					       |-----------------------|
					       |-----------------------|
 					       |-----------------------|
					       |-14-\------------------|
					       |-14-\------------------|
					       |-12-\------------------|

  
Gtr 1 doubles Gtr 2

  |   |     |   |       |   |     |     |       |   |     |   |

|---------------------|-----------------------|---------------------|
|---------------------|-----------------------|---------------------|
|*--------------------|-----------------------|---------------------|
|-2-------------------|-----------9-9-9-9-9-9-|-8-------------------|
|*2-------------------|-----------9-9-9-9-9-9-|-8-------------------|
|-0-------------------|-----------7-7-7-7-7-7-|-6-------------------|


 
  |   |     |     |       |   |     |   |       |   |     |     |    

|-----------------------|---------------------|-----------------------|
|-----------------------|---------------------|-----------------------|
|----------------------*|---------------------|-----------------------|
|-----------3-3-3-3-3-3-|-2-------------------|-----------9-9-9-9-9-9-|
|-----------3-3-3-3-3-3*|-2-------------------|-----------9-9-9-9-9-9-|
|-----------1-1-1-1-1-1-|-0-------------------|-----------7-7-7-7-7-7-|



  |   |     |   |       |   |     |        |          |   |     |   |

|---------------------|-----------------------------|---------------------|
|---------------------|-----------------------------|---------------------|
|---------------------|-----------10-10-10-10-10-10-|-9-------------------|
|-8-------------------|-----------10-10-10-10-10-10-|-9-------------------|
|-8-------------------|-----------8--8--8--8--8--8--|-7-------------------|
|-6-------------------|-----------------------------|---------------------



  |   |     |     |       |   |     |   |       |   |     |     |

|-----------------------|---------------------|-----------------------|
|-----------------------|---------------------|-----------------------|
|-----------------------|---------------------|-----------------------|
|-----------9-9-9-9-9-9-|-8-------------------|-----------3-3-3-3-3-3-|
|-----------9-9-9-9-9-9-|-8-------------------|-----------3-3-3-3-3-3-|
|-----------7-7-7-7-7-7-|-6-------------------|-----------1-1-1-1-1-1-|



  |   |     |   |       |   |     |     |       |    |     |   |
   
|---------------------|-----------------------|----------------------|
|---------------------|-----------------------|----------------------|
|---------------------|-----------------------|*---------------------|
|-2-------------------|-----------7-7-7-7-7-7-|-/9---9-9-9-9---9-9-9-|
|-2-------------------|-----------5-5-5-5-5-5-|*/7---7-7-7-7---7-7-7-|
|-0-------------------|-----------------------|----------------------|


                        Gtr 1 : Grad rit.

  |   |     |     |       |   |   |   |      |   |   |   |
	(Repeat 3 times)
                                  ~~             ~~      ~~
|-----------------------|------------------|-------------------|
|-----------------------|------------------|-------------------|
|----------------------*|------------------|-------------10----|
|-9---9-9-9-7-7-7-7-7-7-|------------------|-----9---8---------|
|-7---7-7-7-5-5-5-5-5-5*|-------------8----|-7-----------------|
|-----------------------|-0---7---6--------|-------------------|


  ~~                                  
|------------------------------------|
|------------------------------------|
|-9---10---/12---/14-----/16---------|
|------------------------------------|
|------------------------------------|
|------------------------------------|



Gtr 2 : Intro solo. (See comments at end)

   HH  HH  HH  HH  HH  HH  HH  HH    HH  HH  HH  HH  HH  HH  HH  HH
|---------------------------------|---------------------------------|
|-058-058-058-058-058-058-058-058-|-047-047-047-047-047-047-047-047-|
|---------------------------------|---------------------------------|
|---------------------------------|---------------------------------|
|---------------------------------|---------------------------------|
|---------------------------------|---------------------------------|


							(Hold last note..)
   HH  HH  HH  HH  HH   HH   HH  HH    HH  HH  HH  HH  HH  HH  HH
|-----------------------------------|---------------------------------|
|-058-058-058-058-0710-0710-058-058-|-047-047-047-047-047-047-047-----|
|-----------------------------------|---------------------------------|
|-----------------------------------|---------------------------------|
|-----------------------------------|---------------------------------|
|-----------------------------------|---------------------------------|


  A   A   A   A   A   A Wh~~~~~~
|-------------------------------|
|-------------------------------|
|-------------------------------|
|-----5-------------------------|
|-5-----------5-------7---------|
|---------5-------7-------------|



"One, Two"		(Repeat Main Riff 8 times before verse)

                      PM---|  PM-|  PM---|

           	    |   |   |  |    |   |   |  |
Main Riff :       |------------------------------|
		  |------------------------------|
		  |*----------------------------*|
		  |---------------2---------3--2-|
		  |*2-2-2-2-5-2-2-0-2-2-2---1--0*|
		  |-0-0-0-0-3-0-0---0-0-0--------|	

(Main Riff with verse 1)

Verse 1 : (Lyrics)

		My mother was a witch, she was burned alive.
		Thankless little bitch, for the tears i've cried.
		Take her down now, don't want to see her face.
		All blistered and burned, can't hide my disgrace.


		      PM---|  PM-|  PM---|

		    |   |   |  |    |   |   |  |
Pre-Chorus riff : |------------------------------|
		  |------------------------------|
		  |*----------------------------*|
		  |---------7-----9---------10-9-|
		  |*7-7-7-7-5-7-7-7-7-7-7---8--7*|
		  |-5-5-5-5---5-5---5-5-5--------|

(Pre-Chorus riff x 4 with Pre-Chorus)

Pre-Chorus : (Lyrics)

		Twenty-seven, every one is nice,
		Gotta see 'em, make 'em pay the price,
		See the bodies out on the ice,
		Take my time.......


(Main Riff x 4 with Chorus)

Chorus : (Lyrics)

		Am I Evil?
		Yes I am,
		Am I Evil?
		I am that, yes I am....


			*******Main Riff x 2*******

(Main Riff x 8 with verse 2)

Verse 2 : (Lyrics)

		As i watched my mother die, I lost my head,
		Revenge now I sought, to break with my bread,
		Taking no chances, you come with me,
		I split you to the bone, help set you free.


(Pre-chorus riff x 4 with pre-chorus)

(Main Riff x 4 with chorus)



Bridge : 

		|------------------|------------------------------|
		|------------------|------------------------------|
		|*9-----7-----5---*|------------------------------|
		|-9-----7-----5----|---------------2---------3--2-|
		|*7-----5-----3---*|-2-2-2-2-5-2-2-0-2-2-2---1--0*|
		|------------------|-0-0-0-0-3-0-0---0-0-0--------|


               (Repeat 3 times)

	. |   |   |   |      |   |     |  |       |   |   |   |    
						    ~~~~~~~~~~~
	|------------------|--------------------|------------------|
	|------------------|--------------------|------------------|
	|*9-----7-----5---*|-9-----11-----12----|------------------|
	|-9-----7-----5----|-9-----11-----12----|------------------|
	|*7-----5-----3---*|-7-----9------10----|--/7--------------|
	|------------------|--------------------|------------------|



Double Time feel : 


	
				      _______________________________________
Fast Riff 1:			      |1.

  |   |   |   |      |   |   |   |      |   |   |   |      |   |   |   |

     PM-|    PM-|       PM-|               PM-|    PM--|      PM-|
|------------------|------------------|------------------|------------------|
|------------------|------------------|------------------|------------------|
|*-----------------|------------------|------------------|-----------------*|
|------------------|-------------7----|------------------|---------5--------|
|*7--7777-7--7777--|-7--7777-5---5----|-7--7777-7--7777--|-7--7777-3---5---*|
|-5--5555-5--5555--|-5--5555-3--------|-5--5555-5--5555--|-5--5555-----3----|


_____________________________________
|2.					Fast Riff 2 : (Note : Lyrics)

  |   |   |   |      |   |   |   |      |   |   |   |     |   |   |   | 

     PM-|    PM--|			PM------------------------|
|------------------|-----------------||-----------------|-----------------|
|------------------|-----------------||-----------------|-----------------|
|------------------|-----------------||*----------------|-----------------|
|------------------|-----------------||-----------------|------------7----|
|-7--7777-7--7777--|-----------------||*2--2222-2-2222--|-2--2222-2--5----|
|-5--5555-5--5555--|-555-555-555-532-||-0--0000-0-0000--|-0--0000-0-------|
   		   |   Triplets      |


  |   |   |   |     |   |   |   |   

  PM-------------------------|
|-----------------|-----------------|	
|-----------------|-----------------|
|-----------------|----------------*|    Repeat whole sequence again.
|-----------------|------------7-7--|
|-2--2222-2-2222--|-2--2222-2--5-5-*|
|-0--0000-0-0000--|-0--0000-0-------|



(With Fast Riff 2 [First repeat])

Lyrics : 


(With Fast Riff 2 [Second repeat])

Lyrics :







		*******Then Fast Riff 1 x 1*******



  |   |   |   |      |   |   |   |      |   |   |   |

|------------------|------------------|------------------|
|------------------|------------------|------------------|
|------------------|------------------|------------------|
|-2----------------|------------------|-5-------7--------|
|-2----------------|------------------|-5-------7--------|
|-0----------------|------------------|-3-------5--------|


GUITAR SOLO:

	
For the solo, the rhythm follows the following 'feel':

          X       X         X       X           
	|-X--XXXX-X-XXXX--|-X--XXXX-X-XXXX--|

	Chord changes are noted above tab lines, and are 2 or 3 fingered power
chords, depending on what you feel like. For the 'XX' notes, strike the
full chord, on the others just play the lowest note (Usually the E string)

  B5
  
  |  |||| |  | |||    |    | ||| |   | || |    
  @  @@@@ @  @ @@@    @    @ @@@ @   @ @@ @   
      (Full)    P                               
|-----------7-------|----------------11-12--|
|------------10-7-7/|/12-----------12-------|
|-9^^^^^^^^^--------|-----------------------|
|-------------------|-----------------------|
|-------------------|-----------------------|
|-------------------|-----------------------|



  |       |  |  |  |     |     |  |  |  |    |    |||| |   ||||
  @       @  @  @  @     @     @  @  @  @    @    @@@@ @   @@@@
    H  P       H  H        P  P     P  P
|-11-12-11---11-12-14-14-14-12-11-12-11----|-----------------7---|
|---------12----------------------------12-|-10---------/7-------|
|------------------------------------------|---------------------|
|------------------------------------------|---------------------|
|------------------------------------------|---------------------|
|------------------------------------------|---------------------|



  |  ||||  |     |   | |  |     |    | || | |     ||||
  @  @@@@  @     @   @ @  @     @    @ @@ @ @     @@@@
            H P                   P       P   P 
|-10-9--7--7-9-7-----7--------|--------------------------|
|----------------10----10-7---|-10-7---7-----------------|
|-----------------------------|------9---9-7-9-7---7---7-|
|-----------------------------|------------------9-------|
|-----------------------------|--------------------------|
|-----------------------------|--------------------------|



  |    ||  | | |    | | | |     |    ||  | | |    | | | | 
  @    @@  @ @ @    @ @ @ @     @    @@  @ @ @    @ @ @ @
 (Full)                        (Full)
|-----7-----------------------|-----7-----------------------|
|-----7-10-7---7--------------|-----7-10-7---7--------------|
|-9^^--------9---9-7-7------7-|-9^^--------9---9-7-7------7-|
|-----------------------------|-----------------------------|
|-----------------------------|-----------------------------|
|-----------------------------|-----------------------------|




  |    ||  | | |    | | | |      |      | | | |   |   | | | |
  @    @@  @ @ @    @ @ @ @      @      @ @ @ @   @   @ @ @ @
 (Full)
|-----7-----------------------|-/19--/20---/22---/24----------|
|-----7-10-7---7--------------|-------------------------------|
|-9^^--------9---9-7-7------7-|-------------------------------|
|-----------------------------|-------------------------------|
|-----------------------------|-------------------------------|
|-----------------------------|-------------------------------|



  E5
  |      | |  |  |  |      | |  |  |    |      | |  |  |  |      | |  |  |
  @      @ @  @  @  @      @ @  @  @    @      @ @  @  @  @      @ @  @  @
    P  P              P  P                P  P              P  P
|-15-14-12----12-14-15-14-12----12-14-|-15-14-12----12-14-15-14-12----12-14-|
|----------15----------------15-------|----------15----------------15-------|
|-------------------------------------|-------------------------------------|
|-------------------------------------|-------------------------------------|
|-------------------------------------|-------------------------------------|
|-------------------------------------|-------------------------------------|




  |     | | | |  |     | | | |     |     | | | |  |     | | | | 
  @     @ @ @ @  @     @ @ @ @     @     @ @ @ @  @     @ @ @ @

|-15---14---12--------12---------|--------------------------------|
|----------------15--------15----|-14---12---14-------------------|
|--------------------------------|----------------12======--------|
|--------------------------------|--------------------------------|
|--------------------------------|--------------------------------|
|--------------------------------|--------------------------------|



  B5
  |  | | | | |   | | | |    |    | | | |  |   | | | |
  @  @ @ @ @ @   @ @ @ @    @    @ @ @ @  @   @ @ @ @
 (Full) P     P      P        P      P     P     P
|------7-0-0-9-0-0-10-0-0-|-12-0-0-10-0-0-9-0-0-7-0-0-|
|----7--------------------|---------------------------|
|-9^----------------------|---------------------------|
|-------------------------|---------------------------|
|-------------------------|---------------------------|
|-------------------------|---------------------------|

  |    | | | | |   | | | |      |   | | | | |   | | | |
  @    @ @ @ @ @   @ @ @ @      @   @ @ @ @ @   @ @ @ @ 

|-10---9---7--------7---------|----------------------------|
|--------------10-------10----|-9---7---9------------------|
|-----------------------------|-------------7======\-------|
|-----------------------------|----------------------------|
|-----------------------------|----------------------------|
|-----------------------------|----------------------------|

 
  |  |||| |  ||||   |  |||| |  ||||   |  |||| |  ||||   |  |||| |  ||||
  @  @@@@ @  @@@@   @  @@@@ @  @@@@   @  @@@@ @  @@@@   @  @@@@ @  @@@@
   HH  HH  HH  HH    HH  HH  HH  HH    HH  HH  HH  HH    HH  HH  HH  HH
|-----------------|-----------------|-----------------|-047-047-047-047-|
|-047-047-047-047-|-058-058-058-058-|-047-047-047-047-|-----------------|
|-----------------|-----------------|-----------------|-----------------|
|-----------------|-----------------|-----------------|-----------------|
|-----------------|-----------------|-----------------|-----------------|
|-----------------|-----------------|-----------------|-----------------|



                                      A5
  |  |||| |  ||||   |  |||| |  ||||   |   ||||  |   ||||
  @  @@@@ @  @@@@   @  @@@@ @  @@@@   @   @@@@  @   @@@@
   HH  HH  HH  HH    HH  HH  HH  HH   T PP T PP T PP T PP
|-058-058-058-058-|-047-047-047-047-|-1285-1285-1285-1285-|
|-----------------|-----------------|---------------------|
|-----------------|-----------------|*-------------------*|
|-----------------|-----------------|---------------------|
|-----------------|-----------------|*-------------------*|
|-----------------|-----------------|---------------------|



  F5                    A#5                   F#5
  |   ||||  |   ||||    |   ||||  |   ||||    |   ||||  |   ||||
  @   @@@@  @   @@@@    @   @@@@  @   @@@@    @   @@@@  @   @@@@
  T PP T PP T PP T PP   T PP T PP T PP T PP   T PP T PP T PP T PP 
|-1385-1385-1385-1385-|-1396-1396-1396-1396-|-1496-1496-1496-1496-|
|---------------------|---------------------|---------------------|
|*-------------------*|*-------------------*|---------------------|
|---------------------|---------------------|---------------------|
|*-------------------*|*-------------------*|---------------------|
|---------------------|---------------------|---------------------|




  B5
  |    || | | |    || | |   |  |||| |  ||||   |  |||| |  ||||
  @    @@ @ @ @    @@ @ @   @  @@@@ @  @@@@   @  @@@@ @  @@@@
  T P P T P P T P P T P P    HH  HH  HH  HH    HH  HH  HH  HH
|-14107-14107-14107-14107-|-047-----047-----|-047-----047-----|
|-------------------------|-----047-----047-|-----047-----047-|
|*-----------------------*|-----------------|-----------------|
|-------------------------|-----------------|-----------------|
|*-----------------------*|-----------------|-----------------|
|-------------------------|-----------------|-----------------|




  |  |||| |  ||||   |  |||| |  ||||   |  |||| |  ||||   |  |||| |  ||||
  @  @@@@ @  @@@@   @  @@@@ @  @@@@   @  @@@@ @  @@@@   @  @@@@ @  @@@@
   HH  HH  HH  HH    HH  HH  HH  HH    HH  HH  HH  HH    HH  HH  HH  HH
|-----------------|-----------------|-----------------|-----------------|
|-047-----047-----|-047-----047-----|-----------------|-----------------|
|-----047-----047-|-----047-----047-|-047-----047-----|-047-----047-----|
|-----------------|-----------------|-----047-----047-|-----047-----047-|
|-----------------|-----------------|-----------------|-----------------|
|-----------------|-----------------|-----------------|-----------------|



                                        E5
  |  |||| |  ||||   |  |||| |  ||||     |      | | |  |   |      | | |  |
  @  @@@@ @  @@@@   @  @@@@ @  @@@@     @      @ @ @  @   @      @ @ @  @
   HH  HH  HH  HH                         P  P     P  P     P  P     P  P
|-----------------|-------------------|-------------------------------------|
|-----------------|----------------12-|-1514-0-0-1715-0-0-1514-0-0-1715-0-0-|
|-----------------|-------------/14---|-------------------------------------|
|-047-----047-----|-------------------|-------------------------------------|
|-----047-----047-|-------------------|-------------------------------------|
|-----------------|-7\----------------|-------------------------------------|



  |      | | |  |   |      | | |  |     |        |  | | |    |    ||| |
  @      @ @ @  @   @      @ @ @  @     @        @  @ @ @    @    @@@ @
    P  P    P  P    P  P    P  P
|-------------------------------------|---------------------------------|
|-1514-0-0-1715-0-0-1514-0-0-1715-0-0-|-1514-0-1412-0-1210-0-109-0-97-0-|
|-------------------------------------|---------------------------------|
|-------------------------------------|---------------------------------|
|-------------------------------------|---------------------------------|
|-------------------------------------|---------------------------------|


                      B5
  |  ||||  |  ||||    |   |||| |    || ||    |    |||| |  ||||
  @  @@@@  @  @@@@    @   @@@@ @    @@ @@    @    @@@@ @  @@@@ 
                     (Full)      P                     (Full)
|-------------------|----------------------|------------10^====|
|-7-----------------|-10^------107---7-----|-------------------|
|-7-9-7---7---------|--------------9---9-7-|-9-7---7-----------|
|-------------------|----------------------|-----9-------------|
|-------------------|----------------------|-------------------|
|-------------------|----------------------|-------------------|

 
  |   || || |       || | |    |    || | |  |  | | | |       (END SOLO)
  @   @@ @@ @       @@ @ @    @    @@ @ @  @  @ @ @ @
              H  P    H  P     H P   H P    ~~~~~~~~
|-9----12-------------------|--------------------------|
|-----------10-12-10-8-10-8-|-7-8-7-5-6-5--3========---|
|---------------------------|--------------------------|
|---------------------------|--------------------------|
|---------------------------|--------------------------|
|---------------------------|--------------------------|


*******Fast Riff 1 x 2 ( Note : Only repeat the first section )*******

On fourth repeat, Gtr 2 plays:

               P
|------------------|
|------------------|
|------------------|
|-/777-777-777-75--|
|----------------7-|
|------------------|


*******Fast Riff 2 x 4*******

*******Fast Riff 1 x 4*******


(Triplet feel - not strict time)

                             _________________________
                             |1,2,3.      |4.
                              H   H P 
|------------------|----------------------|----------| 
|------------------|----------------------|----------|
|------------------|---------------------*|----------|
|-----9---7-7------|-7-7------------------|-7--------|
|-----7---5-5------|-5-5---------5-7-5---*|-5---7----|
|-0-0--------------|---------5-7-------7--|-----5----|




    PM---|  PM-|  PM---|       h   h
              (Repeat 6 times)
|----------------------------|-----------------|
|----------------------------|-----------------|
|*--------------------------*|-----------------|
|---------------2--------3-2-|-------------2---|
|*2-2-2-2-5-2-2-0-2-2-2--1-0*|---------5---2---|
|-0-0-0-0-3-0-0---0-0-0------|-5---5---3---0---|
8.	Helpless
Intro
  Double Time Feel Q=154
 4/4
  Gtrs I, II
                                     PM        PM|         PM
  Wx3          H    E. S +E  S S     E S S +E  E E S S +E  E
|------------|-------------------||---------------------------|
|------------|-------------------||o--------------------------|
|------------|-------------------||---------------------------|
|------------|------2--4-(4)-----||---------------------------|
|------------|------0--2-(2)-2p0-||o-4---4-(4)-2-4---4-(4)-2--|
|------------|-------------------||--2---2-(2)-0-2---2-(2)-0--|
                                  |-Rhy Fig 1

  1.,2.,3.                     4.
  PM        PM                  PM        PM
  E S S +E  E E. S +E  S S      E S S +E  E E. S +E  S S
|---------------------------||---------------------------||
|--------------------------o||---------------------------||
|---------------------------||---------------------------||
|-------------2--4-(4)------||--------------2--4-(4)-----||
|-4---4-(4)-2-0--2-(2)-2p0-o||--4---4-(4)-2-0--2-(2)-2p0-||
|-2---2-(2)-0---------------||--2---2-(2)-0--------------||
              end Rhy Fig 1-|

   Verse 1, 2
||--
||o-
||-- Rhy Fig 1 x8
||--
||o-
||--



 Pre-chorus
  Gtrs I, II
  F#5        D5         E5         F#5
  W          W          W          W
  |          |          |          |
  /          /          /          /
|----------|----------|----------|------|


  F#5        D5         E5(type 2) F#5  F#
  W          W          W          H    S S S S S S S S
  |          |          |          |    | | | | | | | |
  /          /          /          /    o / / / / / / /
|----------|----------|----------|-----------------------||


 Chorus
  Gtrs I, II
  S S S S S S S S S S S S S S E   S S S S S S S S S S S S S S E
|-------------------------------|-------------------------------|
|-------------------------------|-------------------------------|
|-----------------------------5-|-----------------------------5-|
|-7-7-7-7-7-7-7-7-7p5---------5-|-7-7-7-7-7-7-7-7-7p5---------5-|
|---------------------7-5-5-7---|---------------------7-5-5-7---|
|-------------------------------|-------------------------------|
|-Rhy Fig 2

                                                PM----|
                                                |3| |3|
  S S S S S S S S S S S S S S E   S S S S S S E E Q E Q
|-------------------------------|-----------------------|
|-------------------------------|-----------------------|
|-----------------------------5-|-----------------------|
|-7-7-7-7-7-7-7-7-7p5---------5-|-7-7-7-7-7-7-----------|
|---------------------7-5-5-7---|-------------0-5-5-7-7-|
|-------------------------------|---------------3-3-5-5-|
                                          end Rhy Fig 2-|

Rhy Fig 2

Rhy Fig 1


                           1.
  PM        PM|         PM--|         PM
  E S S +E  E E S S +E  E   E S S +E  E E. S +E  S S
|-------------------------|---------------------------||
|-------------------------|--------------------------o||
|-------------------------|---------------------------||
|-------------------------|-------------2--4-(4)------||
|-4---4-(4)-2-4---4-(4)-2-|-4---4-(4)-2-0--2-(2)-2p0-o||
|-2---2-(2)-0-2---2-(2)-0-|-2---2-(2)-0---------------||


  2.
 Rhy Fig 1 (last bar only)

Rhy Fig 1 x2


 7/8
                                          PM
  Q  Q  Q  E   Wx3           E. S +E  S S E E S S  4x
|------------|-----------||------------------------||
|------------|-----------||o----------------------o||
|------------|-----------||------------------------||
|------------|-----------||------------------------||
|-4----------|-----------||o----0-(0)-2p0---0-2p0-o||
|-2----------|-----------||--2------------2--------||


                 PM
    E. S +E  S S E E S S  4x
||------------------------||-|
||o----------------------o||-|
||------------------------||-|
||------------------------||-|
||o----2-(2)-4p2---2-4p2-o||-|
||--4------------4--------||-|


                 PM                           PM
    E. S +E  S S E E S S  4x     E. S +E  S S E E S S  4x
||------------------------||-||------------------------||
||o----------------------o||-||o----------------------o||
||------------------------||-||------------------------||
||------------------------||-||------------------------||
||o----3-(3)-5p3---3-5p3-o||-||o----5-(5)-7p5---5-7p5-o||
||--5------------5--------||-||--7------------7--------||


  Gtr II
               PM                     PM                     PM
  E. S +E  S S E E S S   E. S +E  S S E E S S   E. S +E  S S E E S S
|----------------------|----------------------|----------------------|
|----------------------|----------------------|----------------------|
|----------------------|----------------------|----------------------|
|----5-(5)-7p5---5-7p5-|----5-(5)-7p5---5-7p5-|----7-(7)-9p7---7-9p7-|
|-7------------7-------|-7------------7-------|-9------------9-------|
|----------------------|----------------------|----------------------|
|
| Gtr I
|              PM                     PM                     PM
| E. S +E  S S E E S S   E. S +E  S S E E S S   E. S +E  S S E E S S
|----------------------|----------------------|----------------------|
|----------------------|----------------------|----------------------|
|----------------------|----------------------|----------------------|
|----------------------|----------------------|----------------------|
|----3-(3)-5p3---3-5p3-|----3-(3)-5p3---3-5p3-|----5-(5)-7p5---5-7p5-|
|-5------------5-------|-5------------5-------|-7------------7-------|


                        4/4
               PM                     PM
  E. S +E  S S E E S S   E. S +E  S S E. S +E  S S
|----------------------|---------------------------|
|----------------------|---------------------------|
|----------------------|---------------------------|
|----7-(7)-9p7---7-9p7-|----5-(5)-7p5----7-(7)-9p7-|
|-9------------9-------|-7------------9------------|
|----------------------|---------------------------|
|
|              PM                     PM
| E. S +E  S S E E S S   E. S +E  S S E. S +E  S S
|----------------------|---------------------------|
|----------------------|---------------------------|
|----------------------|---------------------------|
|----------------------|---------------------------|
|----5-(5)-7p5---5-7p5-|----3-(3)-5p3----5-(5)-5p3-|
|-7------------7-------|-5------------7------------|


                 PM
   E. S +E   S S E. S +E  S S
|-----------------------------|
|-----------------------------|
|-----9-(9)-11p9----7-(7)-9p7-|
|-11-------------9------------|
|-----------------------------|
|-----------------------------|
|
|  E. S +E   S S E. S +E  S S
|-----------------------------|
|-----------------------------|
|-----------------------------|
|-----7-(7)--9p7----5-(5)-7p5-|
|--9-------------7------------|
|-----------------------------|


               |-3-|
  E. S +E  S S q q q   E E Q  E E +S  E.   W
|--------------------|-------------------|------||
|--------------------|-------------------|------||
|----5-(5)-7p5-------|-------------------|------||
|-7------------5-----|-------------------|------||
|--------------3-5-7-|-9--------5-(5)-7--|-9----||
|----------------3-5-|-7--------3-(3)-5--|-7----||
|
|              |-3-|
| E. S +E  S S q q q   E E Q  E E +S  E.   W
|--------------------|-------------------|------||
|--------------------|-------------------|------||
|--------------------|-------------------|------||
|----3-(3)-5p3-5-----|-------------------|------||
|-5------------3-5-7-|-9--------5-(5)-7--|-9----||
|----------------3-5-|-7--------3-(3)-5--|-7----||


  F#5                                         D5 A5    E5
  Gtr II
  E   E    Q    H               H             E. S +E  E
  |                                           |  |  |  |
  /                                           /  /  /  /

  Gtr I
  S S S S +E  E S S S S +E  E   S S S S +E  E E. S +E  E
|-----------------------------|--------------------------||
|-----------------------------|--------------------------||
|-----------------------------|--------------------------||
|-------7-(7)---------7-(7)---|-------7-(7)---7--------9-||
|-9p7---7-(7)-9-9p7---7-(7)-9-|-9p7---7-(7)-9-5--7-(7)-7-||
|-----9-------------9---------|-----9------------5-(5)---||


    F#5IX                                            D5 A5    E5
    |---3---|
    E   E   E    Q    +H               H             E. S +E  E
    |   |   |    |     |                             |  |  |  |
    /   /   /    /     /                             /  /  /  /

    S S   S   S +E  E  S S S S +E  E   S S S S +E  E E. S +E  E  3x
||-----------------------------------|---------------------------||
||o----------------------------------|--------------------------o||
||-----------------------------------|---------------------------||
||------------7-(7)----------7-(7)---|-------7-(7)---7--------9--||
||o-9p7-------7-(7)-9--9p7---7-(7)-9-|-9p7---7-(7)-9-5--7-(7)-7-o||
||--------9----------------9---------|-----9------------5-(5)----||


    Gtrs I, II
    S S S S +E  E S S S S +E  E   S S S S +E  E E. S +E  E  4x
||------------------------------|---------------------------||
||o-----------------------------|--------------------------o||
||------------------------------|---------------------------||
||--------7-(7)---------7-(7)---|-------7-(7)---7--------9--||
||o-9p7---7-(7)-9-9p7---7-(7)-9-|-9p7---7-(7)-9-5--7-(7)-7-o||
||------9-------------9---------|-----9------------5-(5)----||
 |-Rhy Fig 3                                  end Rhy Fig 3-|

   Bridge
    Gtrs I, II
|-Rhy Fig 4
    F#5  A5     B5   D5 E5   D5
    H    H      H    E. S +E E
    |    |      |    |  |  | |
    /    /      /    /  /  / /

    W           W
||------------|----------------|
||o-----------|----------------|
||------------|----------------|
||------------|----------------|
||o-----------|----------------|
||------------|----------------|


  F#5  A5     B5   E5(type 2)
  H    H      H    E. S +E E
  |    |      |    |  |  | |
  /    /      /    /  /  / /
|-----------|----------------|


  F#5  A5     B5   D5 E5   D5
  H    H      H    E. S +E E
  |    |      |    |  |  | |
  /    /      /    /  /  / /
|-----------|----------------|


  F#5  A5     B5   D5 E5   D5
  H    H      H    E. S +E E
  |    |      |    |  |  | |
  /    /      /    /  /  / /
|-----------|----------------|
               end Rhy Fig 4-|

  Gtrs I, II
    PM--------|                PM--------|
  E S S S S S S E. S +E  E   E S S S S S S E. S +E  E   Q  Q   Q  Q
|--------------------------|--------------------------|---------------|
|--------------------------|--------------------------|---------------|
|--------------------------|--------------------------|---------------|
|-6-------------7--9-(9)-7-|-6-------------7--9-(9)-7-|-6------7------|
|-4-4-4-4-4-4-4-5--7-(7)-5-|-4-4-4-4-4-4-4-5--7-(7)-5-|-4------5------|
|--------------------------|--------------------------|----1/-----1/--|
|-Rhy Fig 5

                   H.=H
                  3/4
                   PM----------------|
  Q  Q    Q  Q     S E S +S  E S +S  E.
|----------------|----------------------|
|----------------|----------------------|
|----------------|----------------------|
|-9------10------|----------------------|
|-7-------8------|-9-7------------------|
|----1/------1/--|-----9-(9)-8-7-(7)-5--|
                          end Rhy Fig 5-|

  A Tempo Q=154
 4/4
Rhy Fig 3 x3.5


 1.                              2.
  S S S S +E  E E.  S +E   E      S S S S +E  E E. S +E  E
|-----------------------------||----------------------------||
|----------------------------o||----------------------------||
|-----------------------------||----------------------------||
|-------7-(7)---7----------9--||--------7-(7)---7--------9--||
|-9p7---7-(7)-9-5---7-(7)--7-o||--9p7---7-(7)-9-5--7-(7)-7--||
|-----9-------------5-(5)-----||------9------------5-(5)----||
|
| S S S S +E  E E.  S +Q          S S S S +E  E Q     Q
|-----------------------------||----------------------------||
|----------------------------o||----------------------------||
|-----------------------------||----------------------------||
|-------7-(7)---7-------------||--------7-(7)---------------||
|-9p7---7-(7)-9-5------------o||--9p7---7-(7)-9-x\----x\----||
|-----9------------/9-(9)\----||------9---------x\----x\----||


    Gtrs I, II
    PM        PM|         PM-
    E S S +E  E E S S +E  E
||--------------------------|
||o-------------------------|
||--------------------------|
||--------------------------|
||o-4---4-(4)-2-4---4-(4)-2-|
||--2---2-(2)-0-2---2-(2)-0-|


 1.,2.,3.                      4.
 -|         PM                              PM----|
  E S S +E  E E. S +E  S S      S S S S Q   E E E E
|---------------------------||----------------------||
|--------------------------o||----------------------||
|---------------------------||----------------------||
|-------------2--4-(4)------||----------7\----------||
|-4---4-(4)-2-0--2-(2)-2p0-o||--9-9-9-9-9\--4-2-2-2-||
|-2---2-(2)-0---------------||--------------2-0-0-0-||


 Guitar Solo
w/Rhy Fig 1 x8
  Gtr III
   E    E    E    E  E    E    S      +S   E
|--------------------------------------------|
|-17b19-----17b19---17b19-----17pb19r(17)-14-|
|--------------------------------------------|
|--------------------------------------------|
|--------------------------------------------|
|--------------------------------------------|

                                         ~~~~~~~~~~~~~~~~
                                                     |----3----|
   E      +S   S  E      +S   S  E      +E     +E   +S    S    S
|----------------------------------------------------------------|
|-17pb19r(17)-14-17pb19r(17)-14-17b19==(17)---(17)-(17)r-17---14-|
|----------------------------------------------------------------|
|----------------------------------------------------------------|
|----------------------------------------------------------------|
|----------------------------------------------------------------|


   Q          +Q      Q          +Q
|-17b19======(17)r---17b19======(17)r---|
|---------------------------------------|
|---------------------------------------|
|---------------------------------------|
|---------------------------------------|
|---------------------------------------|


   Q          +E.    S  S   E.    +E   S  S
|-17pb19r====(17)---14-17--14----(14)-14-14-|
|-------------------------------------------|
|-------------------------------------------|
|-------------------------------------------|
|-------------------------------------------|
|-------------------------------------------|


   S  S  S  S  E     S     S  S  S  S  S  E     S     S
|-17p14----14-------------14-17-14----14-------------14-|
|-------17----17b19-17b19----------17----17b19-17b19----|
|-------------------------------------------------------|
|-------------------------------------------------------|
|-------------------------------------------------------|
|-------------------------------------------------------|


   S  S  S  S  E     S     S  S   S  S  S  E     S     S
|-17p14----14-------------14-17--14----14-------------14-|
|-------17----17b19-17b19-----------17----17b19-17b19----|
|--------------------------------------------------------|
|--------------------------------------------------------|
|--------------------------------------------------------|
|--------------------------------------------------------|


   |--3--|        |--3---|        |--3--|        |--3---|
   S  S  S  S  S  S   S  S  S  S  S  S  S  S  S  S   S  S  S  S
|-17p16p14----14-17p=16p14----14-17p16p14----14-17p=16p14----14-|
|----------17--------------17-------------17--------------17----|
|---------------------------------------------------------------|
|---------------------------------------------------------------|
|---------------------------------------------------------------|
|---------------------------------------------------------------|


   S     S  S  S  S     S  S     S  S     S  S  S  S     S  S  S
|-------14-14-14-------14-------14-------14-14-14-------14-14-14--|
|-17b19----------17b19----17b19----17b19----------17b19-----------|
|-----------------------------------------------------------------|
|-----------------------------------------------------------------|
|-----------------------------------------------------------------|
|-----------------------------------------------------------------|


   T  S.  S  S  T   S.  S  S  S     S  S  S  S   S  S  S
|-17p14-----14-17p=14------------------------------------|
|--------17------------17-14-------14-17-14--------------|
|----------------------------16b18----------16--14----16-|
|--------------------------------------------------16----|
|--------------------------------------------------------|
|--------------------------------------------------------|


         |---3---|
   S  S  S  S    S  S   S  S  S  S   S  S  S  S   S  S  S
|----------------------------------------------------------|
|----------------------------------------------------------|
|-14-14-14h16p==14-----------------------------------------|
|------------------16--14----14-16--14---------------------|
|-------------------------16-----------16-15-14S=12-14-12--|
|----------------------------------------------------------|


   S  S  S  S  E   S  S  +S   E    S  +E   E
|--------------------------------------------|
|--------------------------------------------|
|-------------14-----14-(14)-14---14-(14)-14-|
|-------------14-----14-(14)-14---14-(14)-14-|
|----12-14S16-----16-------------------------|
|-14-----------------------------------------|


   Q         Q       S   S      +E      Q
|----------------------------------------------|
|----------------------------------------------|
|-16b17-----16b17---16--14b15==(14)r-----------|
|-16b17-----16b17----------------------16\-----|
|----------------------------------------------|
|----------------------------------------------|


               |-3-|     |--3--|       |-3-|
  E    S S  E  S S S S S S S   S  S  S S S S
|--------------------------------------------|
|--------------------------------------------|
|-4b6==4-4--4--4-4-4-4-4-4-4---4--4--4-4-4-4-|
|--------------------------------------------|
|--------------------------------------------|
|--------------------------------------------|


                                     ~~~
  |-----6-----|  |-3--|
  S S S S S   S  S  S S S S S S S S  Q
|-------------------------------------------|
|-------------------------------------------|
|-4-4-4-4-4---4--4--4-4-4r4-4p2------2------|
|-------------------------------4-4---------|
|-------------------------------------------|
|-------------------------------------------|


  ~~~~~~~~~~~~~~~~~~~~~~~~~~~~~~~~~~~~~~~~~
                                            |---3---|
  Q      Q    Q      Q      Q      Q    E   S  S    S  S   S E
|-------------------------|--------------------------------------|
|-------------------------|----------------12-12---12-12h=14-0---|
|-xs=====xs===xs=====xs===|=xs=====xs===x/-----------------------|
|-------------------------|--------------------------------------|
|-------------------------|--------------------------------------|
|-------------------------|--------------------------------------|


w/Rhy Fig 4
   S  S  S  S  S  S  S  S  S  S  S  S  S  S  S  S
|-19p14----19p14----19p14-17p14----17p14----17p14-|
|-------17-------17-------------15-------15-------|
|-------------------------------------------------|
|-------------------------------------------------|
|-------------------------------------------------|
|-------------------------------------------------|


   S  S  S  S  S  S  S  S  S   S  S  S  S  S  S  S
|-17p12----17p12----17p12-15--14-12-----------------|
|-------15-------15-----------------15-14-12----12--|
|--------------------------------------------14-----|
|---------------------------------------------------|
|---------------------------------------------------|
|---------------------------------------------------|


   S  S  S  S  S  S  S  S  S  S  S  S  S  S  S  S
|-19p14----19p14----19p14-17p14----17p14----17p14-|
|-------17-------17-------------15-------15-------|
|-------------------------------------------------|
|-------------------------------------------------|
|-------------------------------------------------|
|-------------------------------------------------|


   S  S  S  S  S  S  S  S  S   S  S  S  S  S  S  S
|-17p12----17p12----17p12-15--14-12-----------------|
|-------15-------15-----------------15-14-12----12--|
|--------------------------------------------14-----|
|---------------------------------------------------|
|---------------------------------------------------|
|---------------------------------------------------|


   S  S  S  S  S  S  S  S  S  S  S  S  S  S  S  S
|-19p14----19p14----19p14-17p14----17p14----17p14-|
|-------17-------17-------------15-------15-------|
|-------------------------------------------------|
|-------------------------------------------------|
|-------------------------------------------------|
|-------------------------------------------------|


   S  S  S  S  S  S  S  S  S   S  S  S  S  S  S  S
|-17p12----17p12----17p12-15--14-12-----------------|
|-------15-------15-----------------15-14-12----12--|
|--------------------------------------------14-----|

|---------------------------------------------------|
|---------------------------------------------------|
|---------------------------------------------------|


   S  S  S  S  S  S  S  S  S  S  S  S  S  S  S  S
|-19p14----19p14----19p14-17p14----17p14----17p14-|
|-------17-------17-------------15-------15-------|
|-------------------------------------------------|
|-------------------------------------------------|
|-------------------------------------------------|
|-------------------------------------------------|


   S  S  S  S  S  S  S  S  S   S  S     S  S  S  S  S
|-17p12----17p12----17p12-15--12-------12-15-12--------|
|-------15-------15--------------15b17----------15-12--|
|------------------------------------------------------|
|------------------------------------------------------|
|------------------------------------------------------|
|------------------------------------------------------|


 w/Rhy Fig 5
   H                 S   S  S  S  S   S  S     S
|-------------------17--14----14-17--14-------14-|
|-17b19--------------------17-----------17b19----|
|------------------------------------------------|
|------------------------------------------------|
|------------------------------------------------|
|------------------------------------------------|


                      |-3--|
   Q          +E      E    S  S  S  S  S  S   S  S     S
|--------------------14---14-19p14-17p14-16--14-------14-|
|-17b19======(17)r------------------------------17b19----|
|--------------------------------------------------------|
|--------------------------------------------------------|
|--------------------------------------------------------|
|--------------------------------------------------------|


   S     S  S  S  S     S  S  S     S     S  S  S  S     S  S     S
|-------14-14-14-------14-14-------------15-15-15-------15-------15-|
|-17b19----------17b19-------17b19-18b20----------18b20----18b20----|
|-------------------------------------------------------------------|
|-------------------------------------------------------------------|
|-------------------------------------------------------------------|
|-------------------------------------------------------------------|


   S     S  S  S  S     S  S     S  S     S  S  S  S     S  S     S
|-------17-17-17-------17-------17-------18-18-18-------18-------18--|
|-20b22----------20b22----20b22----21b23----------21b23----21b23-----|
|--------------------------------------------------------------------|
|--------------------------------------------------------------------|
|--------------------------------------------------------------------|
|--------------------------------------------------------------------|


  H.=H                       A Tempo Q=154
 3/4                            4/4
                                   >
               ~~~~            |-w/Rhy Fig 1 (1st bar)
   Q          +H                  +Q       +H.
|-22b24======(22)------------||--(22)r====(22)---------------|
|----------------------------||o-----------------------------|
|----------------------------||------------------------------|
|----------------------------||------------------------------|
|----------------------------||o-----------------------------|
|----------------------------||------------------------------|


                                   F#5
                               Gtr II
                                   |-3-| |-3-|
  W                                Q Q Q Q Q Q
                                   | |   | |
                                   / /   / /

  Gtrs I, II                   Gtr I
  PM        PM                     PM|   PM|
                                   |-3-| |-3-|
  E S S +E  E E. S +E  S S  4x     Q Q Q Q Q Q
|---------------------------||-||--------------|
|--------------------------o||-||o-------------|
|---------------------------||-||--------------|
|-------------2--4-(4)------||-||--------------|
|-4---4-(4)-2-0--2-(2)-2p0-o||-||o-4-4---4-4---|
|-2---2-(2)-0---------------||-||--2-2---2-2---|


          E5(type 2)    F#5
  |-3-| |-3-|           |-3-| |-3-|
  Q Q Q Q Q Q           Q Q Q Q Q Q
  | |   | | |           | |   | |
  / /   / / /           / /   / /

  PM|   PM----------------|   PM|
  |-3-| |--3--|         |-3-| |-3-|
  Q Q Q Q Q E E  4x     Q Q Q Q Q Q
|----------------||-||---------------||
|---------------o||-||o-------------o||
|----------------||-||---------------||
|-------2-4------||-||---------------||
|-4-4---0-2-2p0-o||-||o-4-4---4-4---o||
|-2-2------------||-||--2-2---2-2----||
comments
We did not receive enough feedback on this tab! Please rate:
print report bad tab
1 2 3 4 5
1 comment total.
0 reply
andrew10134 wrote on December 25 2009, 01:49 pm

coming sooooooooooonnnnnnnn!!!!!!!!!!!

ONE LAST VISET DEMO ALBUM!!!!!!!!!!!!!

BE HAPPY

I want to post or [tab]
guest
You may want to rate the tab now too:
select rating
Please do not post tabs as comments. Select "correction" instead!