Oops, an error
Loading. Please wait.

S And M Bass Tab

3,223 views 1 this week
3 commentsread comments
1 2 3 4 5
accurate
x 4
Autoscroll
+/-
esc
set tempo
stop
Hey! There's an official Ultimate Guitar app which is ideal
for learning songs when you're away from computer. Get the app
WARNING: You are trying to view
                                    content from Ultimate-Guitar.com
                                    in an unauthorized application,
                                    which is prohibited.

                                    Please use an official Ultimate
                                    Guitar Tabs application for iPhone,
                                    iPad or Android to access legitimate
                                    chords, guitar, bass, and drum tabs
                                    from Ultimate-Guitar.com database.

                                    Type "ultimate guitar tabs" in Apple
                                    App Store's or Android Market's
                                    search to find the application.
Metallica
S&M
Disc 1

The call of ktulu

(0:05), (7:55)                 (1:01)
  Moderately Q=140
 4/4
  Gtr I
  Wx16           Wx16            H..       E   H.      +Q     4x
|-------------||-------------||--------------|-------------------|
|-------------||-------------||o-------------|---------------o---|
|-------------||-------------||o-0---------7-|-6-------(6)--o----|
|-------------||-------------||--------------|-------------------|


                                 <         <
    W          W         3x H    E E E E   E E E E E E Q
||-----------|-----------||--------------|------------------|
||o----------|-0--------o||--------------|------------------|
||o----------|----------o||------5-5-5-5-|-5-5-5-5-5-5-5----|
||-----------|-----------||--------------|------------------|


   (1:29, 1:56, 2:54, 2:51) With Distortion/Wah

    E E E E a Q.   E   E E E E E E Q    E E E E E E E E   E E E E E  E  +Q
||-------------------|----------------|---------9-9-9---|-----------------------|
||o-----7-5-5h7------|----------------|---------7-7-7---|-----------10-(10)-----|
||o-0-0------------7-|-6-6-6-6-6-7-7--|-0-0-0-0-0-0-0-7-|-6-6-6-6-6-------------|
||-------------------|----------------|-----------------|-----------------------|
    o                                           +     o

  E E E E a E E E E   E E E E E E Q     E E E E Q.   E   E E E E E E Q
|-------------------|-----------------|----------------|--------------------|
|-------5-5h7-5-7---|-----------------|-------5-7------|--------------------|
|-0-0-0-----------7-|-6-6-6-6-6-7-----|-0-0-0---0----7-|-6-6-6-6-6-7-7------|
|-------------------|-------------8--|----------------|---------------------|
                                              +      o

                           TP  TP                            TP  TP
  E E E E E E E E    E  E  Q   H      E E E E E E E E   E E  Q   Q.    E
|-----------------|-----------------|-----------------|-----17--17----17----|
|-0-0-0-0-0-0-0-0-|-12-12-15--17----|-0-0-0-0-0-0-0-0-|-0-0-15--15----15----|
|-----------------|-----------------|-----------------|---------------------|
|-----------------|-----------------|-----------------|---------------------|
                                                            +            o

                                      1.
  E E E E E E E E    Q   Q   Q.    E    S S  S S  S S  S S  S S  S S  S S  S S
|-----------------|------------------|-----------------------------------------|
|-0-0-0-0-0-0-0-0-|-15--17--19----19-|-20p0-19p0-17p0-19p0-17p0-15p0-17p0-15p0-|
|-----------------|------------------|-----------------------------------------|
|-----------------|------------------|-----------------------------------------|


   S S  S S  S S  S S  S S  S S  S S S S
|--------------------------------------------||
|-14p0-15p0-14p0-12p0-14p0-12p0-10p0-9p0----o||
|-------------------------------------------o||
|--------------------------------------------||


  2.
   S S  S S  S S  S S  S S  S S  S S  S S    S S  S S  S S  S S  S S  S S  S S  E
|-----------------------------------------|----------------------------------------||
|-20p0-19p0-20p0-19p0-20p0-19p0-20p0-19p0-|-17p0-19p0-17p0-19p0-17p0-15p0-14p0-14-o||
|-----------------------------------------|---------------------------------------o||
|-----------------------------------------|----------------------------------------||
                                            +

 3.
   E  E  E  E  E  E  E  E    E  E  E  E  E  E  Q
|----------------12----12-|-14-12-14-15-14-15-17-------|
|-12-14-15-14-15----15----|------------------------o---|
|-------------------------|------------------------o---|
|-------------------------|----------------------------|


  4.
   S  S  S  S  S  S  S  S  S S  S  S  S S  S  S
|-----------------------------------------------|
|-19p17-19p17-19p17-19p17-15p0-15p10-15p0-15p10-|
|-----------------------------------------------|
|-----------------------------------------------|


                           (3:19) Distorion/Wah Off
   TP TP     TP   TP
   |----3----|                                        |-3-|
   Q  Q     +Q   +H         E E E E E E E E   E E E E Q Q Q
|-----------------------||------------------|---------------|
|-15-17b19-(17)-(17)----||o-----------------|---------------|
|-----------------------||o---------0---2-3-|---------0-2-3-|
|-----------------------||--0-0-0-0---0-----|-1-1-1-1-------|
  +

                            |-3-|                                   |-3-|
  E E E E E E E E   E E E E Q Q Q         E E E E E E E E   E E E E Q Q Q
|-----------------|----------------||-||------------------|----------------|
|-----------------|---------------o||-||o-----------------|----------------|
|---------0---2-3-|-5-------3-2---o||-||o---------0---2-3-|---------0-2-3--|
|-2-2-2-2---0-----|---3-3-3-----3--||-||--0-0-0-0---0-----|-1-1-1-1--------|


                            |-3-|                                   |-3-|
  E E E E E E E E   E E E E Q Q Q         E E E E E E E E   E E E E Q Q Q
|-----------------|----------------||-||------------------|----------------|
|-----------------|---------------o||-||o-----------------|----------------|
|---------0---2-3-|-5-------3-2---o||-||o---------3---5-6-|---------3-5-6--|
|-2-2-2-2---0-----|---3-3-3-----3--||-||--3-3-3-3---3-----|-4-4-4-4--------|


                                     (4:00) With Distortion/Wah
                            |-3-|
  E E E E E E E E   E E E E Q Q Q     E E E E Q  E E   E E E E E E E E
|-----------------|----------------||----------------|------------------|
|-----------------|---------------o||-------5-7--7---|------------------|
|---------3---5-6-|-8-------6-5---o||-0-0-0--------7-|-6-6-6-6-6-7-7s9--|
|-5-5-5-5---5-----|---6-6-6-----6--||----------------|------------------|


  E E E E Q  E E   E E E E E E Q     E E E E Q  E E   E E E E E E E E
|----------------|-----------------|----------------|-------------------|
|-------5-7--7---|-----------5-5--|-------5-7--7---|--------------------|
|-0-0-0--------7-|-6-6-6-6-6-7-7--|-0-0-0--------7-|-6-6-6-6-6-7--------|
|----------------|-----------------|----------------|-------------8-7---|


  E E E E Q.   E   E E E E E E E E
|----------------|-----------------|
|---------7------|-----------------|
|-0-0-0-0-0----7-|-6-6-6-6-6-7-7-7-|
|----------------|-----------------|


  E E E E  E  E  E  E    E  E  E  E  E  E  E  E
|---------------------|-------------------------|
|-0-0-0-0-12-12-12-12-|-12-12-12-12-12-12-12-12-|
|---------------------|-------------------------|
|---------------------|-------------------------|


   E  E  E  E  E  E  E  E    E  E  E  E  E  E  E  E
|-------------------------|-------------------------|
|-12-12-12-12-12-12-12-12-|-12-12-12-12-12-12-12-12-|
|-------------------------|-------------------------|
|-------------------------|-------------------------|


   E  E  E  E  E  E  E  E    E  E  E  E  E  E  E  E
|-------------------------|-------------------------|
|-12-12-12-12-12-12-12-12-|-12-12-14-14-15-15-14-14-|
|-------------------------|-------------------------|
|-------------------------|-------------------------|


   E  E  E  E  E  E  E  E    E  E  E  E  E  E  E  E
|-------------------------|-------------------------|
|-12-12-12-12-12-12-12-12-|-12-12-12-12-12-12-12-12-|
|-------------------------|-------------------------|
|-------------------------|-------------------------|


  E E E E Q  E E   E E E E E E E E
|----------------|-----------------|
|-------5-7--7---|-----------------|
|-0-0-0--------7-|-6-6-6-6-6-7-7s9-|
|----------------|-----------------|


  E E E E Q  E E   E E E E E E Q     E E E E Q  E E   E E E E E E E E
|----------------|-----------------|----------------|-------------------|
|-------5-7--7---|-----------5-5--|-------5-7--7---|--------------------|
|-0-0-0--------7-|-6-6-6-6-6-7-7--|-0-0-0--------7-|-6-6-6-6-6-7--------|
|----------------|-----------------|----------------|-------------8-7---|


  E E E E Q.   E   E E E E E E E E
|----------------|-----------------|
|---------7------|-----------------|
|-0-0-0-0-0----7-|-6-6-6-6-6-7-7-7-|
|----------------|-----------------|


  E E E E  E  E  E  E    E  E  E  E  E  E  E  E
|---------------------|-------------------------|
|-0-0-0-0-12-12-12-12-|-12-12-12-12-12-12-12-12-|
|---------------------|-------------------------|
|---------------------|-------------------------|


   E  E  E  E  E  E  E  E    E  E  E  E  E  E  E  E
|-------------------------|-------------------------|
|-12-12-12-12-12-12-12-12-|-12-12-12-12-12-12-12-12-|
|-------------------------|-------------------------|
|-------------------------|-------------------------|


   E  E  E  E  E  E  E  E    E  E  E  E  E  E  E  E
|-------------------------|-------------------------|
|-12-12-12-12-12-12-12-12-|-12-12-12-14-14-15-15-14-|
|-------------------------|-------------------------|
|-------------------------|-------------------------|


   E  E  E  E  E  E  E  E    E  E  E  E  E  E  E  E    E  E  E  E  E  E  E  E
|-------------------------|-------------------------|-------------------------|
|-12-12-12-12-12-12-12-12-|-12-12-12-12-12-12-12-12-|-12-12-12-12-12-12-12-12-|
|-------------------------|-------------------------|-------------------------|
|-------------------------|-------------------------|-------------------------|


   (4:55)
    E E E E E E E E   E E E E E E E E   E E E E E E E E   E E E E E E Q
||------------------|-----------------|-----------------|----------------------|
||o-------5-7-5-7---|-----------------|-------5-7-5-7---|-----------5-5---o----|
||o-0-0-0---------7-|-6-6-6-6-6-7-----|-0-0-0---------7-|-6-6-6-6-6-7-7---o----|
||------------------|-------------8-7-|-----------------|----------------------|


  E E E E  E  E  E  E    E  E  S  S  S  S  S  S  S  S  S  S  S  S
|---------------------|-------------------------------------------|
|-0-0-0-0-12-12-12-12-|-12-12-10h12p10h12-10h12p10h12-10h12p10h12-|
|---------------------|-------------------------------------------|
|---------------------|-------------------------------------------|


  E E E E  E  E  E  E    Q   H         Q
|---------------------|-------------------|
|-0-0-0-0-12-12-12-12-|-12--14tr15----15--|
|---------------------|-------------------|
|---------------------|-------------------|


  E E E E  E  E  E  E    E  E  E  E  H
|---------------------|-------------12----|
|-0-0-0-0-12-12-12-12-|-14-14-15-15-------|
|---------------------|-------------------|
|---------------------|-------------------|


       T      T      T      T      T        T      T      T   T    T
  S S  S S S  S S S  S S S  S S S  S S   S  S S S  S S S  S S S  S S  Q
|-5h7-14p5h7-14p5h7-15p5h7-15p5h7-15p5h|=7-16p5h7-16p5h7-16p5h7-17p5-17---||
|--------------------------------------|----------------------------------||
|--------------------------------------|----------------------------------||
|--------------------------------------|----------------------------------||


   (5:23) Distortion/Wah Off
                              |-3-|                                   |-3-|
    E E E E E E E E   E E E E Q Q Q  4x     E E E E E E E E   E E E E Q Q Q  4x
||------------------|----------------||-||------------------|----------------||
||o-----------------|---------------o||-||o-----------------|---------------o||
||o-0-------0---2-3-|-0-------0-2-3-o||-||o-2-------2---4-5-|-2-------2-4-5-o||
||----0-0-0---0-----|---1-1-1--------||-||----2-2-2---2-----|---3-3-3--------||


                              |-3-|                                   |-3-|
    E E E E E E E E   E E E E Q Q Q  4x     E E E E E E E E   E E E E Q Q Q  4x
||------------------|----------------||-||------------------|----------------||
||o-----------------|---------------o||-||o-----------------|---------------o||
||o-3-------3---5-6-|-3-------3-5-6-o||-||o-5-------5---7-8-|-5-------5-7-8-o||
||----3-3-3---3-----|---4-4-4--------||-||----5-5-5---5-----|---6-6-6--------||


 (6:10)
  H..       E   W          H..       E   W
|-------------|----------|-------------|----------|
|-------------|----------|-------------|----------|
|-0---------7-|-6--------|-0---------7-|-6--------|
|-------------|----------|-------------|----------|


  H..       E   W          H..       E   W
|-------------|----------|-------------|------|
|-------------|----------|-------------|------|
|-0---------7-|-6--------|-0---------7-|-6----|
|-------------|----------|-------------|------|


  H..       E   W          H..       E   W          H..       E   W
|-------------|----------|-------------|----------|-------------|------|
|-------------|----------|-------------|----------|-------------|------|
|-0---------7-|-6--------|-0---------7-|-6--------|-0---------7-|-6----|
|-------------|----------|-------------|----------|-------------|------|


               1.,2.,3.     4.
    H    H      W            H    H      +W
||--7----7----|-----------||-----------|--------|
||o-----------|-0--------o||-0---------|--------|
||o-----------|----------o||-----------|--------|
||------------|-----------||------0----|-(0)----|


    E E E E +Q   Q    Q  Q  H      E E E E +Q   Q    Q  H.     4x
||------------------|------------|-----------------|-----------||
||o-----------------|------------|-----------------|----------o||
||o-----------------|----7--7----|-----------------|----7-----o||
||--3-2-2-2-(2)--3--|-0-----0----|-3-2-2-2-(2)--3--|-0--0------||


    E E E E +Q   Q    Q  Q  H      E E E E +Q   Q    Q  H.
||------------------|------------|-----------------|-----------||
||o-----------------|------------|-----------------|----------o||
||o-----------------|----7--7----|-----------------|----7-----o||
||--3-2-2-2-(2)--3--|-0-----0----|-3-2-2-2-(2)--3--|-0--0------||


                                                    1.
    E E E E +Q   Q    Q  Q  H      E E E E +Q   Q    Q  H.
||------------------|------------|-----------------|-----------||
||o-----------------|------------|-----------------|----------o||
||o-----------------|----7--7----|-----------------|----7-----o||
||--3-2-2-2-(2)--3--|-0-----0----|-3-2-2-2-(2)--3--|-0--0------||


  2.
  Q  H    E E   +Q   E E H      +W
|-------------|---------------|--------||
|-------------|---------------|--------||
|-------------|------5-5-5----|-(5)----||
|-0--0----2-2-|-(2)-----------|--------||


                         Slower Q=90 With Distortion/Wah
                                                      3/4
  Wx15          W           Q  Q  Q  Q    Q  Q  H      +H.
|-------------|----------||-------------|------------|--------|
|-------------|----------||-------------|------------|--------|
|-------------|----------||-5--3--5--1--|-5--8--5----|-(5)----|
|-------------|----------||-------------|------------|--------|


 4/4
                      TP
  Q  Q  Q  Q    Q  Q  H      H     E  E  E  E
|-------------|------------|------12S10S12S14S|
|-------------|------------|------------------|
|-5--3--5--1--|-5--8--5----|-5----------------|
|-------------|------------|------------------|


                             TP
   E  E  E  E  E  E  E  E    H     Q   Q
|-12S14S15-14S15-17S15S17S|=19----------------|
|-------------------------|-------------------|
|-------------------------|-------17----------|
|-------------------------|-------------------|


master of puppets

Intro
4/4
|----------|------------|-------------|------------|----------|--------|---------|
|----------|------------|-------------|------------|----------|--------|---------|
|----------|5---4---3---|(3)----------|------------|----------|--------|---------|
|0---------|------------|-------------|0-----------|----------|--------|-------1-|

||-------|------------|--------|---------||--------|------------|---------------|---------------|
||:------|------------|--------|--------:||--------|------------|---------------|---------------|
||-------|5---4---3---|--------|---------||--------|5---4---3---|---3-3-3-3-3-3-|3-3-3-3-3-3-3-3|
||-0-----|------------|--------|------1--||0-------|------------|---------------|---------------|

|----------------||----------|----------|----------|--------------------|
|----------------||:---------|----------|----------|----------------:---|
|3-3-3-3-3-3-3-3-||----------|----------|----------|--------------------|
|----------------||-0--------|----------|----------|32-0-32-0-32--------|
                                                     S     S     S

||-----------------|----------------|----------------|----------------|
||:----------------|----------------|----------------|----------------|
||-----2-----3-----|4-----3-----2-2-|----2-----3-----|4-----3-----2---|
||-0-1---0-1---0-1-|--0-1---0-1-----|0-1---0-1---0-1-|--0-1---0-1-----|

|-----------------|----------------|----------------|--------------------|
|-----------------|----------------|----------------|----------------:---|
|-----2-----3-----|4-----3-----2-2-|----2-----3-----|--------------------|
|-0-1---0-1---0-1-|--0-1---0-1-----|0-1---0-1---0-1-|32-0-32-0-32--------|
                                                      S     S     S

|-----------------|----------------|---------------------|
|-----------------|----------------|---------------------|
|-----------------|----------------|---------------------|
|32-0-32-0-32--|0---------------|---------------8--------|

Bass riff1                                            5/8
||-----------------|----------------|----------------|--------------|
||:----------------|----------------|----------------|----------:---|
||-----------------|----------------|----------------|--------------|
||-0-0-0-0-0-0-0-0-|0-3-5-0-65-3-5-|0-0-0-0-0-0-0-0-|0-3/5-3/5------| end of riff1
                       H     S   H

1st, 2nd, 3rd Verses
Bass riff1 X4

Bass riff2 X2                                       5/8
|----------------|----------------|----------------|------------|
|----------------|----------------|----------------|------------|
|----------------|----------------|----------------|------------|
|2-2-2-2-2-2-2-2-|2-5/7---87-5/7-|2-2-2-2-2-2-2-2-|2-5/7-5/7----| end of riff2

Pre-chorus
|----------------||----------------|---------------|----------------|----------------|
|----------------||----------------|---------------|----------------|--------1-------|
|----------------||7-------5---7---|---------------|3-3-3-3-3---2---|3-3-3-3-----2---|
|7-7-7-7-7-7-7-7-||--0-0-0---------|0------2-3-----|----------------|----------------|

                                                    ------------------   --------------
                                                    |1.2.             | |3.
||-----------------|---------------|----------------|-----------------||--------------|
||:----------------|---------------|----------------|--------1-------:||4-2-1---1-----|
||-7-------5---7---|---------------|3-3-3-3-3---2---|3-3-3-3-----2----||----------3-2-|
||---0-0-0---------|0------2-3-----|----------------|-----------------||--------------|

                                    Chorus           2/4      4/4
|----------------|----------------||----------------|--------|----------------|-----------------|
|----------------|----------------||----------------|--------|----------------|-----------------|
|----------------|----------------||----------------|--------|----------------|-----------------|
|0---0-----------|1---1-----------||0-----------0-0-|2-0-0-0-|3---3-3---3-3---|3-3-3-3-3-3-333--|
                                                      P
                  2/4      4/4                                                 2/4
|----------------|--------|----------------|----------------|-----------------|--------|
|----------------|--------|----------------|----------------|-----------------|--------|
|3---2-3-3-0-0-0-|2-0-0-0-|0---0-0---0-0---|(0)-------------|5----------------|5-------|
|----------------|--------|----------------|----------------|-----------3-3-3-|----0-0-|

4/4               2/4      4/4                                                 2/4
|----------------|--------|----------------|----------------|-----------------|--------|
|----------------|--------|----------------|----------------|-----------------|--------|
|3---3-3---3-3---|3-3-3---|----------------|----------------|-----------------|--------|
|----------------|--------|0---0-----------|1---1-----------|0----------0-0-0-|2-0-0-0-|
                                                                                P

 4/4                                                                  2nd time to Coda1
|----------------|----------------|----------------|----------------||3rd time to Coda2
|----------------|----------------|----------------|----------------||
|3---3-3---3-3---|3-3-2-2-0-0-----|----------------|----------------||
|----------------|------------3-3-|0---0-----------|1---1-----------||

                                                      -----------------   ------------------
                                                     |1.               | |2.
||-----------------|----------------|----------------|-----------------||--------------|
||:----------------|----------------|----------------|----------------:||--------------|
||-----2-----3-----|4-----3-----2-2-|----2-----3-----|4-----3-----2----||--------------|
||-0-1---0-1---0-1-|--0-1---0-1-----|0-1---0-1---0-1-|--0-1---0-1------||32-0-32-0-32--|
                                                                          S     S     S
                   D.S al Coda1           Coda1
|-----------------|                       |----------------|-------------------|
|-----------------|                       |----------------|-------------------|
|-----------------|                       |----------------|-------------------|
|32-0-32-0-32--|                       |----------------|----------------------|
  S     S     S

Interlude
 2/4      4/4         2/4                4/4                                              2/4
|--------|-----------|--------||--------|---------------|---------------|----------------|------|
|--------|--3 pause--|--------||--------|---------------|---------------|----------------|------|
|--------|-----------|--------||7-------|5--------------|3--------------|0-------2-------|6-----|
|--------|-----------|--------||--------|---------------|---------------|----------------|------|

Interlude riff1
             4/4                                                2/4
||---------|----------------|----------------|----------------|---------||
||:--9-9---|----------------|----------------|----------------|--------:||
||-7-----7-|5-----5-5-5---5-|3-3---333-3-0-3-|0-----0-2-220-2-|66660-6--||End of Interlude riff1
||---------|------------5---|----------------|----------------|---------||

Guitar solo1
            4/4                                                2/4
||---------|----------------|----------------|----------------|---------||
||:--9-----|----------------|----------------|----------------|--------:||
||-7---7-7-|5-----555-5-7-5-|3-3-----3-3-0-3-|0-----0-2-220-2-|66660-6--||
||---------|----------------|------33--------|----------------|---------||

Interlude riff1 X2

            4/4                                                2/4
||---------|----------------|----------------|----------------|---------||
||:--------|----------------|----------------|----------------|--------:||
||---------|----------------|----------------|----------------|6-6-6-6--||
||-0-0-0-0-|2-2-2-2-2-2-2-2-|3-3-3-3-3-3-3-3-|5-5-5-5-7-7-7-7-|---------||

  4/4                                                                     X6
||----------------|----------------||-----------------|-----------------||
||----------------|----------------||:----------------|----------------:||
||----------------|----------------||---------------44|--------------4--||
||0-0-0-0-0-0-0-0-|0-0-0-0-0-0-0-0-||-2-2-3-2-2-2-3---|2-2-3-2-2-2-3----||

||----------------|-----------------|----------------|----------------||
||----------------|-----------------|----------------|5-4-2-2-0-------||
||----------------|-----------------|----------------|----------4-2-0-||
||3---3---3-3-3-3-|(3)3-3---3-3-3---|2---2---2-2-2---|----------------||

Guitar solo2
Bass riff1 X4
Bass riff2 X2

|----------------||-----------------|----------------|----------------|-----------------||
|----------------||:----------------|----------------|----------------|----------------:||
|----------------||-----------------|------------2-2-|----------------|------------2----||
|7-7-7-7-7-7-7-7-||-0-0-1-0-0-1-0-0-|1-0-0-1-0-0-----|0-0-1-0-0-1-0-0-|1-0-0-1-0-0------||

                                                                      X4
|----------------|----------------|----------------|----------------||
|----------------|------------0-2-|4-5-------------|------0---------||
|----------------|------0-2-3-----|----3---------33|3-2-3---3-2-----||
|0-0-0-0-0-0-0-0-|0-2-3-----------|----------------|------------3-2-||

|----------------|----------------||-----------------|----------------|----------------|
|----------------|------0---------||:----------------|----------------|----------------|
|--------------33|3-2-3---3-2-----||-----------------|----------------|----------------|
|0---------------|------------3-2-||-0---------------|----------------|----------------|

                                    D.S. al Coda2      Coda2
|-----------------||----------------||                 ||-----------------|----------|
|----------------:||----------------||                 ||:----------------|----------|
|-----------------||----------------||                 ||-----------------|----------|
|32-0-32-0-32--||32-0-32-0-32-||                 ||-0-0-0-0-0-0-0-0-|0-3-5-0-65-3-5--|
  S     S     S      S     S     S                                            H     S   H

                  5/8       x8 4/4
|----------------|-----------||----------------|----------------|-------------------|
|----------------|----------:||----------------|----------------|-------------------|
|----------------|-----------||----------------|----------------|-------------------|
|0-0-0-0-0-0-0-0-|0-3/5-3/5--||----------------|32-0-32-0-32-|0---------------------|

of wolf and man

116 bpm (4/4) Intro:   (5)
   W||  E E E E E E E E  ||  W| (W)| (W)| (W)| (W)  |
g: R||                   ||   |    |    |    |      |
D: R||X                 X||X  |    |    |    |     X|
A: R||X                 X||X  |    |    |    |     X|
E: R||  0 R 0 R 0 R 0 R  ||  0| (0)| (0)| (0)| (0)  |

1ST VERSE
   E S S Q. Q Q.| Q Q. Q Q.| Q Q. Q Q.| Q Q. Q Q.| E S S Q. Q Q.| Q Q. Q Q.|
G:              |          |          |          |              |          |
D:              |          |          |          |              |          |
A:              |          |          |          |              |          |
E: 0 0 0 0  R 0 | R 0  R 0 | R 0  R 0 | R 0  R 0 | 0 0 0 0  R 0 | R 0  R 0 |

   Q Q. Q Q.| E S S E E E S S E E|  E S S E E E E E E| (E) E E E E E E E  |
G:          |                    |                   |                    |
D:          |                    |X                  |                   X|
A:          |                 2 1|X             2   1| (1)               X|
E: R 0  R 0 | 0 0 0 1 0 0 0 0    |  0 0 0 1 0 0   0  |     0 0 0 0 0 0 0  |

2ND AND 3RD VERSES                       (4)                     (2/4)
     E S S E E E E E E| (E) E E E E E E E  | E E E E E E E E| E E E E|
G:|                   |                    |                |        |
D:|X                  |                   X|                |        |
A:|X             2   1| (1)               X|                |   2   1|
E:|  0 0 0 1 0 0   0  |     0 0 0 0 0 0 0  | 0 R 0 R 0 R 0 R| 0   0  |

(4/4) CHORUS
   (E) E E E E E E E| E E E E E E E E| (E) E E E E E E E| E E E E E E E E|
G:                  |                |                  |                |
D:                  |                |                  |                |
A: (1) 1 1 1 1 1 1 1|           2   1| (1) 1 1 1 1 1 1 1|           4   3|
E:                  | 0 0 1 0 0   0  |                  | 0 0 1 0 0   0  |

   (E) E E E E E E E| E E E E E E E E| (E) E E E E E E E| E S S E E E S S E E|
G:                  |                |                  |                    |
D:                  |                |                  |                    |
A: (3) 3 3 3 3 3 3  |           4   3| (3) 3 3 3 3 3 3  |                    |
E:                 0| 2 2 3 2 0   0  |                 0| 2 2 2 3 2 2 2 2 3 2|


1-------------------------------------------------------
   E E E E E E  Q | E S S E E E E E E| (E) E E E E E E E| E S S E E E E E E|
G:                |                  |                  |                  |
D:                |                  |                  |                  |
A:                |             2   1| (1)              |             2   1|
E: 2 r 2 r 2 r 12| 0 0 0 1 0 0   0  |     0 0 0 0 0 0 0| 0 0 0 1 0 0   0  |

(1)----------------------           2-----------              (3)
    E  E S   S   S S E   E E   E   | E S S Q. Q E|  (E) Q. Q Q  | W| (W)|
G:                                 |             |              |  |    |
D:        /-         /-   /-   X|             |X            X|  |    |
A: (1)   5 H 7 P 5   5 H 7 5 H 7 X|          R 7|X (7)      7 X|  |    |
E:     0      -/  7               | 0 0 0 0  R  |      0  R    | 0| (0)|

GUITAR SOLO
     E S S E E E S S E S S| E S S E E E S S E S S| E S S E E E S S E S S|
G:|                       |                      |                      |
D:|X                      |                      |                      |
A:|X                      |                      |                      |
E:|  0 0 0 1 0 0 0 0 0 0 0| 0 0 0 1 0 0 0 0 0 0 0| 0 0 0 1 0 0 0 0 0 0 0|

   E E Q. E E E| E E E E E E E E| (E) E E E E E E E| E E E E E E E E|
G:             |                |                  |                |
D:             |                |                  |                |
A:             |           2   1| (1) 1 1 1 1 1 1 1| 1 1 1 1 1 4 1 3|
E: 3 R 3  1 R 1| 0 0 1 0 0   0  |                  |                |


   (E) E E E E E Q | E E E E E E E| E S S E E E E E E| (E) E S   S  S  S E   E E   E|
G:                 |              |                  |                              |
D:                 | *   *   *   *|                  |        /-         /-   /- |
A: (3) 3 3 3 3 3 3| 3 R 4 R 5 R 6|             2   1| (1)   5 H 7 P 5   5 H 7 5 H 7|
E:                 |              | 0 0 0 1 0 0   0  |     0      -/  7            |

   E S S E E E E E E| (E) E S   S  S  S E   E E   E| (H) E E S S E| (W)|
G:                  |                              |              |    |
D:                  |        /-         /-   /- |              |    |
A:             2   1| (1)   5 H 7 P 5   5 H 7 5 H 7| (7)          |    |
E: 0 0 0 1 0 0   0  |     0      -/  7            |     3 0 3 3 2| (2)|

INTERLUDE  (7) I FEEL ...
       (4)
   W||  (W)  | E S S Q. Q Q.| Q Q. Q Q.| Q Q. Q Q.| Q Q. Q Q.|  E S S E E S S E E  |
G:  ||       |              |          |          |          |                     |
D:  ||X     X|              |          |          |          |X                   X|
A:  ||X     X|              |          |          |          |X               4 3 X|
E: 0||  (0)  | 0 0 0 0  R 0 | R 0  R 0 | R 0  R 0 | R 0  R 0 |  2 2 2 3 2 2 2      |

                                 END OF 3RD CHORUS
   E E E E E E E| E E E E E E E | E S S E E E S S E E|
G:              |               |                    |
D: *   *   *   *| *   *   *   * |                    |
A: 3 R 4 R 5 R 6| 4 R 5 R 6 R 7|                    |
E:              |               | 2 2 2 3 2 2 2 2 3 2|


The thing that should not be

Tune down 1 whole step E string to D
                                                                  X 4 TIMES
|---|----------------|----------------||-----------------|-----------------||
|-4-|-----PAUSE------|----------------||:----------------|----------------:||
|-4-|----7-BEATS-----|----------------||-------1-------2-|------3----------||
|---|----------------|--------------0-||-0-1-2-------2---|----2---------0--||

||-----------------|-----------------||--------- ---- ---|----------------|
||:----------------|----------------:||--------- ---- ---|----------------|
||-------1-------2-|------3----------||--------- ---- ---|----------------|
||-0-1-2-----1-2---|--1-2-----1-2-0--||7-7-7-7-10-7-10---|6-3-3-3-6-3-6---|

|----------------|----------------|----------------|----------------|
|----------------|----------------|----------------|----------------|
|----------------|----------------|----------------|----------------|
|7-4-4-4-7-4-7---|4-1-1-1-1-1-1-1-|2---------------|--------------0-|

|----------------|----------------||
|----------------|----------------||
|----------------|----------------||
|2---------------|--------------0-||

1ST,2ND,3RD VERSES

|----------------|----------------|----------------|----------------|
|----------------|----------------|----------------|----------------|
|----------------|----------------|----------------|----------------|
|2---------------|--------------0-|2---------------|---------------0|

|----------------|----------------|----------------|----------------|
|----------------|----------------|----------------|----------------|
|------1-------2-|------3---------|------1-------2-|------3---------|
|0-1-2-------2---|----2---------0-|0-1-2-------2---|----2---------0-|

|----------------|----------------|----------------|----------------|
|----------------|----------------|----------------|----------------|
|----------------|----------------|----------------|----------------|
|2---------------|--------------0-|2---------------|--------------0-|

|----------------|----------------|--------- ---- ---|----------------|
|----------------|----------------|--------- ---- ---|----------------|
|------1-------2-|------3---------|--------- ---- ---|----------------|
|0-1-2-------2---|----2---------0-|7-7-7-7-10-7-10---|6-3-3-3-6-3-6---|

|----------------|----------------|--------- ---- ---|----------------|
|----------------|----------------|--------- ---- ---|----------------|
|----------------|----------------|--------- ---- ---|----------------|
|7-4-4-4-7-4-7---|4-1-1-1-1-1-1-1-|7-7-7-7-10-7-10---|6-3-3-3-6-3-6---|

|----------------|----------------|----------------|----------------|
|----------------|----------------|----------------|----------------|
|----------------|----------------|0-------1-------|----------------|
|7-4-4-4-7-4-7---|4-1-1-1-1-1-1-1-|----------------|5-6---5-6-0-0-0-|

|----------------|---|--------|---|----------------|----------------|
|----------------|-2-|--------|-4-|----------------|----------------|
|----------------|-4-|--------|-4-|0-------1-------|----------------|
|0-0-0-0-0-0-0-0-|---|5-6---5-|---|----------------|5-6---5-6-0-0-0-|

                                    2nd Time to Coda 1
                                    3rd Time to Coda 2
                                                   @
|----------------|---|--------|---|----------------|----------------|
|----------------|-2-|--------|-4-|----------------|----------------|
|----------------|-4-|--------|-4-|0-------1-------|--------0-------|
|0-0-0-0-0-0-0-0-|---|5-6---5-|---|----------------|1-------------0-|

||-----------------|-----------------||-----------------|-----------------||
||:----------------|----------------:||:----------------|----------------:||
||-------1-------2-|------3----------||-------1-------2-|------3----------||
||-0-1-2-------2---|----2---------0--||-0-1-2-----1-2---|--1-2-----1-2-0--||

Coda 1
@                                   Guitar Solo                X 4 Times
|----------------|----------------||-----------------|-----------------||
|----------------|----------------||:----------------|----------------:||
|--------0-------|----------------||-----------------|-----------------||
|1---------------|--------5-6---5-||-6-0-0-0-0-0-0-0-|0-0-0-0-5-6---5--||

|----------------|----------------|----------------|----------------|
|----------------|----------------|----------------|----------------|
|0-----0-10--1-0-|0-----0-310-1-0-|0-------1-------|0-----0-510-1-0-|
|--3-5-----3-----|--3-5-----------|----------------|--3-5-----------|

                                                         D.S. al Coda 2
                                                              X 4 Times
|----------------|----------------||-----------------|-----------------||
|----------------|----------------||:----------------|----------------:||
|0-------1-------|--------0-------||-------1-------2-|------3----------||
|----------------|1-------------0-||-0-1-2-----1-2---|--1-2-----1-2-0--||

Coda 2                                                  Repeat and Fade
|----------------|----------------||-----------------|-----------------||
|----------------|----------------||:----------------|----------------:||
|--------0-------|0-----0-510-1-0-||-----------------|-----------------||
|1---------------|--3-5-----------||-5-6---5-6-0-0-0-|0-0-0-0-0-0-0-0--||

fuel

Gimme Fuel, Gimme Fire, gimme that wich I desire, ohoo. Eb:-0-

Fig.1
                                                     1.
Gb:-------------------------------------------------|-----------------:
Db:-------------------------------------------------|-----------------:
Ab:-------------------------------------------------|-----------------:
Eb:-3p0-0-3p0-0-3p0-3p0-0-3p0-0-3p0-3p0-0-3p0-0-3p0-|-3/5-5-5-5-3-3h5-:

						     2.
						    |-----------------:
						    |-----------------:
						    |-----------------:
						    |-3/5-5-5-5-3-0-3-:
                                                              end Fig.1

Fig.2:
:--------------------------------------------------------:
:--------------------------------------------------------:
:--------------------------------------------------------:
:-5-5--5-5-5--5-5-5--5-5-5--5-5-5--5-5-5--5-5-5--5-5-5-3-: end Fig.2

Riff.1:
:---------------------------------:
:---------------------------------:
:---------------------------------:
:-3p0-0-3p0-0-3p0-3p0-0-3p0-0-3p0-: end Riff.1
             Yeah...

1° and 3° Verses:
:--------------------------------|--------------------------------|
:--------------------------------|--------------------------------|
:--------------------------------|--------------------------------|
:-0------------------------------|-3--------------------------(3)/|

|--------------------------------|----------------------------------|
|--------------------------------|----------------------------------|
|---------------------7---5------|(5)-------------------------------|
|-0---------------0--------------|-------------6--5-------3---------|

|--------------------------------|--------------------------------|
|--------------------------------|--------------------------------|
|--------------------------------|---------------------5----------|
|-0---------------------------3-/|-7---------------7-------7---7--|

|--------------------------------|--------------------------------|
|--------------------------------|--------------------------------|
|---------------------4----------|--------------------------------|
|-6---------------6-------6---6--|-5---5-------5---5---0---3---0--|

|--------------------------------|--------------------------------|
|--------------------------------|--------------------------------|
|--------------------------------|--------------------------------|
|-5---5-------5---5---5-------5--|-5---5-------5---5---5-------5--|

|--------------------------------|--------------------------------|
|--------------------------------|--------------------------------|
|--------------------------------|--------------------------------|
|-5---5-------5---5---5-------5--|-5-------5-------5---5---3---0--|

|--------------------------------|--------------------------------:
|--------------------------------|--------------------------------:
|--------------------------------|--------------------------------:
|-3-p-0---0---3-p-0---0---3-p-0--|-3-p-0---0---3-p-0---0---3-p-0--:

2° and 4° Verses:
:--------------------------------|----------------------------------|
:--------------------------------|----------------------------------|
:--------------------------------|----------------------------------|
:-0------------------------------|-3--------------------------(3----|

|--------------------------------|--------------------------------|
|--------------------------------|--------------------------------|
|--------------------------------|--------------------------------|
|-0-----------------------0---0--|-0---0-------0-------0---5-h-7--|

|--------------------------------|--------------------------------|
|--------------------------------|--------------------------------|
|--------------------------------|---------------------5----------|
|-0---------------------------3-/|-7---------------7-------7---7--|

|--------------------------------|--------------------------------|
|--------------------------------|--------------------------------|
|---------------------4----------|--------------------------------|
|-6---------------6-------6---6--|-5---5-------5---5---0---3---0--|

|--------------------------------|--------------------------------|
|--------------------------------|--------------------------------|
|--------------------------------|--------------------------------|
|-5---5-------5---5---5-------5--|-5---5-------5---5---5-------5--|

|--------------------------------|--------------------------------|
|--------------------------------|--------------------------------|
|--------------------------------|--------------------------------|
|-5---5-------5---5---5-------5--|-5---5-------5---5---5-------5--|

|--------------------------------|--------------------------------|
|--------------------------------|--------------------------------|
|--------------------------------|--------------------------------|
|-3-p-0---0---3-p-0---0---3-p-0--|-3-p-0---0---3-p-0---0---3-p-0--|

|--------------------------------|--------------------------------:
|--------------------------------|--------------------------------:
|--------------------------------|--------------------------------:
|-3-p-0---0---3-p-0---0---3-p-0--|-3---4---5---6---7---7---7---7--:

Chorus (Start Fig.3):
:--------------------------------|--------------------------------|
:--------------------------------|--------------------------------|
:--------------------------------|--------------------------------|
:-0---0---0---0---0---0---0---0--|-0---0---0---0---0---0---3---4--|

|--------------------------------|--------------------------------|
|--------------------------------|--------------------------------|
|--------------------------------|--------------------------------|
|-5---5---5---5---5---5---5---5--|-5---5---5---5---5---5---5---0--|

|--------------------------------|--------------------------------|
|--------------------------------|--------------------------------|
|--------------------------------|--------------------------------|
|-3---3---3---3---3---3---3---3--|-3---3---3---3---3---3---3---4--|

|--------------------------------|--------------------------------|
|--------------------------------|--------------------------------|
|--------------------------------|--------------------------------|
|-5---5---5---5---5---5---5---5--|-5---5---5---5---5---5---3---3--|

|--------------------------------|--------------------------------|
|--------------------------------|--------------------------------|
|--------------------------------|--------------------------------|
|-0---0---0---0---0---0---0---0--|-0---0---0---0---0---0---3---4--|

|--------------------------------|--------------------------------|
|--------------------------------|--------------------------------|
|--------------------------------|--------------------------------|
|-5---5---5---5---5---5---5---5--|-5---5---5---5---5---5---6---7--|

|--------------------------------|--------------------------------|
|--------------------------------|--------------------------------|
|--------------------------------|--------------------------------|
|-8---8---8---8---8---8---7---7--|-8---8---8---8---8---8---7---7--|

                      (end Fig.3)
|--------------------------------|--------------------------------|
|--------------------------------|--------------------------------|
|-5---5---5---5---5---5---5---5--|-5---5---5---5---5---5---5---5--|
|--------------------------------|--------------------------------|

|--------------------------------|--------------------------------|
|--------------------------------|--------------------------------|
|--------------------------------|--------------------------------|
|-3-p-0---0---3-p-0---0---3-p-0--|-3-p-0---0---3-p-0---0---3-p-0--|
                                                           So gimme

|--------------------------------|--------------------------------:
|--------------------------------|--------------------------------:
|--------------------------------|--------------------------------:
|-0------------------------------|--------------------------------:
 fuel,     gimme    fire,   gimme that wich I desire.

Coda 1:
:--------------------------------|--------------------------------|
:--------------------------------|--------------------------------|
:--------------------------------|--------------------------------|
:-0------------------------------|--------------------------------|

 Repeat Fig.1
 Repeat Fig.2
 Repeat Riff.1     End Coda 1


Verse 3
Verse 4
Repeat Chorus until Coda 1 (excluded)

Substitute Coda 1 with:

Coda 2:
:--------------------------------|--------------------------------|
:--------------------------------|--------------------------------|
:--------------------------------|--------------------------------|
:--------------------------------|--------------------------------|
 Ooh,                             Yeah.

|--------------------------------|--------------------------------|
|*-------------------------------|--------------------------------|
|*-------------------------------|--------------------------------|
|-0---0---0---3-----------0------|-0-------0-------0-------0------|

                                                           4 times
|--------------------------------|--------------------------------|
|--------------------------------|-------------------------------*|
|--------------------------------|----------------->-------------*|
|-0---0---0---3-----------0------|-0-------0-------3--------------|

|--------------------------------|--------------------------------|
|*-------------------------------|--------------------------------|
|*-------------------------------|--------------------------------|
|-5---5---5---3-----------0---0--|-3-------0---0---0-------0------|

                                  1.2.3.
|--------------------------------|--------------------------------|
|--------------------------------|-------------------------------*|
|--------------------------------|-------------------------------*|
|-5---5---5---3-----------0---0--|-3-----------3---3-------0------|

                                  4.
                                 |--------------------------------|
                                 |--------------------------------|
                                 |--------------------------------|
                                 |-3-----------------------0---0--|

|--------------------------------|--------------------------------|
|--------------------------------|--------------------------------|
|--------------------------------|--------------------------------|
|-5---5-------5---5---5-------5--|-5---5-------5---5---5-------5--|

                                                               (4)
|--------------------------------|--------------------------------|
|--------------------------------|-------------------------------*|
|--------------------------------|-------------------------------*|
|-5---5-------5---5---5-------5--|-5---5---5---5---5---5---3---3--|

|--------------------------------|--------------------------------|
|*-------------------------------|--------------------------------|
|*-------------------------------|--------------------------------|
|-3-p-0---0---3-p-0---0---3-p-0--|-3-p-0---0---3-p-0---0---3-p-0--|

|--------------------------------|--------------------------------|
|--------------------------------|-------------------------------*|
|--------------------------------|-------------------------------*|
|-3-p-0---0---3-p-0---0---3-p-0--|-3-/-5---5---5---5---3---3-h-5--|

|--------------------------------|--------------------------------|
|*-------------------------------|--------------------------------|
|*-------------------------------|--------------------------------|
|-0---0---0---3-----------3---3--|-0---0---0---3-----------3---3--|

                                  1.
|--------------------------------|--------------------------------|
|--------------------------------|-------------------------------*|
|--------------------------------|-------------------------------*|
|-0---0---0---3-------3---3---3--|-3-/-5---5---5---5---3---3-h-5--|

                                  2.
                                 |--------------------------------|
                                 |--------------------------------|
                                 |--------------------------------|
                                 |-3-----------2-----------1------|

|--------------------------------|--------------------------------|
|--------------------------------|--------------------------------|
|--------------------------------|--------------------------------|
|-3-p-0---0---3-p-0---0---3-p-0--|-3-p-0---0---3-p-0---0---3-p-0--|

|--------------------------------|--------------------------------|
|--------------------------------|-------------------------------*|
|--------------------------------|-------------------------------*|
|-3-p-0---0---3-p-0---0---3-p-0--|-3-/-5---5---5---5---3---3-h-5--|

Repeat Fig.3
Repeat Fig.3 (first 12 bars) then:

|--------------------------------|--------------------------------|
|--------------------------------|--------------------------------|
|--------------------------------|--------------------------------|
|-8---8---8---8---8---8---7---7--|-8---8---7---7---8-------7-h-8--|

|--------------------------------|--------------------------------|
|--------------------------------|--------------------------------|
|-5---5---5---5---7-p-5---5---7-p|-5---7-p-5---5---5---5---5---5--|
|--------------------------------|--------------------------------|

|--------------------------------|--------------------------------|
|--------------------------------|--------------------------------|
|--------------------------------|--------------------------------|
|-3-p-0---0---3-p-0---0---3-p-0--|-3-p-0---0---3-p-0---0---3-p-0--|

|--------------------------------|--------------------------------|
|--------------------------------|--------------------------------|
|--------------------------------|--------------------------------|
|-0------------------------------|--------------------------------|

|--------------------------------|--------------------------------|
|--------------------------------|--------------------------------|
|--------------------------------|--------------------------------|
|-3-p-0---0---3-p-0---0---3-p-0--|-3-p-0---0---3-p-0---0---3-p-0--|

|--------------------------------|--------------------------------|
|--------------------------------|--------------------------------|
|--------------------------------|--------------------------------|
|-3-p-0---0---3-p-0---0---3-p-0--|-3-/-5---5---5---5---3---3-h-5--|

|--------------------------------|--------------------------------|
|--------------------------------|--------------------------------|
|--------------------------------|--------------------------------|
|-5---5-------5---5---5-------5--|-5---5-------5---5---5-------5--|

|--------------------------------|--------------------------------|
|--------------------------------|--------------------------------|
|--------------------------------|--------------------------------|
|-5---5-------5---5---5-------5--|-5---5-------5---5---5-------3--|

|--------------------------------:
|--------------------------------:
|--------------------------------:
|-0------------------------------: End.

The memory remains

tune all guitars down 1/2 step
|-----------------|-----------------|-----------------|-----------------|
|------REST-------|------REST-------|------REST-------|-----------------|
|-----------------|-----------------|-----------------|-----------------|
|-----------------|-----------------|-----------------|-1---------------|


|-----------------|-----------------|-----------------|-----------------|
|-----------------|-----------------|-----------------|-----------------|
|---------7-------|------------/7---|---------7-------|------------/5---|
|-0---0---0-------|-0-----0-3-0-----|-0---0---0-------|-0-----0-3-0-----|


|-----------------|-----------------|-----------------|-----------------|
|-----------------|-----------------|-----------------|-----------------|
|---------7-------|------------/7---|---------2---2-2-|-7-------------7-|
|-0---0---0-------|-0-----0-3-0-----|-3---3-3---------|-0---------------|


|-----------------|
|-----------------|
|---7-5-4-5-7-5---|
|---------------7-|


|-----------------|-----------------|-----------------|-----------------|
|-----------------|-----------------|-----------------|-----------------|
|---------7-------|------------/7---|--------7--------|------------/5---|
|-0---0---0-------|-0-----0-3-0-----|-0---0--0--------|-0-----0-3-0-----|


|-----------------|-----------------|-----------------|-----------------|
|-----------------|-----------------|-----------------|-----------------|
|---------7-------|------------/7---|---------2---2-2-|---------7-------|
|-0---0---0-------|-0-----0-3-0-----|-3---3-3---------|-0---0---0-------|


|-----------------|-----------------|-----------------|-----------------|
|-----------------|-----------------|-----------------|-----------------|
|------------/7---|---------7-------|------------/5---|---------7-------|
|-0-----0-3-0-----|-0---0---0-------|-0-----0-3-0-----|-0---0---0-------|


|-----------------|-----------------|-----------------|-----------------|
|-----------------|-----------------|-----------------|-----------------|
|------------/7---|---------2---2-5-|-7---------------|-5-7-5-4-5-7-5---|
|-0-----0-3-0-----|-3---3-3---------|-0---------------|---------------7-|


|-----------------|-----------------|-----------------|-----------------|
|-----------------|-----------------|-----------------|-----------------|
|-5-7-----7-------|-5-7-----7-------|-5-7-----7-------|-5-------5-------|
|-----0-0-----0-0-|-----0-0-----0-0-|-----0-0-----0-0-|---3---3---3---3-|


|-----------------|-----------------|-----------------|-----------------|
|-----------------|-----------------|-----------------|-----------------|
|-5-7-----7-------|-5-7-----7-------|-5-7-----7---5---|-----------------|
|-----0-0-----0-0-|-----0-0-----0-0-|-----0-0---------|-1---------------|


|-----------------|-----------------|-----------------|-----------------|
|-----------------|-----------------|-----------------|-----------------|
|---------7-------|------------/7---|---------7-------|------------/5---|
|-0---0---0-------|-0-----0-3-0-----|-0---0---0-------|-0-----0-3-0-----|


|-----------------|-----------------|-----------------|-----------------|
|-----------------|-----------------|-----------------|-----------------|
|---------7-------|------------/7---|---------2---2-5-|-7-------------7-|
|-0---0---0-------|-0-----0-3-0-----|-3---3-3---------|-0---------------|


|-----------------|
|-----------------|
|-5-7-5-4-5-7-5---|
|---------------7-|


|-----------------|-----------------|-----------------|-----------------|
|-----------------|-----------------|-----------------|-----------------|
|---------7-------|------------/7---|---------7-------|------------/5---|
|-0---0---0-------|-0-----0-3-0-----|-0---0---0-------|-0-----0-3-0-----|


|-----------------|-----------------|-----------------|-----------------|
|-----------------|-----------------|-----------------|-----------------|
|---------7-------|------------/7---|---------2---2-2-|---------7-------|
|-0---0---0-------|-0-----0-3-0-----|-3---3-3---------|-0---0---0-------|


|-----------------|-----------------|-----------------|-----------------|
|-----------------|-----------------|-----------------|-----------------|
|------------/7---|---------7-------|------------/5---|---------7-------|
|-0-----0-3-0-----|-0---0---0-------|-0-----0-3-0-----|-0---0---0-------|


|-----------------|-----------------|-----------------|-----------------|
|-----------------|-----------------|-----------------|-----------------|
|------------/7---|---------2---2-5-|-7---------------|-5-7-5-4-5-7-5---|
|-0-----0-3-0-----|-3---3-3---------|-0---------------|---------------7-|


|-----------------|-----------------|-----------------|-----------------|
|-----------------|-----------------|-----------------|-----------------|
|-5-7-----7-------|-5-7-----7-------|-5-7-----7-------|-5-------5-------|
|-----0-0-----0-0-|-----0-0-----0-0-|-----0-0-----0-0-|---3---3---3---3-|


|-----------------|-----------------|-----------------|--------10-------|
|-----------------|-----------------|-----------------|----10------10---|
|-5-7-----7-------|-5-7-----7-------|-5-7-----7---5/--|-8---------------|
|-----0-0-----0-0-|-----0-0-----0-0-|-----0-0---------|-----------------|


|---------12------|-----------------|-----------------|-----------------|
|-----12------12--|-----------------|-----------------|---------5-------|
|-10--------------|---------7-------|-2---2---2h3-2---|-------------2h3-|
|-----------------|-0---0-------0---|-----------------|-3---3-----------|


|-----------------|-----------------|-----------------|-----------------|
|-----7-------4---|-----------------|-----------------|---------5-------|
|-5-------2-------|---------7-------|-2---2---2h3-2---|-------------2h3-|
|-----------------|-0---0-------0---|-----------------|-3---3-----------|


|-----------------|-----------------|-----------------|-----------------|
|-----7-------4---|-----------------|-----------------|---------5-------|
|-5-------2-------|---------7-------|-2---2---2h3-2---|-------------2h3-|
|-----------------|-0---0-------0---|-----------------|-3---3-----------|


|-----------------|-----------------|-----------------|-----------------|
|-----7-------4---|-----------------|-----------------|---------5-------|
|-5-------2-------|---------7-------|-2---2---2h3-2---|-------------2h3-|
|-----------------|-0---0-------0---|-----------------|-3---3-----------|


|-----------------|
|-----7-------4---|
|-5-------2-------|
|-----------------|

                                                                        3x
|------------------|-----------------|-----------------|------------------|
|o-----------------|-----------------|-----------------|-----------------o|
|o-5-7-----7-------|-5-7-----7-------|-5-7-----7-------|-5-------5-------o|
|------0-0-----0-0-|-----0-0-----0-0-|-----0-0-----0-0-|---3---3---3---3--|


|-----------------|-----------------|-----------------|-----------------|
|-----------------|-----------------|-----------------|-----------------|
|-5-7-----7-------|-5-7-----7-------|-5-7-----7---5---|-----------------|
|-----0-0-----0-0-|-----0-0-----0-0-|-----0-0---------|-1---------------|


                  |-----------------|-----------------|
                  |------REST-------|------REST-------|
                  |-----------------|-----------------|
                  |-----------------|-----------------|


|-----------------|-----------------|-----------------|------------------|
|-----------------|-----------------|-----------------|------------------|
|-----------------|-----------------|-----------------|------------------|
|-3-3-3-3-3-3-3-3-|-3-3-3-3-3-3-3-3-|-3-3-3-3-3-3-3-3-|-3-3-3-3-3-3-3-3--|
 p.m.--------------------------------------------------------------------|
 gradually release the palm mute

|-----------------|-----------------|-----------------|-----------------|
|-----------------|-----------------|-----------------|-----------------|
|---------7-------|------------/7---|---------7-------|------------/5---|
|-0---0---0-------|-0-----0-3-0-----|-0---0---0-------|-0-----0-3-0-----|


|-----------------|-----------------|-----------------|-----------------|
|-----------------|-----------------|-----------------|------REST-------|
|---------7-------|------------/7---|---------7-------|-----------------|
|-0---0---0-------|-0-----0-3-0-----|-0---0---0---1-1-|-----------------|


|-----------------|-----------------|-----------------|-----------------|
|-----------------|-----------------|-----------------|-----------------|
|---------7-------|------------/7---|---------7-------|------------/5---|
|-0---0---0-------|-0-----0-3-0-----|-0---0---0-------|-0-----0-3-0-----|


|-----------------|--------10-------|---------12------|
|-----------------|----10------10---|-----12------12--|
|---------7-------|-8---------------|-10--------------|
|-0---0---0-------|-----------------|-----------------|


                                                                        4x
|------------------|-----------------|-----------------|------------------|
|o-----------------|-----------------|---------5-------|-----7-------4---o|
|o---------7-------|-2---2---2h3-2---|-------------2h3-|-5-------2-------o|
|--0---0-------0---|-----------------|-3---3-----------|------------------|


|-----------------|
|-9---------------|
|-7---------------|
|-0---------------|

No leaf clover

Main Riff
G|-------------------------|------------------------|
D|-------------------------|------------------------|
A|---2----3-2--------------|---2---3-2--------------|
E|-0---0-------0-0-0-0-0-0-|-0---0------0-0-0-0-0-0-|

G|-----------------------------------------------------------|
D|-----------------------------------------------------------|
A|---2---3-2-----------------2---3-2-----------------2---3-2-|
E|-0---0------0-0-0-0-0-0--0---0------2-2-2-2-2-2--0---0-----|

Verse:                                                                  B*
G|--------------------------------------------------------------------|------------|
D|--------------------------------------------------------------------|------------|
A|-0--2----2--3-2---3--2----2---3-2---0--2-----3--2-2-2-2-2-2-2-2-2-2-|----2---3-2-|
E|-------0--0-------------0---0-------------3-------------------------|--0---0-----|
**Two Times For Each Verse**

Chorus:
**No Bass at the Beginning of the Chorus. Bass comes in with drums.
G|-------------------------------------------------------|
D|-------------------------------------------------------|
A|-----------0--0--0--0--0--0--2-2-2-2-2--0--0--0--0--0--|
E|-0-0-0-0-0---------------------------------------------|

Chorus Part 2: "It's Coming your way"
G|-------------------------------------------------------------------|
D|-------------------------------------------------------------------|
A|-3-3-3-3-3--2-2-2-2-2-----------3-3-3-3-3-5-5-5-5-5--2--2--2--2--2-|
E|----------------------0-0-0-0-0------------------------------------|

The Breakdown:
G|------------------------------------------------------------------------------|
D|------------------------------------------------------------------------------|
A|--------------------------------------------2---------------------------------|
E|-0-0-0--0-0-0--0-0-3-0--0-0-0--0-0-0--0-0-3----0-0-0--0-0-0--0-0-3-0--3-0-3-0-|

Bassline Under the Solo
G|-------------------------|------------------------|
D|-------------------------|------------------------|
A|---2----3-2--------------|---2---3-2--------------|
E|-0---0-------0-0-0-0-0-0-|-0---0------0-0-0-0-0-0-|

G|-----------------------------------------------------------|
D|-----------------------------------------------------------|
A|---2---3-2-----------------2---3-2-----------------2---3-2-|
E|-0---0------0-0-0-0-0-0--0---0------2-2-2-2-2-2--0---0-----|

Hero of the day

Tune down 1/2 step

Intro:

7 bars guitar only

:--------------------------------|--------------------------------:
:--------------------------------|--------------------------------:
:-----------------------------7--|-7---7---7---7---7---7---7---7--:
:--------------------------------|--------------------------------:

Verse 1:
|--------------------------------|----------------------------------|
|-7-------7--(7)/-9---9------(9)/|11--11-----(11)/12--12-(12)-------|
|-----0-------0---0-------0---0--|-0-------0---0---0-------0---0----|
|--------------------------------|----------------------------------|

|--------------------------------|--------------------------------|
|--------------------------------|--------------------------------|
|--------------------------------|--------------------------------|
|-0---0---0---0---0---0---0---0--|-0---0---0---0---0---0---0---0--|

Fig.1
|--------------------------------|----------------------------------|
|-----7------(7)/-9---9------(9)/|11--11-----(11)/12--12-(12)-------|
|-0-------0---0---0-------0---0--|-0-------0---0---0-------0---0----|
|--------------------------------|----------------------------------|

                                                          end Fig.1
|--------------------------------|--------------------------------|
|--------------------------------|--------------------------------|
|--------------------------------|--------------------------------|
|-0---0---0---0---0---0---0---0--|-0---0---0---0---0---0---0---0--|

Fig.2
|--------------------------------|----------------------------------|
|-----7------(7)/-9---9------(9)/|11--11-----(11)/12--12-(12)-------|
|-0-------0---0---0-------0---0--|-0-------0---0---0-------0---0----|
|--------------------------------|----------------------------------|

                                                          end Fig.2
|--------------------------------|--------------------------------|
|--------------------------------|--------------------------------|
|--------------------------------|-------------------------0------|
|-0---0---0---0---0---0---0---0--|-0---0---0---0---0---2-------2--|

Repeat Fig.2 x 1

Fig.3
|--------------------------------|--------------------------------|
|--------------------------------|--------------------------------|
|-0---0---0---0---2---2---2---2--|-4---4---4---4---5---5---4---5--|
|--------------------------------|--------------------------------|

                                                          end Fig.3
|--------------------------------|--------------------------------|
|--------------------------------|--------------------------------|
|-5/7-----------------7-------5--|(5)--7-------------------0------|
|---------0---0---0-------0------|---------0---0---0---2-------2--|

Repeat Fig.3 x 1
Repeat Fig.1 x 2
End Verse 1

Verse 2:

Repeat Fig.1 x 2
Repeat Fig.3 x 4

End Verse 2

Chorus:
Fig.4                                                     end Fig.4
|--------------------------------|--------------------------------|
|--------------------------------|--------------------------------|
|->------->------->------->------|->------->------->------->------|
|-2-2-2-2-2-2-2-2-2-2-2-2-2-2-2-2|-2-2-2-2-2-2-2-2-2---0-2-3-3-0-2|

Fig.4A                                                   end Fig.4A
|--------------------------------|--------------------------------|
|--------------------------------|--------------------------------|
|->------->------->------->------|->------->------->------->------|
|-3-3-2-2-2-2-2-2-2-2-2-2-2-2-2-2|-2-2-2-2-2-2-2-2-2---0-2-3-3-0-2|

Repeat Fig.4A x 4

End Chorus

Guitar Solo:

Repeat Fig.3 x 2

End Guitar Solo

Verse 3:

Repeat Fig.3 x 2

End Verse 3

Chorus:

Repeat Fig.4
Repeat Fig.4A x 5

End Chorus

Outro:

Fig.5
|--------------------------------|--------------------------------|
|--------------------------------|--------------------------------|
|--------------------------------|--------------------------------|
|-2-2-2-2-2-2-2-2-2-2-2-2-2-2-2-2|-4-4-4-4-4-4-4-4-4-4-4-4-4-4-4-4|

                                                          end Fig.5
|--------------------------------|--------------------------------|
|--------------------------------|--------------------------------|
|--------------------------------|--------------------------------|
|-5-5-5-5-5-5-5-5-5-5-5-5-5-5-5-5|-7-7-7-7-7-7-7-7-7-7-7-7-7-7-7-7|

Repeat Fig.5 x 3

|--------------------------------|--------------------------------:
|--------------------------------|--------------------------------:
|--------------------------------|--------------------------------:
|-3---2-------2------------------|(2)-----------------------------: End

devil's dance

Tune down 1 whole step (D,G,C,F)
Intro:
:--------------------------------|----------------------------------|
:*-------------------------------|----------------------------------|
:*-------------------------------|----------------------------------|
:-6------0-------0-------0---3--|-0-------0---5---3---0---3---5-----|

                                                            4 times
|--------------------------------|--------------------------------|
|--------------------------------|-------------------------------*|
|--------------------------------|-------------------------------*|
|-0-------0-------0-------0---3--|-0-------0---5---3---0---3---5--|

|--------------------------------|----------------------------------|
|--------------------------------|----------------------------------|
|--------------------------------|----------------------------------|
|-6------0-------0-------0---3--|-0-------0-------0-------0---3-----|

|--------------------------------|----------------------------------|
|--------------------------------|*---------------------------------|
|--------------------------------|*---------------------------------|
|-0-------0---5---3---0---3---5--|-6------0-------0-------0---3-----|

                           2 times
|--------------------------------|--------------------------------|
|-------------------------------*|--------------------------------|
|-------------------------------*|--------------------------------|
|-0-------0---5---3---0---3---5--|-0-------0-------0-------0---3--|

|--------------------------------|----------------------------------|
|--------------------------------|----------------------------------|
|--------------------------------|----------------------------------|
|-0-------0---5---3---0---3---5--|-6------0-------0-------0---3-----|

|--------------------------------|--------------------------------|
|--------------------------------|--------------------------------|
|--------------------------------|--------------------------------|
|-0-------0---5---3---0---3---5--|-0-------0-------0-------0---3--|

|--------------------------------:
|--------------------------------:
|--------------------------------:
|-0-------0---5--b3---0--b3---0--: end Intro

Verse 1, 2, 3:
                           3 times
:--------------------------------|--------------------------------|
:*------------------------------*|--------------------------------|
:*------------------------------*|--------------------------------|
:-0-0-0-0----0-0-0-0-0--0--0--0--|-0-0-0-0----0-0-0-0-0-b5-----3--|

|--------------------------------|--------------------------------|
|--------------------------------|--------------------------------|
|--------------------------------|--------------------------------|
|-3-3-3-3------3-3-3-3--3--3--3--|-3-3-3-3------3-3-3-3--3--3--3--|

|--------------------------------|--------------------------------|
|--------------------------------|--------------------------------|
|--------------------------------|--------------------------------|
|-0-0-0-0----0-0-0-0-0--0--0--0--|-0-0-0-0----0-0-0-0-0-00--0--0--|

|--------------------------------|--------------------------------|
|--------------------------------|--------------------------------|
|--------------------------------|--------------------------------|
|-3-3-3-3------3-3-3-3--3--3--3--|-2-2-2-2------2-2-2-2-2--2-2-2--|

|--------------------------------|----------------------------------| end
|--------------------------------|----------------------------------|
|--------------------------------|----------------------------------| V.
|-6------0-------0-------0---3--|-0-------0---5--b3---0--b3---0-----|

3rd time substitute 6°bar with:  |--------------------------------|
                                 |--------------------------------|
    You must consider the first  |--------------------------------|
    bar is repeats for 3 bars    |-3-3-3-3------3-3-3-3-b5-----3--|

    and substitute 10°bar with:  |--------------------------------|
                                 |-----------------------/-7---7--|
                                 |---------------------4---0---0--|
                                 |-2---2---2---2---2--------------|

Chorus 1:
                                                            2 times
:--------------------------------|--------------------------------|
:*-------------------------------|-------------------------------*|
:*-------------------------------|-------------------------------*|
:-6-6---6-6----6-6-6-6--6--5--3--|-0---0---3-------3-------0---3--|

|--------------------------------|--------------------------------|
|--------------------------------|--------------------------------|
|--------------------------------|--------------------------------|
|-6-6---6-6----6-6-6-6--6--5--3--|-0---0---3-------3-------0---3--|

|--------------------------------|----------------------------------|
|--------------------------------|----------------------------------|
|--------------------------------|----------------------------------|
|-6------------------------------|-6------0-------0-------0---3-----|

|--------------------------------|--------------------------------|
|--------------------------------|--------------------------------|
|--------------------------------|--------------------------------|
|-0-------0---5---3---0---3---5--|-0-------0-------0-------0---3--|

|--------------------------------:
|--------------------------------:
|--------------------------------:
|-0-------0---5--b3---0--b3---0--: end Chorus 1

Play Verse 2

Chorus 2:
                                                            2 times
:--------------------------------|--------------------------------|
:*-------------------------------|-------------------------------*|
:*-------------------------------|-------------------------------*|
:-6-6---6-6----6-6-6-6--6--5--3--|-0---0---3-------3-------0---3--|

|--------------------------------|--------------------------------|
|--------------------------------|--------------------------------|
|--------------------------------|--------------------------------|
|-6-6---6-6----6-6-6-6--6--5--3--|-0---0---3-------3-------0---3--|

|--------------------------------|--------------------------------|
|--------------------------------|*-------------------------------|
|--------------------------------|*-------------------------------|
|-6------------------------------|-0-0-0-0-0------0-0----0-0------|

                           2 times
|--------------------------------:
|-------------------------------*:
|-------------------------------*:
|-0-0-0-0-0------0-0----0-0----0-: end Chorus 2

Guitar Solo:
                           4 times                          4 times
:--------------------------------|--------------------------------:
:*------------------------------*|*------------------------------*:
:*------------------------------*|*------------------------------*:
:-3-3-3-3------3-3-3-3--3--3--3--|-0-0-0-0----0-3------0---0---0--:

Chorus:
                                                            2 times
:--------------------------------|--------------------------------|
:*-------------------------------|-------------------------------*|
:*-------------------------------|-------------------------------*|
:-6-6---6-6----6-6-6-6--6--5--3--|-0---0---3-------3-------0---3--|

|--------------------------------|--------------------------------|
|--------------------------------|--------------------------------|
|--------------------------------|--------------------------------|
|-6-6---6-6----6-6-6-6--6--5--3--|-0---0---3-------3-------0---3--|

|--------------------------------:
|--------------------------------:
|--------------------------------:
|-5------------------------------: end Chorus

Fill 1:
                                                            3 times
:--------------------------------|----------------------------------|
:*-------------------------------|----------------------------------|
:*-------------------------------|----------------------------------|
:-6------0-------0-------0---3--|-0-------0---5---3---0---3---5-----|

|--------------------------------|----------------------------------|
|--------------------------------|----------------------------------|end
|--------------------------------|----------------------------------|
|-6------0-------0-------0---3--|-6---------------5---5-------------|Fill

Play Verse 3

Last Chorus:
                                                            2 times
:--------------------------------|--------------------------------|
:*-------------------------------|-------------------------------*|
:*-------------------------------|-------------------------------*|
:-6-6---6-6----6-6-6-6--6--5--3--|-0---0---3-------3-------0---3--|

|--------------------------------|--------------------------------|
|--------------------------------|--------------------------------|
|--------------------------------|--------------------------------|
|-6-6---6-6----6-6-6-6--6--5--3--|-0---0---3-------3-------0---3--|

|--------------------------------|----------------------------------|
|--------------------------------|----------------------------------|
|--------------------------------|----------------------------------|
|-6------------------------------|-6------0-------0-------0---3-----|

|--------------------------------|--------------------------------|
|--------------------------------|--------------------------------|
|--------------------------------|--------------------------------|
|-0-------0---5--b3---0--b3---0--|-6-6---6-6----6-6-6-6--6--5--3--|

|--------------------------------|--------------------------------:
|--------------------------------|--------------------------------:
|--------------------------------|--------------------------------:
|-0---0---3-------3-------0---3--|-6------------------------------:

bleeding me
Tune down 1/2 step
Intro:
:--------------------------------|--------------------------------|
:-------------Guitar-------------|--------------------------------|
:---------------x6---------------|-----------------------------5-/|
:--------------------------------|--------------------------------|

|--------------------------------|----------------------------------|
|--------------------------------|----------------------------------|
|10------------------9-h-10---9-|-7---------------------------------|
|--------------------------------|-----------------0----------------|

|--------------------------------|--------------------------------|
|--------------------------------|--------------------------------|
|--------------------------------|--------------------------------|
|(0)-----------------------------|(0)-----------------------------|

|--------------------------------|----------------------------------|
|---------------------7----------|----------------------------------|
|-------------7-/-9------10-----|-7---------------------------------|
|(0)-----------------------------|-----------------0----------------|

|--------------------------------|--------------------------------|
|--------------------------------|--------------------------------|
|--------------------------------|-7-----------------------------/|
|(0)-----------------------------|-----------------0--------------|

                                  From end of 1st verse
|--------------------------------|----------------------------------|
|--------------------------------|*---------------------------------|
|10------10--10---9-h10-p-9-----|*7---------------------------------|
|--------------------------------|-0---------------0----------------|

|--------------------------------|----------------------------------|
|---------------------7----------|----------------------------------|
|-------------7-/-9------10-----|-7---------------------------------|
|(0)-----------------------------|-----------------0----------------|

|--------------------------------|--------------------------------|
|--------------------------------|--------------------------------|
|--------------------------------|-7------------------------------|
|(0)-----------------------------|-----------------0--------------|

|----------------------------------|
|----------------------------------|
|10------10--10---9-h10-p-9--------|
|----------------------------------|

Verse 1, 2:
:--------------------------------|----------------------------------|
:--------------------------------|----------------------------------|
:-7----------0------------------|-------------0-----------5---------|
:---------0-------0--------------|(0)------0-------2-/-3-------3----|

|--------------------------------|----------------------------------|
|--------------------------------|----------------------------------|
|-------------0------------------|-------------0-------0------------|
|(3)-2---0-------0--------------|(0)------0------/2-------3---------|

|--------------------------------|----------------------------------|
|--------------------------------|----------------------------------|
|-------------0------------------|-------------0-----------5--------|
|(3)-----0-------0--------------|(0)------0-------2-/-3-------3-----|

|--------------------------------|----------------------------------|
|--------------------------------|----------------------------------|
|-------------0------------------|----------------------------------|
|(3)-2---0-------0---0-0-0------|/3-------3-------2-h-3---2---------|

|--------------------------------|--------------------------------|
|--------------------------------|--------------------------------|
|-------------0------------------|-------------0-------0----------|
|-1---0---0-------0--------------|(0)------0------/2-------3------|

|--------------------------------|----------------------------------|
|--------------------------------|----------------------------------|
|-------------0------------------|-------------0-----------5--------|
|(3)-----0-------0--------------|(0)------0-------2-/-3-------3-----|

|--------------------------------|----------------------------------|
|--------------------------------|----------------------------------|
|-------------0------------------|----------------------------------|
|(3)-2---0-------0-------0---0--|/3---3---3---3---2-h-3---2---2-----|

|--------------------------------|----------------------------------|
|--------------------------------|-7---7-------7---7-------7--------|
|-7---7-------7---7-------7-----------------------------------------|

well, that's it for disc 1, to see who they are tabbed by, you'll have
to have a look at disc 2.

-------------------------------------------------------------------------
-------------------------------------------------------------------------

Metallica
S&M
Disc 2

Nothing else matters

Bass enters at 1.04
Verse
G-------------------------------------------------------------------------|
D-------------------------------------------------------------------------|
A--5/7--5-3----------5/7--5-3---------5/7--5-3------2-----5/77------------|
E------------3-2-0------------3-2-0------------2-3-----0------3-2-0-------|

Verse Variation (Played At 2:29)
G-----------------------------------------------------------------------|
D-----------------------------------------------------------------------|
A--5/7--5-3----------5/7--5-/--10---------5/7--5-3------2---5/77--------|
E------------3-2-0----------------3-2-0-------------2-3---0-------3-2-0-|

Chorus
G--------------------------------------|
D--------------------------------------|
A--3-0--5~---3-0--5~---3-0--5--5/7-----|
E--------------------------------------|

Interlude (3:07)
G------------------5------9------------------------------------------9-----------------|
D--------9-------------------------------------------------------------9---------------|
A--7-77----7-77-----7-77----7--------------3--33-0-3-5--5-5-5h7-----------7------------|
E0----------------------------75--5-5---5------------------------0--------0---3-2-0----|

Interlude Second Time Round
G------------------5---------9---------------------------5------------7----------------|
D----------9---------------------------------7-----------------------------------------|
A----7-77----7-77-----7-77----7-------7-------------3-3----0-3-5---5-----5----7~-------|
E--0-----------------------------75------5----5---5----------------------------3-2-0---|
-
Play During Solo.Note: You Could Play Open E on the build up at (4:57)
G--------------------------------------------------------------------------|
D--------------------------------------------------------------------------|
A--5/7--5-3----------5/7--5-3---------5/7--5-3------2----------------------|
E------------3-2-0------------3-2-0-------------2-3-----0~-----------------|End

Until it sleeps

Intro  (fretless bass)

Gb------------------|----------------------------|-----------|
Db-------7----------|--7/10------9-------(9)----|--7---------|
Ab---7--------------|-------------------------7--|-----------|
Eb------------------|----------------------------|-----------|

Gb-----------------------------------|
Db-----7/10--------------------------|
Ab-----------------8-------(8)7------|
Eb-----------------------------------|

Verse (same all three verses)

Gb------------------|-----------------------|--------------|
Db------------------|-----------------------|--7-----------|
Ab-0----------------|(0)-----------------7--|--------------|
Eb------------------|-----------------------|--------------|

     Where do I take this pain of mine?

Gb---------------------------------------------|
Db-----7/10---------9-----------(9)------------|
Ab------------------------------------7--------|
Eb---------------------------------------------|

Gb-----------------|----------------|----------------------|
Db---7-------------|--(7)-----------|--7-------------7/10--|
Ab---0-------------|--(0)-----------|----------------------|
Eb-----------------|----------------|----------------------|

        I run but it stays right by my side

Gb-----------------------------|
Db-----------------------------|
Ab------8----------------------|
Eb--------------3----3----1----|

Chorus

Gb------------------------------|--------------------------|
Db------------------------------|--------------------------|
Ab------------------------------|--------------------------|
Eb--5---5---5---5---5---5----3--|--3---3---3---1--------1--|

            So tear me open.....

Gb---------------------------------|-------------------------|
Db---------------------------------|-------------------------|
Ab---------------------------------|-------------------------|
Eb--1---3/5---5---5---5---5---53--|---(3)---3---3/8-----8----|

          p   p
Gb-------------------|---------------------------------|
Db-------------------|---------------------------------|
Ab-------------------|---------------------------------|
Eb---8---8--7--5-3--|-5---5---5---5---5---5-----3------|


Gb------------------------------------|--------------------|
Db------------------------------------|--------------------|
Ab-----3------------------------------|--------------------|
Eb-3-------3---1---------1---1---3/-5-|--5---5---5---5---5-|


Gb---------|--------------------------------------|--------|
Db---------|--------------------------------------|--7-----|
Ab---------|-----------------------------------7--|--0-----|
Eb----3----|--(3)---3---3---7--------8------------|--------|


Gb-----------------------------------|-----------------------|
Db----7/-10---------9-------(9)-----|--7---------------------|
Ab--------------------------------7--|-----------------------|
Eb-----------------------------------|-----------------------|


Gb-----------------------------------------|
Db-----------------------------------------|
Ab---7/-10----------8-----------(8)--7-----|
Eb-----------------------------------------|


Gb------------------------------|--------------------------|
Db------------------------------|--------------------------|
Ab------------------------------|-------------------7------|
Eb-/5--5--5--5-5-5--5--5-5-3----|-3--3--3-/8-----7-----7---|

Bridge
                                              h
Gb-------------------------------------------------|
Db------------------------------------------5---7--|
Ab--------7-------7-----------5------6-------------|
Eb---0----0---0---0---0---0---0------0-------------|

          It grips you, so hold me......

Gb---------------------------------------|------------------|
Db---------------------------------------|------------------|
Ab---7-5/-7---------------5-----6-----7-|-7----7-----5------|
Eb---0--0--0---0--5--0--0--0--0--0--0--0-|-0--0--0--0--0----|

             h
Gb--------------|
Db---------5--7-|
Ab-----6--------|
Eb-----0--------|


Gb-----------------------------------------|
Db-----------------------------------------|
Ab---7-5/-7---------------5-----6-----7----|
Eb---0--0--0---0--5--0--0--0--0--0--0--0---|


                      h    h
Gb-------------------------------------------------------|
Db-------------------------------------------------------|
Ab----7------------------5--7-----5-------6-------7------|
Eb----0------0---0---5--7------0---0---0---0---0---0-----|

Gb-----------------------------------------|
Db-----------------------------------------|
Ab---7-5/-7---------------5-----6-----7----|
Eb---0--0--0---0--0--0--0--0--0--0--0--0---|


                     h    h
Gb-------------------------------------------------------|
Db-------------------------------------------------------|
Ab----7------------------5--7-----5-------6-------7------|
Eb----0------0---0---5--7------0---0---0---0---0---0-----|


Gb---------------------------------------------------|-------|
Db------------------------------5-------7-------7----|--7----|
Ab--7--------------------------7-------7-------7----|--0-----|
Eb--0---0---0---0---0---0---0-------0-------0--------|-------|


Gb-----------------------------------|-----------------------|
Db----7/-10---------9-------(9)-----|--7---------------------|
Ab--------------------------------7--|-----------------------|
Eb-----------------------------------|-----------------------|


Gb-----------------------------------------|
Db-----------------------------------------|
Ab---7/-10----------8-----------(8)--7-----|
Eb-----------------------------------------|

Interlude
           h
Gb--------------------------------------------------|
Db--7-----5--7/-10---------9-------(9)--------------|
Ab---------------------------------------7----0-----|
Eb--------------------------------------------------|


Gb------------------------/12------------|
Db---------/14---12-----------------14---|
Ab----(0)--------------------------------|
Eb---------------------------------------|


Gb-------------------------------------------------------|
Db-------------7/10------9---(9)7------------------------|
Ab---0------------------------------7----0---------------|
Eb-------------------------------------------------------|


Gb-----------------------------------------------------|
Db-----------------------------------------------------|
Ab---(0)-----------------------------------------------|
Eb---------------3---3---3/---8---------------(8)------|


Gb--------------------------------------------------------|
Db--------------------------------------------------------|
Ab--------------------------------------------------------|
Eb--------3-----3/--8---------3---3/--8-------------8-----|


Gb-------------------------|---------------------------|
Db-------------------------|---------------------------|
Ab-------------------------|---------------------------|
Eb-5--5--5--5--5--5--5--5-|-5--5--5--5--5--3--3--1-----|

Chorus

Gb-------------------------|----------------------------|
Db-------------------------|----------------------------|
Ab-------------------------|----8--0--------------------|
Eb--5--5--5--5--5--5--5--5-|/8--------1-----1--1--1--3/-|

         So tear me open, pull me out......

Gb--------------------------------|---------------------|
Db--------------------------------|---------------------|
Ab--------------------------------|---------------------|
Eb--/5---5---5---5---5---5-----3--|-(3)---3---3---3/8---|


          p  p
Gb------------------|----------------------------------|
Db------------------|----------------------------------|
Ab------------------|----------------------------------|
Eb---8---8--7--53--|-5---5---5---5---5---5------3------|


Gb----------------------------------|----------------------|
Db----------------------------------|----------------------|
Ab--------3-------------------------|----------------------|
Eb--(3)-------3---1-------1---1---3/|-5---5--5--5--5--5--5-|


Gb--------------------|------------------------------|
Db--------------------|------------------------------|
Ab--------------------|----3-----3---3---------------|
Eb-5---5--5--5--5--3--|-3-----3----------0---12------|


Gb-----------------------------------|
Db---14--14--12--14------14------12--|
Ab---0---0---0---0---0---0---0---0---|
Eb-----------------------------------|


Gb-----------------------------------|
Db------14--12--15------15------12---|
Ab--0---0---0---0---0---0---0---0----|
Eb-----------------------------------|


Gb-----------------------------------|
Db---14--14--12--14------14------14--|
Ab---0---0---0---0---0---0---0---0---|
Eb-----------------------------------|


Gb-----------------------------------|
Db------12------15------15------12---|
Ab--0---0---0---0---0---0---0---0----|
Eb-----------------------------------|


Gb-----------------------------------|
Db---14--14--12--14------14------12--|
Ab---0---0---0---0---0---0---0---0---|
Eb-----------------------------------|


Gb-----------------------------------|
Db------14--12--15------15-----------|
Ab--0---0---0---0---0---0---0---0----|
Eb-----------------------------------|


Gb-----------------------------------|
Db---14--14--12--14------14------14--|
Ab---0---0---0---0---0---0---0---0---|
Eb-----------------------------------|


                             h
Gb-----------------------------------|---------------------|
Db------12------15------15--------5--|--7---------------7/-|
Ab--0---0---0---0---0---0---5--7-----|---------------------|
Eb-----------------------------------|---------------------|


Gb--------------------------|-----------|
Db-/10------9-------(9)----|--7---------|
Ab-----------------------7--|-----------|
Eb--------------------------|-----------|

Gb---------------------------------|------------------------|
Db-----7/10------------------------|--7---------------7/----|
Ab-----------------8-------(8)7---|-------------------------|
Eb---------------------------------|------------------------|


Gb--------------------------|-----------|
Db-/10------9-------(9)----|--7---------|
Ab-----------------------7--|-----------|
Eb--------------------------|-----------|


Gb----------------------------------|-------------------|
Db----------------------------------|-------------------|
Ab-----7/10--------------8-------7-|--0-----------------|
Eb----------------------------------|-------------------|

For whom the bell tolls

Tuning: drop 1/2 step on each string (Eb, Ab, Db, Gb)

Intro.
	|-----------19-18-17-16-------19-----|
	|-----------------------17-16---0h16-|
	|------------------------------------|
	|-2-2-2-2-0--------------------------|    x8

	|---------------------------------|
	|---------------------------------|
	|---------------------------------|
	|-0-3-2-1-0-3-2-1-0-3-2-1-0-2-3-5-|   x4

	|---------------------------------|
	|---------------------------------|
	|-------------------------------2-|
	|-0-3-2-1-0-3-2-1-0-3-2-1-0-2-3---|   x4

	|---------------|-----------|
	|---------------|-----------|
	|---------------|-------3-0-|
	|-0*-0*-3*-3/12-|-0*-3*-----|   x2

	|-----------------------------|---------------------------------|
	|-----------------------------|---------------------------------|
	|-----------------------------|---------------------------------|
	|-0-0-0-3-0-0-0-5-0-0-0-3-6-2-|-0-0-0-3-0-0-0-5-0-0-0-3-6-2-1-0-|   x2

Verse.
	|-------------------|-----------|
	|-------0/2-0/2-0---|-----------|
	|-----------------2-|-------3-0-|
	|-0*-3*-------------|-0*-3*-----|

	|--------------------|-----------|
	|-------222222-0-----|-----------|
	|----------------2---|-------3-0-|
	|-0*-3*------------3-|-0*-3*-----|

Chorus.
	|-----------------------------|---------------------------------|
	|-----------------------------|---------------------------------|
	|-----------------------------|---------------------------------|
	|-0-0-0-3-0-0-0-5-0-0-0-3-6-2-|-0-0-0-3-0-0-0-5-0-0-0-3-6-2-1-0-|   x2

Post Chorus.
	|---------------------|--------------------------|
	|---------------------|--------------------------|
	|---------------------|---2~--2~---------------2-|
	|-0~-0~-0~-3-3333-333-|-0~--0~--0-3-3333-333-0---|


				Then Play The Verse Again.
				 Then Play Chorus Again.

Outro.
    |----------------|           |----------------------|
    |----------------|         |------------------------|
    |----------------|           |----------------------|
    |-0-22-0-22-33-0-|   x3 then |-0-22-0-22-33-0-2-3---| and let ring.

-Human

Tune all guitars down 1 1/2 steps (C# tuning)
Low to high C#, F#, B, E
Symphony intro

1)
E------------------------------------------|
B------------------------------------------|
F#-----------------------------------------|
C#--0--0-7~~0-6~~5-0-3---0-7-6-0-2-3--3--0-|


2)
E-----------------|
B-----------------|
F#----------------|
C#--0---6-7-6-5-0-|


3)
E----------------------------------------|
B----------------------------------------|
F#---------------------------------------|
C#--0--3--5--0--6-7-6-5-0--3--5--7-7-7-7-|
"Don't you leave me father time."
Verse

Wherever I may roam

intro (sitar)
G--------------|----------|
D--4:----------|----------|
A--4:----------|----------|
E--------------|----------|


G---------------------------|---------------|
D---------------------------|---------------|
A---------------------------|---7-----------|
E-----------------/12------|---0------------|


G------------|----------------------------|
D------------|----------------------------|
A------------|----------------------------|
E------------|-----(0)--------------------|


G----------------------------|-------------------|
D----------------------------|-------------------|
A----------7-----------------|-------------------|
E----------0-----------------|--------0----------|


G----------------|----------------|-----------------------|
D----------------|----------------|--2:-------------------|
A----------------|----------------|--4:-------------------|
E---0------------|----0-----------|------------(0)--------|


G---------------------|
D---------------------|
A---------------------|
E------5--6--7--8-----|


  bass figure 1
G-------------------------------|----------------------------|
D-------------------------------|----------------------------|
A-------7-----------------------|----------------------------|
E-------0-0--0--0--0--0--0--0---|--0--0--0--0--0--0--1--1----|


G-------------------------|--------------------------|
D-------------------------|--------------------------|
A-------------------------|--------------------------|
E-0--0--0--0--0--0--0--0--|--5--5--6--6--7--7--8--8--|


G--------------------------|--------------------------|
D--------------------------|--------------------------|
A--7-----------------------|--------------------------|
E--0--0--0--0--0--0--0--0--|--0--0--0--0--3--5--1--1--|

                                         end bass fig 1
G--------------------------|--------------------------|
D--------------------------|--------------------------|
A--------------------------|--------------------------|
E--0--0--0--0--0--1--0--0--|--5--5--6--6--7--7--8--8--|


 riff 1
G-----------------------------|--------------------------|
D-----------------------------|--------------------------|
A--5--6--7--8- ---7-----------|--------------------------|
E--------------0--0--0--0--0--|--0--0--0--0--0--0--1--1--|


G------------------------|--------------------------|
D------------------------|--------------------------|
A------------------------|--------------------------|
E--0--0---0--0--0--0--0--|--5--5--6--6--7--7--8--8--|

 bass fill 1 ---|
G------------------|
D------------------|
A--------5---------|
E------------------|


riff 2    let ring                      let ring
G---------------------------------|----------------------------|
D---------------------------------|----------------------------|
A-----------------7-----(7)------|--------------7-----(7)------|
E--------0---------------------0--|--0--0----------------------|


G-------------|------------------------|
D-------------|------------------------|
A-------------|------------------------|
E--1--1----0--|--1--0--1---1--1h3---1--|


  bass figure 2            let ring
G--------------------|-----------------------------|
D--------------------|-----------------------------|
A--------------------|----------------7----(7)-----|
E--0--0--0--0--0--0--|--0---0--0-------------------|

                       end bass fig 2
G---------------------|--------------------|
D---------------------|--------------------|
A---------------------|--------------------|
E--1---1--1--1--1--1--|--1--0--1--1--8-----|


 1st, 2nd verses
G-----------------|-----------------|--------------------|
D-----------------|-----------------|--------------------|
A-----------------|--------------0--|--1--1--1--1--1--1--|
E--0--0--0--0--0--|--0--0--0--3-----|--------------------|


G-----------|-------------------------|-------------------|
D-----------|-------------------------|-------------------|
A--1--1--1--|--0---0---0---0----0--0--|--0--0---0---0--0--|
E-----------|-------------------------|-------------------|


G-----------------------|---------------------|
D-----------------------|---------------------|
A--1----1--1--1---1--1--|--1--1----1----------|
E-----------------------|--------------x---x--|


G----------------------|--------------------|
D----------------------|--------------------|
A----------------------|-----------------0--|
E--0----0----0--0---0--|--0---0---0---3-----|


G-----------------------|-------------------|---------------------|
D-----------------------|-------------------|---------------------|
A--1---1--1--1----1--1--|--1--1---1---1--1--|---------------------|
E-----------------------|-------------------|--3---3--3--3--3--3--|


G--------------------|-----------------------|
D--------------------|-----------------------|
A--------------------|--1--1--1--1--1--1--1--|
E--3---3---3---3--3--|-----------------------|


G--------------|-----------------|
D--------------|-----------------|
A--1--1--1--1--|--1---1---2---3--|
E--------------|-----------------|

  pm------------------------------------------------|
G------------------------|--------------------------|
D------------------------|--------------------------|
A--5--6--7--7--7--8--7--|---------------------------|
E------------------------|--0---0--0--3--5--1--1----|


G------------------------|--------------------------|
D------------------------|--------------------------|
A------------------------|--------------------------|
E--0---0--0--0--1--0--0--|--5--5--6--6--7--7--8--9--|


 bass fig 3
G--------------------------|--------------------------|
D--------------------------|--------------------------|
A--------------------------|--------------------------|
E--1--1--1--1--1--1--1--1--|--1--1--1--1--1--3--1--1--|


G--------------------------|--------------------------|
D--------------------------|--------------------------|
A--------------------------|--------------------------|
E--0--0--0--0--0--0--0--0--|--0--0--0--0--0--0--3--5--|

                                        end bass fig 3
G--------------------------|--------------------------|
D--------------------------|--------------------------|
A--------------------------|--------------------------|
E--6--6--6--6--6--6--6--6--|--6--6--6--6--6--6--6--6--|


  bass fig 4                     end bass fig 4
G--------------------|-------------------------|
D--------------------|-------------------------|
A--------------------|---------------3---------|
E--5--5--3--5--5--3--|--5--5--3---5-----5---0--|

  riff 3
G---------------------|-----------------------|
D---------------------|-----------------------|
A---------------------|-----------------------|
E--3--3--3--3---3--3--|--0--3--0--3--3--3--3--|


 interlude
G--------------------------|-----------------------------|
D--------------------------|-----------------------------|
A--------------------------|-----------------------3-----|
E--0--0--0--0--0--0--0--0--|--0--0--0--0--1--1--0-----1--|


G--------------------------|
D--------------------------|
A--------------------------|
E--0--0--0--0--0--0--0--0--|

                 end inter.
G--------------------------|
D-----------------------1--|
A--------------------------|
E--0--0--0--0---2---3------|

 riff 4
G--------------------------|--------------------------|
D--------------------------|--------------------------|
A--------------------------|--------------------------|
E--0--0--0--0--0--0--0--0--|--0--0--0--0--0--1--3--1--|


G--------------------------|------------------------|
D--------------------------|---------------------1--|
A--------------------------|--7--7------------------|
E--0--0--0--0--0--0--0--0--|--0--0--0--0--2--3------|


  riff 5
G-----|---------------------|---------------------|
D-----|---------------------|---------------------|
A--5--|------------7--------|------------7-----0--|
E-----|--0---0--0-----0--0--|--0---0--0-----3-----|


G-----------------|--------------------|-------------------|
D-----------------|--------------------|-------------------|
A--1--1--1--1--0--|--1--0--1--1--1--1--|-------------------|
E-----------------|--------------------|--3---3---3--3--0--|


G------------------|----------------------|-------------------|
D------------------|----------------------|-------------------|
A---------------0--|--1--1--1--1---1---0--|--1--0--1--1--1p0--|
E--3---3-----3-----|----------------------|-------------------|

             pm---------------------|
G-----------------------------------|
D-----------------------------------|
A--1--1--2--5--6--7--7--7--8--7-----|
E-----------------------------------|


G--------------------------|--------------------------|
D--------------------------|--------------------------|
A--------------------------|--------------------------|
E--0-----0--0--3--5--1--1--|--0-----0--0--3--5--1--1--|


G--------------------------|--------------------------|
D--------------------------|--------------------------|
A--------------------------|--------------------------|
E--0--0--0--0--0--1--0--0--|--5--5--6--6--7--7--8--8--|


       bass fill 2
G-----|---------------|
D-----|---------------|
A--5--|---------------|
E-----|--3---3--0--3--|


G---|----------------|
D---|----------------|
A---|----------------|
E3--|--3----3--2--1--|

  pre-chorus
G--------------------------|----------------------------|
D--------------------------|----------------------------|
A--------------------------|----------------------------|
E--1--1--1--1--1--1--1--1--|--1----1--1--1--1--1--3--1--|


G--------------------------|-----------------------|
D--------------------------|-----------------------|
A--------------------------|---------------------0-|
E--0--0--0--0--0--0--0--0--|--0--0--0---0--1--3----|


G-------------------------|------|
D-------------------------|------|
A-1--1--1--1--1--1--3--1--|------|
E-------------------------|------|


chorus
G----------------------|------------------------|
D----------------------|------------------------|
A----------------------|---------------3--------|
E--5---5--3--5---5--3--|--5---5--3--5-----5--0--|


G----------------|--------------------------|----------------|
D----------------|--------------------------|----------------|
A----------------|--------------------------|--3---0--3---0--|
E--3---0--3---0--|--0--3--3--0--0--3--0--0--|----------------|


G---------------|--------------------------|--------------------|
D---------------|--------------------------|--------------------|
A--3--3---5--3--|--2--2--2--2--2--2--2--2--|-1--1---1-----------|
E---------------|--------------------------|-----------0--3--1--|


  outro
G--------------------------|--------------------------|
D--------------------------|--------------------------|
A--------------------------|--------------------------|
E--0--0--0--0--0--1--0--0--|--0--0--0--0--3--0--1--1--|


G--------------------------|--------------------------|
D--------------------------|--------------------------|
A--------------------------|--------------------------|
E--0--0--0--0--0--1--0--0--|--5--5--6--6--7--7--8--8--|


bass fig 5
G-----------------------|--------------------------|
D-----------------------|--------------------------|
A--5--6--7--7-----------|--------------------------|
E--------------0--1--0--|--0--0--0--0--3--5--1--1--|


G--------------------------|--------------------------|
D--------------------------|--------------------------|
A--------------------------|--------------------------|
E--0--0--0--0--0--1--0--0--|--5--5--6--6--7--7--8--8--|

The outlaw torn

Tune bass down ½ step

  BASS FIG 1
|-------------------------------------------------------------------|
|-------------------------------------------------------------------|
|-5--7--------7-----7-----5--7--------7-----7-----9--5-5---5-5-5-5--|
|-------0--0--0--0--0--0----------0-0-0--0--0--0--------------------|

----------------------------------------------------|
----------------------------------------------------|
-5--------5-------9---5--5---5-5-5-5--5-----------5-|
---0-3-2-----0---------------------------0--3--0----|
 BASS FIG 2
|------------------------------------------------------------|
|--------2----------------------------2----------------------|
|------------------------------------------------------------|6X's
|-0--3------3-2-3--3---5---3--3---3------3P2-3-2-3--3--3---3-|
 BASS FIG 3
|----------------------------------------------------------------|
|----------------------------------------------------------------|
|-----------5--------------5-----------------9-------------5-----|
|-5-9-9-9-9----9-7-9-9-9-9-----7--5--7-7-7-7---9-7-9-7-9-7---5-0-|
                                          END BASS FIG 3
--------------------------------------------------------|
--------------------------------------------------------|
---------3------------5---------------------------------|
-5-5-5-5----5-3-5-3-3----5-3--5-5-5-5-5--5-5-5--5-5-3-2-|

  CHORUS W/ BASS FIG 1 3X's

2 verse w/ bass fig 2 4x's

|---------------------------------------------------------------------|
|--------------------------5-5----------------------------------------|
|---------7--5-5-7---7-7-7-----5-5-5-5-5-5-5--9---5--5--5-5-5-------5-|
|-5-7-0-0-0--------0------------------------------------------0-3-2---|

|-----------------------------------------------------------------|
|-----------------------------------------------------------------|
|---------5--5----5-5-5-5-5--7-7-7-7--9--5--5-5-5-5-5-5-----------|
|-5-7-0-0-0--0--0---------0-----------------------------0-3-2-5-0-|

|-------------------------------------------------------------|
|-7--9--------------------------------------------------------|
|-5--7----------3---------------------------------------------|
|-------0-0-0-0---5---3-5-5-5-0--3-5-5-5-5-5-5-0-3--2-3-3-3-0-|
 BRIDGE
|-----------------------------------------------------------------|
|-7--9------------------------------------------------------------|
|-5--7----------5-------------------------------------------------|
|-------0-0-0-0----5---3-5-5-5-5-0--3-5-5-5-5--5-0-3H5------2-2-2-|

|-------------------------------------------------------------------|
|-7--9--------------------------------------------------------------|
|-5--7-----------5--------------------------------------------------|
|-------0-0-0-0----5---3-5-5-5-5-0--3-5-5-5-5-5-5-0-5-3---2-3-3-3-0-|
                                                                END FIG4
|----------------------------------------------------------------------|
|-7--9-----------------------------------------------------------------|
|-5--7-----------5-----------------------------------------------------|
|--------0-0-0-0----5---3-5-5-5-0-3-5-5-5-5--5-5-3H5--3-3-3-3-3-2-2-2-2|

  1. INTERLUDE W/ FIG 4 2X's   2. W/ FIG 2 2X's  W/ FIG 3

     3. GUITAR SOLO W/ FIG 4      4. OUTRO W/ FIG 4 2X's

|-------------------------------------------------------------------|
|-------------------------------------------------------------------|
|-------------------------------------------------------------------|
|-0--0--0--1--1---1---2---2---2---3---3---3---0---0---0----1--1---1-|

|----------------------------------------------------------------------|
|----------------------------------------------------------------------|
|----------------------------------------------------------------------|
|-2---2---2---3---3---3---0---0-0-0---1--1--1--1--2--2--2--2--3-3-3-3-3|

|--------------------------------------------------------------------|
|--------------------------------------------------------------------|
|--------------------------------------------------------------------|
|-0----0----0----1----1----1----1---2---2---2---2---3----3----3----3-|

|----------------------------------------------------------------------|
|----------------------------------------------------------------------|
|----------------------------------------------------------------------|
|-0--0-0-0-0-0-0--0-0-0-0-1-1-1-1-1-1-1-1-1-1-1-1-1--2-2-2-2-2-2-2-2-2-|

-------------------------|
-------------------------|
-------------------------|REPEAT AND FADE
-3-3-3-3-3-3-3-3-3-3-3-3-|

sad but true

Tuned 1 whole step below standard
F:------------------------------------|-------------------------------------|
C:------------------------------------|-------------------------------------|
G:--0----------0--0--0--1----------1--|--0-----------0--0--0--1-------------|
D:------------------------------------|-------------------------------------|

F:-----------------------------------------|-------------------------|------|
C:---------------------------------8--5----|-------------------------|------|
G:--0----------0--0--0--1---------------8--|--0----------0--0--0--1--|-Rest-|
D:-----------------------------------------|-------------------------|------|
               Riff 1.                    (x3) Bass Fill 1.
F:-----------|-------------------------------|-----------------------------|
C:-----------|*-----------------------------*|--------------------~~~~~~~--|
G:-Drum-Fill-|---------------5p0--1p0--------|--------------5-0-5-5--------|
D:-----------|*--0-----0--0------------3p0--*|--0-----0--0-----------------|

F:--------------|----------------------|-------------|---------------|
C:--------------|----------------------|-------------|---------------|
G:-Riff-1-(x3)--|---------------rest---|--Drum-Fill--|--Riff-1-(x2)--|
D:--------------|--0-----0--0----------|-------------|---------------|

   Bass Riff 2. (Verse)                              (x4)
F:--------------------------------------------------------|
C:*------------------------------------------------------*|
G:------------5-------------------------------------------|
D:*-0--0--0-0----0--0--R--0-0--0--0--0--6--0--0--R--0-0--*|

   Bass Riff 3. (Chorus)
F:---------------------------------------------------------------------------|
C:*--------------------------------------------------------------------------|
G:------------5--------------------------5-----------------------------------|
D:*-0--0--1-1----1--0--0--0-0--0--0--1-1----1--5--5--5-5-5--5-5-5-4-3--5--3--|

                                  (x2)
F:------------------------------------|-------------|--------------|
C:-----------------------------------*|-------------|--------------|
G:--------------3-3-3-3-------2-3-5---|-Riff-1-(x3)-|-Bass-Fill-1--|
D:3--3-3--3--3-----------0--X--------*|-------------|--------------|

                                                 *2nd Verse
F:---------|---------------------|-------------|---------------------|
C:---------|---------------------|-------------|---------------------|
G:-Riff-1--|---------------Rest--|--Drum-Fill--|--Bass-Riff-2.-(x4)--|
D:---------|--0-----0--0---------|-------------|---------------------|

   *2nd Chorus                            Bass Fill 2.
F:---------------------|----------------|----------------------------|
C:---------------------|----------------|----------------------------|
G:--Bass-Riff-3.-(x2)--|--Riff-1.-(x2)--|------------------0h1p0-----|
D:---------------------|----------------|--0-----0--0--0-3-------3---|

                                         (x4)
F:-------------------------------------------|--------------|
C:-------------------------------------------|--------------|
G:--0---------0-----0--1------------1--1--1--|--Rest,-Drums-|
D:---------------3---------------------------|--------------|

  Gtr. Solo 1
F:----------------|---------------------------|----------|---------|
C:----------------|---------------------------|----------|---------|
G:--Riff-1.-(x3)--|--------------5-0----------|--Riff-1--|-Fill-2--|
D:----------------|--0-----0--0------0-0-3-5--|----------|---------|

                           (x4)  *3rd Chorus     Gtr Solo 2
F:-----------------------------|---------------|----------|----------|
C:-----------------------------|---------------|----------|----------|
G:--0--0--1-1----1--0--0--0-0--|--Riff-3-(x2)--|--Riff-1--|--Fill-2--|
D:------------3----------------|---------------|----------|----------|

                                                            *3rd Verse
F:----------|---------|---------------------|-------------|---------------|
C:----------|---------|---------------------|-------------|---------------|
G:--Riff-1--|-Fill-2--|---------------Rest--|--Drum-Fill--|--Riff-2-(x4)--|
D:----------|---------|--0-----0--0---------|-------------|---------------|

    *4th Chorus                         (x2)
F:---------------|--------------------------|----------------------------|
C:---------------|--------------------------|----------------------------|
G:--Riff-3-(x2)--|--------------------------|----------------------------|
D:---------------|--0--0--0--0--0--0--0--0--|--0--0--12---0--0--0--0-----|

F:------------------------|--------------|-------------------------||
C:------------------------|--------------|-------------------------||
G:------------------------|--Gtr,-Drums--|------------Rest.--------||
D:--0--0--0--0--0---Rest--|--------------|--0----------------------||

             accent                      accent

one

|----------|------------|------|------------|-----------------||----4-------|
|----------|------------|------|------------|-----------------||------------|
|----------|------------|------|------------|---2---2---2---2-||-2----2-3-2-|
|----------|------------|------|------------|-----------------||------------|


|------------|----4---------|------------|
|------------|--------------|------------|
|------------|-2----2-2h3-2-|------------|
|-3----3-0-2-|--------------|-3----3-0-2-|

|----4---------|---------------|-----------------|
|--------------|--------7-5----|-----------------|
|-2----2-2h3-2-|-0----0-----7-|------------------|
|--------------|---------------|-3----3-0-2-3----|


|------------|------------||-------7---------|
|------------|------------||---7-------------|
|----------4-|----5-----7-||-5---5---/7------|
|-0----0-2---|-3----3-5---||------------8----|


|------------|------------|--------------|
|----5-------|----3---3---|-----2---2----|
|------------|------------|---2---2---2/-|
|-3----3-5-3-|-1----1---1-|-0------------|

|--------7-------|------------|--------------|
|----7-----------|----4-------|----3---3-----|
|-/5---5---/7----|------------|--------------|
|-------------8-|-3----3-5-3-|-1----1---1----|


                 1st, 2nd Verses

|-------------||-------4-----|-------------|
|-------------||o------------|-------------|
|--------2h3--||o-2------3-2-|-------------|
|-0----0------||-------------|-2----3-0-2--|

|---4--------|-------------|--------------|---------------|----------------|
|------------|-------------|--------------|--------7-5----|----------------|
|-2----2-3-2-|--------2h5--|-2----2-2h3-2-|-0----0-----7-|-----------------|
|------------|-3--3-0------|--------------|---------------|-3----3-0-2-3---|

|-------------|------4-----|------------|--------------|--------------|
|-------------|------------|------------|--------------|--------------|
|---2-----2---|-2------3-2-|------------|-2----2-2h3-2-|--------0-2h5-|
|-0-----2-----|------------|-2----3-0-2-|--------------|-3----3-------|


|--------------|---------------|--------------|--------||-----------------------|
|--------------|--------7-5----|--------------|--------||-----------------------|
|-2----2-2h3-2-|-0----0-----7-|--------------|--------||--------2-------2-------|
|--------------|---------------|-3----3-0-2-3-|-0--2-0-||-3----5---5-3-2--------|

|-----------------------||----------------|
|-----------------5---6-||-----7----------|
|------2-4-2----3---4---||--5----5s7------|
|-5----------5----------||-----------8----|

|------------|------------|-------------|
|----5-------|----3---3---|-----2---2---|
|------------|------------|---2---2---2-|
|-3----3-5-3-|-1----1---1-|-0-----------|

|-------7-------|-------------|------------|--------------||-------7----------|
|---7-----------|-----5-------|----3---3---|-------------o||---7--------------|
|-5---5---/7----|-------------|------------|--------2h3--o||-5---5---/7-------|
|------------8-|-3----3-5-3-|-1----1---1-|-0----0-------||------------8-------|

|------------|------------|-------------|-------7---------|
|----5-------|----3---3---|-----2---2---|---7-------------|
|------------|------------|---2---2---2-|-5---5---/7------|
|-3----3-5-3-|-1----1---1-|-0-----------|------------8----|

|------------|------------|---------------|
|----5-------|----3---3---|-----2---2-----|
|------------|------------|---2---2---2---|
|-3----3-5-3-|-1----1---1-|-0-------------|

|---------------------|---------------------|---------------------|
|---------------------|---------------------|---------------------|
|--------2---------3--|------2-4-2----2--4--|--------2---------2--|
|-3----3---5-3--3-----|-3----------5--------|-3----3---5-3--2-----|

|---------------------|-----------------------||
|---------------------|-----------------------||
|------2-4-2----2--4--|--------2---------2----||
|-5----------5--------|-3----5---5-3--2-------||

|------------|-------------|------------|------------|-------------|
|------------|-------------|------------|------------|-------------|
|----5-----5-|-------5-----|-2--2---2---|-3--3---3---|-----5---5---|
|-5----5-5---|-3-3-3---3-0-|------0---0-|------1---0-|-5-5---5---5-|

|-------------|------------|---------------|-------------|-------------|
|-------------|------------|---------------|-----7-------|-------------|
|-------------|-2--2---2-0-|-3-3-3-3---3---|---5---5-----|-------5-----|
|-3-3-3-5-3-0-|------0-----|---------1---0-|-5-------5-0-|-3-3-3---3-0-|

|------------|-------------|-------------|-------------|-------------|
|------------|-------------|-----7-------|-------------|-------------|
|-2--2---2---|-3-3-3---3---|---5---5-----|-------------|-2--2---2-0--|
|------0---0-|-------1---0-|-5-------5-0-|-3-3-3-5-3-0-|------0------|

|--------------|-------------|-------------|------------|----------------|
|--------------|-------7-----|-------7-----|------------|----------------|
|-3-3-3-3---3/-|-7-7-7---7-0-|-5-5-5---5--|-2------2-0-|-3-3-3---3/------|
|---------1----|-------------|-------------|------0-----|-------1--------|

|--------------|-------------|------------|---------------|----------|-----------|
|--------7-----|-------7-----|------------|---------------|----------|-----------|
|-/7-7-7---7-0-|-5-5-5---5--|-2--2-0-2-0-|-3-3-3-3---3---|-7--------|-(7)--------|
|--------------|-------------|------------|---------1---0-|-0--------|-(0)-------|

|---------------------------------|
|---------------------------------|
|-------------7---------------7---|
|-0-0-0-0-0-0-0---0-0-0-0-0-0-0---|

|---------------------------------|--------------------------------||
|---------------------------------|--------------------------------||
|-------------7---------------7---|-------------7--------------7---||
|-0-0-0-0-0-0-0---0-0-0-0-0-0-0---|-0-0-0-0-0-0-0--0-0-0-0-0-0-0---||

||----------------------------------||-|
||o--------------------------------o||-|
||o-------------7------------------o||-|
||--0-0-0-0-0-0-0--0-0-0-0-0-0-0-1--||-|

||----------------------------------|-----------------------------------|
||o---------------------------------|-----------------------------------|
||o-------------7---------------7---|-------------7---------------7-----|
||--0-0-0-0-0-0-0---0-0-0-0-0-0-0---|-0-0-0-0-0-0-0---0-0-0-0-0-0-0-----|

|---------------------------------|
|---------------------------------|
|-------------7---------------7---|
|-0-0-0-0-0-0-0---0-0-0-0-0-0-0---|

|---------------------------------|--------------------------------|
|---------------------------------|--------------------------------|
|-------------7-------------------|-------------7--------------7s8-|
|-0-0-0-0-0-0-0---0-0-0-0-0-0-0-1-|-0-0-0-0-0-0----0-0-0-0-0-0-----|

|--------------------------------|--------------------------------|
|--------------------------------|--------------------------------|
|-------------5--------------5s8-|-------------7--------------7s8-|
|-0-0-0-0-0-0----0-0-0-0-0-0-----|-0-0-0-0-0-0----0-0-0-0-0-0-----|

|---------------------------------||
|--------------------------------o||
|-------------5--------------2---o||
|-0-0-0-0-0-0----0-0-0-0-0-0---1--||

||-----------------------|-------------------|
||o----------------------|-------------------|
||o-------------2--------|-------2--------3--|
||--0-0-0-0-0-0----0-0-0-|-0-0-0----0-0-0----|

|----------------------|--------------------|
|----------------------|--------------------|
|-------------2--------|-------2--------3---|
|-0-0-0-0-0-0----0-0-0-|-0-0-0----0-0-0-----|

|----------------------|-------------------|
|----------------------|-------------------|
|-------------2--------|-------2--------3--|
|-0-0-0-0-0-0----0-0-0-|-0-0-0----0-0-0----|

|----------------------|---------------------|
|----------------------|---------------------|
|-------------2--------|-------2--------3----|
|-0-0-0-0-0-0----0-0-0-|-0-0-0----0-0-0------|

|-----------------------|-----------------------|------------------------||
|-----------------------|-----------------------|-----------------------o||
|-7-7-7-7-7-7-7---7-7-7-|-7-7-7-7-7-7-7---7-7-7-|-7-7-7-7-7-7-7---7-7-7-o||
|-0-0-0-0-0-0-0---0-0-0-|-0-0-0-0-0-0-0---0-0-0-|-0-0-0-0-0-0-0---0-0-0--||


   Guitar Solo lardey dar dey dar
    4x
||-----------------------|--------------------||-|
||o----------------------|-------------------o||-|
||o-------------2--------|-------2--------3--o||-|
||--0-0-0-0-0-0----0-0-0-|-0-0-0----0-0-0-----||-|

||------------------------|-----------------------||
||o-----------------------|----------------------o||
||o-7-7-7-7-7-7-7---7-7-7-|-7-7-7-7-7-7-7---7-7-7o||
||--0-0-0-0-0-0-0---0-0-0-|-0-0-0-0-0-0-0---0-0-0-||

||--------------------|-------------------|
||o-------------------|-------------------|
||o-------------7--7--|-------------7--7--|
||--0-0-0-0-0-0-0--0--|-0-0-0-0-0-0-0--0--|

|-------------------|--------------------||
|-------------------|-------------------o||
|-------------------|-------------------o||
|-0-0-0-0-0-0-0--1--|-3-3-3-3-3-3-3--3---||

||--------------------|-------------------|
||o-------------------|-------------------|
||o-------------5--5--|-------------5--5--|
||--3-3-3-3-3-3-------|-3-3-3-3-3-3-------|

|-------------------|--------------------||
|-------------------|-------------------o||
|-------------5--5--|-------------------o||
|-3-3-3-3-3-3-------|-1-1-1-1-1-1-1--1---||

||----------------|---------------|-------------------|-------------------||
||o---------------|---------------|-------------------|------------------o||
||o---------------|---------------|-------------------|------------------o||
||--0-0-3--0-0-3--|-0-0-3--0-0-3--|-1-1-1-1-1-1-1--1--|-1-1-1-1-1-1-1--1--||

|-----------------------|-------------------------|
|-----------------------|-------------------------|
|-----------------5-5-5-|-5-5-5-4-4-4-3-3-3-2-2-2-|
|-3-3-3-3-3-3-3---------|-------------------------|


    4x
||-----------------------|--------------------||
||o----------------------|-------------------o||
||o-------------2--------|-------2--------3--o||
||--0-0-0-0-0-0----0-0-0-|-0-0-0----0-0-0-----||

|-----------------------|-------------------------|
|-----------------------|-------------------------|
|-7-7-7-7-7-7-7---5-5-5-|-5-5-5-4-4-4-3-3-3-2-2-2-|
|-----------------------|-------------------------|


   4x
||-----------------------|--------------------||
||o----------------------|-------------------o||
||o-------------2--------|-------2--------3--o||
||--0-0-0-0-0-0----0-0-0-|-0-0-0----0-0-0-----||

|---------------|---------------|---------------|
|---------------|---------------|---------------|
|---------------|---------------|---------------|
|-0-0-3--0-0-3--|-0-0-3--0-0-3--|-0-0-3--0-0-3--|

||--------------------|-----------------||
||o-------------------|----------------o||
||o-------------7--7--|----------------o||
||--0-0-0-0-0-0-0--0--|-1-1-1--1-1-1----||

|---------------|---------------|----------------------|
|---------------|---------------|----------------------|
|---------------|---------------|-------------2--------|
|-3-3-3--3-3-3--|-3-3-3--3-3-3--|-0-0-0-0-0-0----0-0-0-|


|-------------------|--------------------------|--------------------*|
|-------------------|--------------------------|--------------------*|
|-------2--------3--|-7-7-7-7-7-7-7---19-19-19-|-19-19-19-19--------*|
|-0-0-0----0-0-0----|-0-0-0-0-0-0-0----0--0--0-|--0--0--0--0--------*|

enter sandman

tempo=124                                                      x5

|---------------------------------------------------------------|
|---------------------------------------------------------------|
|---------------------------------------------------------------|
|-0-0-0-0-0-0-0-0-0-0-0-0-0-0-0-0-0-0-0-0-0-0-0-0-0-0-0-0-0-0-0-|

|--------------------------------------------------------------------------|
|--------------------------------------------------------------------------|
|--------------------------------------------------------------------------|
|-0-0-6-5-5-5-0--0-0-6-5-5-5-0--0-0-6-5-5-5-0--0-0-6-5-5-5-3-0-2-0-2-3-2-0-|

|--------------------------------------------------------------------------|
|--------------------------------------------------------------------------|
|--------------------------------------------------------------------------|
|-0-0-6-5-5-5-0--0-0-6-5-5-5-0--0-0-6-5-5-5-0--0-0-6-5-5-5-3-0-2-0-2-3-2-0-|

Verse

|----------------------------------------------------------------------------|
|----------------------------------------------------------------------------|
|----------------------------------------------------------------------------|
|-0-0-0-0-0-0-0-1-0-0-0-0-0-0-0-1-0-0-0-0-0-0-0-3---0-2-0-3-2----------------|

                  Bridge
|----------------|-------------------------------------------------------|
|----------------|-------------------------------------------------------|
|----------------|-------2------------2-----------2------------2-2-2-----|
|-0-2-0-2-3-2-2--|-----------2------------2------------2-2-2-2-------0---|

Chorus
|------------------------------------------------------------------------|
|-----------------------------------------------------------2-2--2-0-----|
|-------3-2-2-2----------3-2-2-2-----------3-2-2-2--------2----------2-0-|
|-2-2-2---------2----2-2---------2-----2-2---------0---------------------|

|-----------------------------------------------------|
|-----------------------------------------------------|
|----------3--2--2--2---------------------------------|
|-2--2--2--------------0----0--2--0--3--0--3--2--3----|

                  Guitar Solo                                             x2
|--------------------------------------------------------------------------|
|--------------------------------------------------------------------------|
|--------------------------------------------------------------------------|
|---0-0-0-0-0-0-0---0-0-6-5-5-5---0-0-6-5-5-5---0-6-5-5-5-3--0-2-0-2-3-2-0-|


|--------------------------------------------------------------------------|
|--------------------------------------------------------------------------|
|-------2----------2-----------2-------------2-2-2----------3-2-2-2--------|
|---2-------2----------2-------------2-2-2-2-------0--2-2-2---------2------|

|--------------------------------------------------------------------------|
|--------------------------------------------------------5--2--0-----------|
|--------3--2--2--2--2--------------3--2--2--2-------------------2--1--0---|
|--2--2-----------------2-----2--2--------------0-------------------------3|

|----------------------------------------------------|
|----------------------------------------------------|
|--------------2--2--2-------------------------------|
|--2--2--2--2-----------0-----0--2--0--3--0--5--3--0-|


|---------------------------------------------------------------|
|---------------------------------------------------------------|
|---------------------------------------------------------------|
|-0-0-0-0-0-0-0-0-0-0-0-0-0-0-0-0-0-0-0-0-0-0-0-0-0-0-0-0-0-0-0-|

|---------------------------------------------------------------|
|---------------------------------------------------------------|
|---------------------------------------------------------------|
|-0-0-0-0-0-0-0-0-0-0-0-0-0-0-0-0-0-0-0-0-0-0-0-0-0-0-0-0-0-0-0-|


|-----------------------------------------------------------------|
|-----------------------------------------------------------------|
|-----------------------------------------------------------------|
|-2-2-2-2-2-2-2-2-2-2-2-2-2-2-2-2-2-2-2-2-2-2-2-2-2-2-2-2-2-2-2-2-|


|-------------------------------------------------------------------|
|-------------------------------------------------------------------|
|---------------------------------------------------------2-2-2-----|
|-2-2-2-2-2-2-2-2-2-2-2-2-2-2-2-2-2-2-2-2-2-2-2-2-2-2-2-2-------0---|

|--------------------------------------------------------------------|
|--------------------------------------------------------------------|
|-------3-2-2-2----------3-2-2-2----------3-2-2-2----------3-2-2-2---|
|-2-2-2---------2----2-2---------2----2-2---------2----2-2---------2-|

|--------------------------------------------------------------------|
|--------------------------------------------------------------------|
|-------3-2-2-2---------------------------3-2-2-2--------------------|
|-2-2-2---------0---0-0-0-0-0-0-0--2-2-2----------0----0-0-0-0-0-0-0-|

|--------------------------------------------------------------------|
|-----------------------0-1-2-0--------------------------------------|
|-------3-2-2-2------2----------2-0--------3-2-2-2-------------------|
|-2-2-2---------0--------------------2-2-2---------0---0-2-0-3-0-3-2-|
--
|-----------------------------------------------------------------------|
|-----------------------------------------------------------------------|
|-----------------------------------------------------------------------|
|----3---------------0--------------------------------------------0-----|

|-----------------------------------------------------------------|
|-----------------------------------------------------------------|
|-----------------------------------------------------------------|
|-0-0-6-5-5-5-0---0-0-6-5-5-5-0---0-0-6-5-5-5-0---0-0-6-5-5-5-0---|

                                                     repeat to fade
|-----------------------------------------------------------------|
|-----------------------------------------------------------------|
|-----------------------------------------------------------------|
|-0-0-6-5-5-5-3---0-2-0-2-3-2-0---0-0-0-0-0-0-0--0-0-0-0-0-0-0-0--|


Battery


Intro
|--------------------||----------------|---------------|----------------|
|--4/4-------12------||:---------------|---------------|----------------|
|------|---pause---|-||----------------|---------------|----------------|
|--------------------||0---0-0-1-------|2---2-2-3------|0---0-0-1-------|

|----------------------||----------------||
|---------------------:||----------------||
|----------------------||----2-----------||
|2---2-2-3---3--3--1-0-||0-------3---2---||

tempo=190

||------------|-----------------|-------------|-------|------|--------------||
||------------|-------3---------|-------------|-------|------|--------------||
||------------|--|---pause---|--|-------------|-------|------|--------------||
||0-----------|-----------------|0-------6-6-5|0------|------|6-5--5---5---5||

                                                   -----------------|
                                                  |1
||----------------|---------------|---------------|----------------||
||:---------------|----------5-5-4|5--------------|---------------:||
||----------------|---------------|---------------|----------------||
||-0-000-000-6-6-5|0-000-000------|--000-000-6-6-5|0-2---3-0-3--4--||

-----------------
|2
|-------------|-----------------|---------------|--------------||
|-------------|-----------------|----5-5-----5-5|----7-7-------||
|-------------|-----7-7------7-7|---------------|------------6-||
|6--5--5--5--5|0--------0--00---|3-------3-33---|5-5-----1-0---||

1st,2nd,3rd Verses
                                                                  X2
||-----------------|--------------|---------------|------------|
||:----------------|-----------554|5--------------|------------|
||-7----7----7-----|7----7----7---|-----7----7----|------------|
||----00---0---66-5|---00---00----|---00---00--665|0--2---303-4|

|---------------|-------------|------------|------------------|
|---------------|----5------55|-----7-7----|------------------|
|------7------77|-------------|---------776|7----7----7-------|
|0----------00--|3-3---22333--|5-5---------|--0-0--0-0---6-6-5|

|--------------|---------------|--------------|--------------|
|-----------554|5--------------|--------------|--------------|
|-7----7---7---|----7---7------|--------------|----7-------7-|
|----00--00----|--00--00--6-6-5|0--2--3-0-3--4|0--------000--|

|---------------|--------------|-------------|------------|
|-----5-5-----55|--------------|5------------|---------554|
|---------------|--------7-7-6-|---7--7------|7----7--7---|
|3--------3-33--|5-5-5-5-------|-00-00--6-6-5|---00-00----|

|----------|-----------|--------------|----------------|
|---------5|-----------|--------------|-----------5-5-4|
|---7------|---2------6|7----7--7-----|-----7---7------|
|0-----7---|3------0---|---00-00-6-6-5|0--00--00-------|

|------------------|-------------|-----------|-----------| 3rd time to Coda
|5--------------8--|-------------|--------554|5----------|
|---7--7----------8|7---7--7-----|7---7--7---|---7--7----|
|-00-00--6-6-5-----|--00-00-6-6-5|--00-00----|-00-00--665|

              -------------------------------------------|-------------|
              |1                                         |2
|-------------|------------|------------|---------------||-------------||
|-------------|------------|-----5-----5|--------------:||-------------||
|1------------|----7-----7-|------------|-------------6-||-------------||
|----1---0----|0-0---0-0---|3-3----3-3--|5-55-5-5-3-0---||0------------||

Interlude
|--------------|--------------|---------------|--------------|
|--------------|--------------|--------5------|5-----5-------|
|-------7------|-------7---7--|---------------|------------2-|
|0--0-0---0---0|0--0-0---0---0|3---3-3---3-3-3|--3-----0-0---|

|---------------|---------------|---------------|----------4||
|---------------|---------------|--------5------|---------5-||
|-------7----7--|--------7---7--|---------------|-----------||
|0--0-0---0---0-|0-----0---0---0|3---3-3---3-3-3|3------3---||
                                                                       X3
||------------------|---------------|--------------|----------------||
||:-----------------|---------------|--------------|--4-5-7-8-8-9--:||
||---------7-----7--|----7-7--------|-------------7|7---------------||
||-0---0-0---0-0---0|0-0-----8-8-7-7|3---3-3-3-0---|----------------||
                                              P

|--------------|------------|--------|--------|-------------||
|--------------|------------|--------|--------|-------------||
|-------7-----7|----------3-|--------|--------|-------------||
|0--0-0---0-0--|0-----3-----|3-------|(3)-----|6--5--5--5--5||

Guitar Solo
||-------------------|------------------|----------------|----------------|
||:------------------|------------------|----------------|----------------|
||-7-----7----7------|------------------|7----7---7------|----------------|
||---0-0--0-0---6-6-5|0--6-6-5--0--6-5-5|--0-0-0-0--6-6-5|0--6-6-5-0-3-3-1|

|-------------------|------------------|--------------------|--------------||
|-------------------|------------------|--------------------|-------------:||
|7-----7-----7------|------------------|7------7-----7------|--------------||
|--0-0---0-0---6-6-5|0--6-6-5--0--6-6-5|---0-0---0-0---6-6-5|6--5--5--5--5-||

|--------------|-----------------|--------------|----------------|
|--------------|----5-5-------5-5|--------------|----4---------4-|
|---7-------7--|-----------------|--------------|----------------|
|0-----0-00---0|3-3--------33----|5---5-5-5-005-|2-2-------2-2---|

|--------------|----------------|----------------|----------------||
|--------------|----5-5------5-5|----------------|----------------||
|---7-------7-7|----------------|----------------|----------------||
|0----0-0-00---|3-3-------33----|5---------------|--------------2-||

                                  X4                              D.S. al Coda
||-----------------|---------------||-------------|----------------||
||:----------------|--------------:||-------------|----------------||
||-----------------|---------------||-------------|--------------6-||
||-1(0)6(0)7(0)6(0)|7(0)6(0)7(0)2--||1------------|----------1-1---||

    Coda
    |------|   |-------------|----------------|   |----------------|   |-------------|
 2/4|------|4/4|-------------|-----------5-5-4|5/4|----------------|4/4|-------------|
    |1-----|   |7---7---7----|7----7---7------|   |7---7---7----1--|   |7---7---7----|
    |----1-|   |-00--00---665|--00--00--------|   |--00--00-665---1|   |--00--00--655|
    Bat-ter-   -y!
                                                                           X7
|---------------|----------------|--------||---------------|----------------||
|----------5-5-4|5---------------|--------||:--------------|---------------:||
|7---7---7------|----7---7-------|1-------||---------------|----------------||
|--00--00-------|--00--00---6-6-5|--1-0---||-1-6(0)7(0)6(0)|7(0)6(0)7(0)-2--||

|--------------|-----------|-------------|------------|---------||
|--------------|-----------|-------------|------------|---------||
|--------------|-----------|-------------|------------|---------||
|1-6(0)7(0)6(0)|7----------|(7)----------|2-2--1--1--1|0--------||

the guys who tabbed both disks
ktulu- brad larsen
puppetz- maf
wolf- dan pfiefer
thingy- maf
fuel- Xswinnger54
memory- russell crockett
clover- al
hero- eros fratini
devil- eros fratini
bleed- steve gorenberg/eros fratini

nothin'- kevin mcdonald
sleepz- bass_player2001
bellz- dan bowden
-human- drew jamieson
roam- dorothy st. claire
outlaw- steve gorenberg
sad- john rose
one- taz
sandman- legend
battery- maf

the guy who put all this shit together
big tommy p
comments
print report bad tab
3 comments total.
0 reply
cburton_101 wrote on November 3 2004, 12:00 am

i just have one comment.... im watchin the s&m dvd right now and how you say jason played it isn't how he's playing it right now... not even close. but other than that, good job!

0 reply
Scardz wrote on September 1 2006, 01:17 am

good tabs, pretty accurate. one thing i'm goin to say is with nothin else matters there is no bass in the first verse, it doesnt come in until after the first chorus. its tough to tell what jason is playin on the dvd because i have noticed on my version that the synchronising between video and audio is out pretty badly at a fair few stages so its really hard to tell in parts what he is actually playin. Enter Sandman is particularly obvious in the intro. And watch kirk during the first verse of hero of the day if you want any more proof, when he fades in then out of picture. And james in call of ktulu is out in parts aswell i've noticed. but well tabbed, its very handy.

+1 reply
T.B.K. wrote on November 29 2006, 02:52 pm

there is NO bass in the first verse in Nothing else matters and NO bass in the first verse in Hero of the day!!! you took these tabs from original singles, not from s&m!!!

I want to post or [tab]
guest
You may want to rate the tab now too:
select rating
Please do not post tabs as comments. Select "correction" instead!