Oops, an error
Loading. Please wait.

S And M Tab

29,365 views 27 this week
16 commentsread comments
1 2 3 4 5
accurate
x 22
add to favorites launch autoscroll
font size
0
reset
Autoscroll
+/-
esc
set tempo
stop
Contributor
WARNING: You are trying to view
                                    content from Ultimate-Guitar.com
                                    in an unauthorized application,
                                    which is prohibited.

                                    Please use an official Ultimate
                                    Guitar Tabs application for iPhone,
                                    iPad or Android to access legitimate
                                    chords, guitar, bass, and drum tabs
                                    from Ultimate-Guitar.com database.

                                    Type "ultimate guitar tabs" in Apple
                                    App Store's or Android Market's
                                    search to find the application.
Band- Metallica
Album- S&M

This album is so good cause it has every Metallica classic, all jam packed into 2
discs.The album is
2 CD's, but I wrote them all as 1.Here they are:

1.The Ecstacy Of Gold
2.The Call Of Ktulu
3.Master Of Puppets
4.Of Wolf & Man
5.The Thing That Should Not Be
6.Fuel
7.The Memory Remains
8.No Leaf Clover
9.Hero Of The Day
10.Devil's Dance
11.Bleeding Me
12.Nothing Else Matters
13.Until It Sleeps
14.For Whom The Bell Tolls
15.Human
16.Wherever I May Roam
17.The Outlaw Torn
18.Sad But True
19.One
20.Enter Sandman
21.Battery

1.THE ECSTACY OF GOLD

standard tuning


rythm guitar:
1a) Amin                       Cmaj                       Dmin  Fmaj
e------------------------- t ------------------------ t -1------1-|
B--0-1---0-1---0-1---0-1-- w -3-5---3-5---3-5---3-5-- w -3------1-|
G------2-----2-----2-----2 i -----5-----5-----5-----5 i -2------2-|
D------------------------- c ------------------------ c -0------3-|
A------------------------- e ------------------------ e ----------|
E------------------------- - ------------------------   ----------|
adaption of the piano part (0:34)
clean


melody guitar
1b) Harm
e------------------------------------------------|
B---------5~~~-8-5~~~---5--------5----5----------|
G---------------------7---7-5--7---7----7--------|
D-------7---------------------------------7-7~~~-|
A--12--------------------------------------------|
E------------------------------------------------|
adaption of the muted horn melody riff at the beginning (0:34)


melody guitar
1c)
e-----12~~~-15-12~~~----12-----------12-----12----------|
B--------------------15----15-13--15----15-----15-------|
G--14---------------------------------------------14-14-|
D-------------------------------------------------------|
A-------------------------------------------------------|
E-------------------------------------------------------|
adaption of the violin part (1:21)

rythm guitar
2a) Amin                       Gmaj                       Cmaj   Bdim7
e------------------------- t ------------------------ t -0----------|
B--0-1---0-1---0-1---0-1-- w -0-----0-----0-----0---- w -1------2-2-|
G------2-----2-----2-----2 i ---0-----0-----0-----0-- i -0------4-3-|
D------------------------- c -----0-----0-----0-----0 c -2------4-4-|
A------------------------- e ------------------------ e -3------2-2-|
E-------------------------   ------------------------   ------------|
adaption of the piano part (0:58)
clean

melody guitar
2b) Harm
e--------------7---------------------------------|
B---------5~~~---8~~~-5-8-5----5-8-5--8-----5~~~-|
G---------------------------7-----------5-7------|
D-------7----------------------------------------|
A--12--------------------------------------------|
E------------------------------------------------|
adaption of the muted horn melody riff (0:58)


melody guitar
2c)
e-----12~~~-19-15~~~-12-15-12-----12-15-12--15-------12-|
B-----------------------------15---------------13-15----|
G--14---------------------------------------------------|
D-------------------------------------------------------|
A-------------------------------------------------------|
E-------------------------------------------------------|
adaption of the violin part (1:34)

rythm guitar
3a)
e-------------------------------------------------------|
B--1------5---------------------------------------------|
G--2------5------7------------10----------------7-----7-|
D--2------5------7------------10------------6-9---10----|
A--0------3------5------------8----12-10--7-------------|
E-------------------------------------------------------|
riff 3a is the lower string section (1:45)
still clean

melody guitar
3b)
e------------------------------------5------4-7-10-8--10-|
B----5~~~-8-5~~~---5--------5------5---8--5--------------|
G----------------7---7-5--7------5-----------------------|
D--7---------------------------7-------------------------|
A--------------------------------------------------------|
E--------------------------------------------------------|
riff 3b is the higher melody (1:45)

rythm guitar
4a)
G--2--2-------2-----2--5--5-------5-----5--7--7-------7-----7--10-|
D--2--2-------2-----2--5--5-------5-----5--7--7-------7-----7--10-|
A--0--0-0-0-0-0-0-0-0--3--3-3-3-3-3-3-3-3--5--5-5-5-5-5-5-5-5--8--|
E-----------------------------------------------------------------|
riff 4a is when the full orchestra comes in (2:02)
crunch


melody guitar 1
4b)
e-----12-------15-12---------17------20-17-------|
B-------------------------15---------------------| repeat
G--14--------------------------------------------|
D------------------------------------------------|
A------------------------------------------------|
E------------------------------------------------|
riff 4b) is the strings (higher melody) in the "echo" part of the melody
(2:02)

melody guitar 2
4c)
e---------------------------------5--------8-5----|
B-----------5---------8-5-------------------------|
G-------------------------7-----7-----------------| repeat
D---------7---------------------------------------|
A-----------------------------------------------0-|
E-------------------------------------------------|
riff 4c) is the brass (lower melody) in the "echo" part of the melody
(2:02)

2.THE CALL OF KTULU

Intro
    Q=140
   4/4
    Gtr I
    E E E E E E E E   E E E E E E E E   E E E E E E E E   E E E E E E E E
||----5---------5---|---5---------5---|---6---------6---|---6---------6----|
||o-------6---5---6-|-------6---5---6-|-------6-------6-|-------6-------6--|
||------7-----------|-----7-----------|-----7-----9-----|-----7-----9------|
||--0-------7-------|-0-------7-------|-0-------8-------|-0-------8--------|
||o-----------------|-----------------|-----------------|------------------|
||------------------|-----------------|-----------------|------------------|
    H       H         H       H         H       H         H       H
 |-Rhy Fig 1

                                                         1.
  E E E E  E E E E   E E E E  E E E E   E E E E E E E E   E E E E E E E E
|---8----------8---|---8----------8---|---5---------5---|---5---------5----||
|-------8--------8-|-------8--------8-|-------6---5---6-|-------6---5---6-o||
|-----9------9-----|-----9------9-----|-----7-----------|-----7------------||end
|-0-------10-------|-0-------10-------|-0-------7-------|-0-------7--------||Rhy Fig 1
|------------------|------------------|-----------------|-----------------o||
|------------------|------------------|-----------------|------------------||
  H        H         H        H         H       H         H       H


  2.
  W            E   E E E E E Q     E E E E E E E E  4x
|----------||------------0-------|---------0--------||
|-6--------||o---------0---0-----|-------0---0-----o||
|----------||--------5-------5---|-----5-------5----||
|-0--------||------7-------------|---7-----------7--||
|----------||o-0---------------7-|-6---------------o||
|----------||--------------------|------------------||
               H..             E   W
            |-Rhy Fig 2               end Rhy Fig 2-|


    E E E E E E E E   E E E E E E E E  4x
||--------1-------1-|-------1-------5--||
||o-----3-------3---|-----3-------3---o||
||----2-------3-----|---4-------5------||
||--0-------0-------|-0-------0--------||
||o-----------------|-----------------o||
||------------------|------------------||
    H       H         H       H
 |-Rhy Fig 3             end Rhy Fig 3-|


w/Rhy Fig 2 x4
 Gtr II
    <                   <
    w                   w                4x
||--------------------|------------------||
||o-1-----------------|-1---------------o||
||--2-----------------|-2----------------||
||--2-----------------|-1----------------||
||o-------------------|-----------------o||
||--------------------|------------------||


w/rhy fig 3 x4
    <       <         <                   <       <         <
    h       h         w                3x h       h         w
||------------------|------------------||-----------------|-------------------|
||o-----------------|-----------------o||-----------------|-------------------|
||------------------|------------------||-----------------|-------------------|
||------------------|------------------||-----------------|-------------------|
||o-5-------7-------|-8---------------o||-5-------7-------|-8-----------------|
||------------------|------------------||-----------------|-------------------|
|
|   gtr iii
|                                         pm--------------------------|
|   w                 w                3x e e e e e e e e   e e e e e e q
||------------------|------------------||-----------------|----------------------|
||o-----------------|-----------------o||-----------------|----------------------|
||------------------|------------------||-----------------|----------------------|
||------------------|------------------||-----------------|----------------------|
||o-----------------|-----------------o||-7-7-7-7-7-7-7-7-|-7-7-7-7-7-7-7\\------|
||------------------|------------------||-----------------|----------------------|


    gtr ii
    pm------------------------------------
    e e e e e e e e   e e e e e e e  e  4x
||----------0-------|---------0---------||
||o-------0---0-----|-------0---0------o||
||------5-------5---|-----5-------5-----||
||----7-------------|---7------------7--||
||o-0-------------7-|-6----------------o||
||------------------|-------------------||
|-rhy fig 5               end rhy fig 5-|
|
|   gtr iii
|   pm--------------------------|
|   e e e e e e e e   e e e e e e e  e  4x
||------------------|-------------------||
||o-----------------|------------------o||
||------------------|-------------------||
||----------------9-|-8-8-8-8-8-8-9s11--||
||o-7-7-7-7-7-7-7-7-|-6-6-6-6-6-6-7s=9-o||
||--5-5-5-5-5-5-5---|-------------------||
 |-rhy fig 4              end rhy fig 4-|


 -----------------------------------|
    e e e e e e e e   e e e e e e e e  3x
||--------1-------1-|-------1-------5--||
||o-----3-------3---|-----3-------3---o||
||----2-------3-----|---4-------5------||
||--0-------0-------|-0-------0--------||
||o-----------------|-----------------o||
||------------------|------------------||
|-rhy fig 7              end rhy fig 7-|
|
|   pm------------------------------|
|   e e e e e e e e   e e e e e e e e  3x
||------------------|------------------||
||o-----------------|-----------------o||
||--2-2-2-2-3-3-3-3-|-4-4-4-4-5-5-5-5--||
||--0-0-0-0-0-0-0-0-|-0-0-0-0-0-0-0-0--||
||o-----------------|-----------------o||
||------------------|------------------||
 |-rhy fig 6             end rhy fig 6-|


w/rhy fig 5 & 6
  gtr iv
  s s s s s s s s s s s s s s s s   s s s s s s s s s s s s s s s s
|---------------------------------|---------------------------------|
|---------------------------------|---------------------------------|
|---------------------------------|---------------------------------|
|-3p0h2p0h3p0h2p0h3p0h2p0h3p0h2p0-|-3p0h2p0h3p0h2p0h3p0h2p0h3p0h2p0-|
|---------------------------------|---------------------------------|
|---------------------------------|---------------------------------|

rhy fig 4 & 5 x4

rhy fig 6 & 7 x3


w/rhy fig 6 & 7
  gtr iv
  s s s s s s s s s s s s s s s s   s s s s s s s s s s s s s s s s
|---------------------------------|---------------------------------|
|---------------------------------|---------------------------------|
|---------------------------------|---------------------------------|
|-3p0h2p0h3p0h2p0h3p0h2p0h3p0h2p0-|-3p0h2p0h3p0h2p0h3p0h2p0h3p0h2p0-|
|---------------------------------|---------------------------------|
|---------------------------------|---------------------------------|


                        pm--|
    e e e e e e e e   e e e e e e e  e  4x
||------------------|-------------------||
||o-----------------|------------------o||
||------------------|-------------------||
||----------------9-|-8-------8-9-9s11--||
||o-7-7-7-7-7-7-7-7-|-6-6-6-6-6-7-7s=9-o||
||--5-5-5-5-5-5-5---|-------------------||
 |-rhy fig 8              end rhy fig 8-|


rhy fig 6 x3

w/rhy fig 6
  gtr iv
  s s s s s s s s  s s  s s  s s  s s
|-------------------------------------|
|-------------------------------------|
|-------------------------------------|
|-------------------------------------|
|-8p5h7p5h8p5h7p5s12p9h10p9h12p9h10p9s|
|-------------------------------------|


   s  s  s  s  s  s  s  s  s  s  s  s q
|---------------------------------------------|
|---------------------------------------------|
|---------------------------------------------|
|---------------------------------------------|
|-13p10h12p10h13p10h12p10s15p12h14p12-x\\-----|
|---------------------------------------------|


rhy fig 8 x4

rhy fig 6 x3

w/rhy fig 6
  gtr iii
  s s s s s s s s s s s s s s s s   e  e  e  e  e  e  e  e
|---------------------------------|-------------------------|
|---------------------------------|-------------------------|
|-2p0h2p0h2p0h2p0h3p0h3p0h3p0h3p0-|-------------------------|
|---------------------------------|-------------------------|
|---------------------------------|-x/-x/-x/-x/-x/-x/-x/-x/-|
|---------------------------------|-------------------------|


      pm--|             pm--|
    e e e e e e e e   e e e e e. s +e  e
||------------------|--------------------|
||o-----------------|--------------------|
||------------------|--------------------|
||------------------|--------------------|
||o-2-------0---2-3-|-3-------0--2-(2)-3-|
||--0-0-0-0---0-----|-1-1-1-1------------|
 |-rhy fig 9

    pm--|             pm--|
  e e e e e e e e   e e e e e. s +e  e
|-----------------|----------------------||
|-----------------|---------------------o||
|-----------------|----------------------||
|-----------------|----------------------||
|-4-------0---2-3-|-5-------3--2-(2)----o||
|-2-2-2-2---0-----|-3-3-3-3----------3---||
                           end rhy fig 9-|

w/rhy fig 9
    gtr iv
    q   e e  e.   s +e  e   q   e e  e. s +e  e
||------------------------|---------------------|
||o-----------------------|---------------------|
||------------------------|---------------------|
||--7---7-9-10----9-(9)-7-|-----7-9-10--9-(9)-7-|
||o-----------------------|-8-------------------|
||------------------------|---------------------|

  q   e e  e.   s +e  e    q   e e  e. s +e   e
|-----------------------|-------------------------||
|-----------------------|------------------------o||
|-----------------------|--------------7-(7)------||
|-----7-9-10----9-(9)-7-|------7-9-10--------10---||
|-9---------------------|-10---------------------o||
|-----------------------|-------------------------||


        pm---|      pm                pm---|
      e e  e  e  e  e      e   e    e e  e  e  e.  s  +e   e
||-------------------------------|---------------------------|
||o------------------------------|---------------------------|
||-------------------------------|---------------------------|
||-------------------------------|---------------------------|
||o---5----------3---------5---6-|--6----------3---5--(5)--6-|
||----3-3--3--3-----3------------|--4-4--4--4----------------|
|
|     ~~~                           ~~
|     q    e  e  e.    s  +e   e    q    e  e  e.  s  +e   e
||-------------------------------|---------------------------|
||o------------------------------|---------------------------|
||--/12---12-14-15----14-(14)-12-|------12-14-15--14-(14)-12-|
||-------------------------------|-13------------------------|
||o------------------------------|---------------------------|
||-------------------------------|---------------------------|


     pm---|      pm                pm---|
   e e  e  e  e  e      e   e    e e  e  e  e.  s  +e   e
|-----------------------------|-----------------------------||
|-----------------------------|----------------------------o||
|-----------------------------|-----------------------------||
|-----------------------------|-----------------------------||
|--7--------------------5---6-|--8----------6---5--(5)-----o||
|--5-5--5--5--8--5------------|----6--6--6--------------6---||
|
|  ~~                            ~~
|  q    e  e  e.    s  +e   e    q    e  e  e.  s  +e   e
|-----------------------------|-----------------------------||
|-----------------------------|----------------13-(13)-----o||
|------12-14-15----14-(14)-12-|------12-14-15----------15---||
|-14--------------------------|-15--------------------------||
|-----------------------------|----------------------------o||
|-----------------------------|-----------------------------||


 guitar solo
w/rhy fig 8 x4

                                                             ~~~~~
                                     |-------3-------|               |------3------|
   q       q       q       q         q       q       q       q       e     +e      e
|---------------------------------|--------------------------------------------------|
|-20b22---20b22---20b22---20b22---|-20b22---20b22---20b22---20b22---20b22r(20)p===17-|
|---------------------------------|--------------------------------------------------|
|---------------------------------|--------------------------------------------------|
|---------------------------------|--------------------------------------------------|
|---------------------------------|--------------------------------------------------|

   h           q.        e        +q      q       e     +q     e
|-20b22-------20b22-----20b22==|=(20)r---20b22---20b21r(20)---17-|
|------------------------------|---------------------------------|
|------------------------------|---------------------------------|
|------------------------------|---------------------------------|
|------------------------------|---------------------------------|
|------------------------------|---------------------------------|

   e     s  s  e     s  s  e     s  s  e     s  s
|-------------------------------------------------|
|-20b22-20p17-20b22-20p17-20b22-20p17-20b22-20p17-|
|-------------------------------------------------|
|-------------------------------------------------|
|-------------------------------------------------|
|-------------------------------------------------|


   e     s  s  e     s  s  e     s  s  e     s  s
|-------------------------------------------------|
|-20b22-20p17-20b22-20p17-20b22-20p17-20b22-20p17-|
|-------------------------------------------------|
|-------------------------------------------------|
|-------------------------------------------------|
|-------------------------------------------------|

   s  s  s  s  s  s  s  s  s  s  s  s  s  s  s  s    s  s  s  s  s  s  s  s  s  s  s  s  e  e
|-20-17-------------------------------------------|--------------------------------------------|
|-------20-17----17-20-17-------------------------|--------------------------------------------|
|-------------19----------19-17----17-19-17-------|--------------------------------------------|
|-------------------------------19----------19-17-|----17-19-17--------------------------------|
|-------------------------------------------------|-19----------19-17----17-19-17----17--------|
|-------------------------------------------------|-------------------20----------20----17-----|


w/rhy fig 6 x4
   s  s s  s  s s  s  s s  s  s s  s  s s  s
|-12-10-9----10-9-------9--------------------|
|---------12------12-10---12-10-9-12-10-9----|
|-----------------------------------------11-|
|--------------------------------------------|
|--------------------------------------------|
|--------------------------------------------|

   s s  s s  s  s s  s  s s  s  s s  s  s s    s  s s  s  s s  s  s s  s  s s  s  s s  s
|-------------------------------------------|--------------------------------------------|
|-10-9--------------------------------------|--------------------------------------------|
|------11-9-13-11-9----11-9-------9---------|--------------------------------------------|
|-------------------12------12-11---12-11-9-|-12-11-9----11-9-------9--------------------|
|-------------------------------------------|---------12------12-11---12-11-9-12-11-9----|
|-------------------------------------------|-----------------------------------------12-|

                                 ~
   s s  s  s s  s  s s  s  s s s q
|------------------------------------|
|------------------------------------|
|------------------------------------|
|------------------------------------|
|-11-9-------9-----------------------|
|------12-10---12-10-9-12-10-9-x-4---|

                                         t        t        t
  e s s s s s s s s s s s s s s   q      a q      a q      a q
|-------------------------------|------------------------------------|
|-------------------------------|------------------------------------|
|-------------------------5-7---|-7b9---14p7b9---15p7b9---17p7b9-----|
|-----------4s5-7p5---5-7-------|------------------------------------|
|-----4h5h7---------7-----------|------------------------------------|
|-5h7---------------------------|------------------------------------|

   t        t
   a q      a h          +q      h          q.     +e
|------------------------------|------------------------|
|------------------------------|------------------------|
|-15p7b9---17p7pb9r======(7)---|-5tr7-------------------|
|------------------------------|------------7------(7)/-|
|------------------------------|------------------------|
|------------------------------|------------------------|

w/rhy fig 8 x4

   |---3---|  |---3---|  |---3---|  |---3---|
   e  e    e  e  e    e  e  e    e  e  e    e
|---------10s17-13--------------10s17-13------|
|----10--------------15----10--------------15-|
|-10--------------------10--------------------|
|---------------------------------------------|
|---------------------------------------------|
|---------------------------------------------|

   |---3---|  |---3---|  |---3---|  |---3----|
   e  e    e  e  e    e  e  e    e  e  e     e
|---------10s17-13--------------10s17-13-------|
|----10--------------15----10---------------15-|
|-10--------------------10---------------------|
|----------------------------------------------|
|----------------------------------------------|
|----------------------------------------------|

   |---3---|  |---3---|  |---3---|  |---3---|    |---3---|  |---3---|
   e  e    e  e  e    e  e  e    e  e  e    e    e  e    e  e  e    e  h
|-17-13------17-13------17-13------17-13------|-17-13------17-13-----------------|
|---------15---------15---------15---------15-|---------15---------15-17---------|
|---------------------------------------------|----------------------------------|
|---------------------------------------------|----------------------------------|
|---------------------------------------------|----------------------------------|
|---------------------------------------------|----------------------------------|

   |-------3-------|       |-------3-------|
   q       q       q       q       q       q
|-20b22---20b22---20b22---20b22---20b22---20b22---|
|-------------------------------------------------|
|-------------------------------------------------|
|-------------------------------------------------|
|-------------------------------------------------|
|-------------------------------------------------|

   |-------3-------|                            |---3---|  |----3-----|  |---3---|  |---3---|
   q       q       q       q        +e   +e     e  e    e  s  s  e    e  e  e    e  e  e    e
|-20b22---20b22---20b22---20b22====(20)r(20)-|-20-19---17-20-19-17---------17---19-19-17------|
|--------------------------------------------|-----------------------20-19-----------------19-|
|--------------------------------------------|------------------------------------------------|
|--------------------------------------------|------------------------------------------------|
|--------------------------------------------|------------------------------------------------|
|--------------------------------------------|------------------------------------------------|

                              ~~~
   e  s  s  s  s  e  s  s  e  q
|-17-19-17-19-17----19-17----17----|
|----------------20-------20-------|
|----------------------------------|
|----------------------------------|
|----------------------------------|
|----------------------------------|

w/rhy fig 6 x4
   |--3--|  |--3--|  |--3--|  |--3--|  |--3--|  |--3--|  |--3--|  |--3--|
   s  s  s  s  s  s  s  s  s  s  s  s  s  s  s  s  s  s  s  s  s  s  s  s
|-20p19p17-20p19p17-18p17p15-18p17p15-17p16p14-17p16p14-15p13p12-15p13p12-|
|-------------------------------------------------------------------------|
|-------------------------------------------------------------------------|
|-------------------------------------------------------------------------|
|-------------------------------------------------------------------------|
|-------------------------------------------------------------------------|

   |--3--|  |--3--|  |-3--|  |-3--|  |-3-|  |-3-| |-3-| |-3-|
   s  s  s  s  s  s  s  s s  s  s s  s s s  s s s s s s s s s
|-13p12p10-13p12p10-12p11p9-12p11p9-10p9p7-10p9p7-8p7p5-8p7p5-|
|-------------------------------------------------------------|
|-------------------------------------------------------------|
|-------------------------------------------------------------|
|-------------------------------------------------------------|
|-------------------------------------------------------------|

  s s s s s s s s s s s s s s s s   s s s s s s s s s s s s s s e
|-8-5---5-8-5---------------------|----------------------------------|
|-----8-------8-5---5-8-5---------|----------------------------------|
|-----------------7-------7-5---5-|-7-5------------------------------|
|-----------------------------7---|-----7-5---5-7-5---5--------------|
|---------------------------------|---------7-------7---7-5----------|
|---------------------------------|-------------------------7s8-5h===|

           t        t    t        t    t
                    |----6-----|  |----6-----|
  s s s s  s s s s  s s  s s s s  s s  s s s s
|----------------------------------------------|
|----------------------------------------------|
|----------------------------------------------|
|----------------------------------------------|
|----------------------------------------------|
|-8p5h8p5-10p8p5h8-10p8-10p8p5h8-10p8-10p8p5h8-|

                    t     t          t     t
                    |------6------|  |--3--|  |3|
  s s s s s s s  s  s  s  s  s s  s  s  s  s  s e
|---------------------------------------------------|
|---------------------------------------------------|
|---------------------------------------------------|
|-7-5---5-7-5---------------------------------------|
|-----7-------7s10-12p10-12p10p7h10-12p10-12p10p7/--|
|---------------------------------------------------|

   t     t         t     t       t       t    t       t     t
   a  s  a s  s s  a  s  a s  s  a s  s  a s  a  s s  a  s  a s  s s
|--------------------------------------------------------------------|
|-13p10-13p7h10p7-14p10-14p7h10-15p7h10-16p7-16p10p7-17p10-17p7h10p7-|
|--------------------------------------------------------------------|
|--------------------------------------------------------------------|
|--------------------------------------------------------------------|
|--------------------------------------------------------------------|

   t     t       t       t         t     t    t
   a  s  a s  s  a s  s  a s  s s  a  s  a s  a  s s q
|------------------------------------------------------------|
|-18p10-18p7h10-19p7h10-19p7h10p7-20p10-21p7-22p10p7---------|
|------------------------------------------------------------|
|----------------------------------------------------x\\-----|
|------------------------------------------------------------|
|------------------------------------------------------------|

gtr ii
rhy fig 8 x4

rhy fig 6 x4

      pm--|   pm        pm--|
    e e e e e e e e   e e e e e. s +e  e  4x
||------------------|---------------------||
||o-----------------|--------------------o||
||------------------|---------------------||
||------------------|---------------------||
||o-2-------2---2-3-|-3-------0--2-(2)-3-o||
||--0-0-0-0---0-----|-1-1-1-1-------------||


      pm--|   pm        pm--|
    e e e e e e e e   e e e e e. s +e  e  4x
||------------------|---------------------||
||o-----------------|--------------------o||
||------------------|---------------------||
||------------------|---------------------||
||o-4-------2---4-5-|-5-------2--4-(4)-5-o||
||--2-2-2-2---2-----|-3-3-3-3-------------||


        pm--|   pm        pm--|
      e e e e e e e e   e e e e e. s +e  e  3x
|-||------------------|---------------------||
|-||o-----------------|--------------------o||
|-||------------------|---------------------||
|-||------------------|---------------------||
|-||o-5-------3---5-6-|-6-------3--5-(5)-6-o||
|-||--3-3-3-3---3-----|-4-4-4-4-------------||


      pm--|   pm        pm--|
    e e e e e e e e   e e e e e. s +e  e  3x h..       e   w
||------------------|---------------------||-------------|------|
||o-----------------|--------------------o||-------------|------|
||------------------|---------------------||-------------|------|
||------------------|---------------------||-----------9-|-8----|
||o-7-------5---7-8-|-8-------5--7-(7)-8-o||-7---------7-|-6----|
||--5-5-5-5---5-----|-6-6-6-6-------------||-5-----------|------|
                                           |-rhy fig 10      ---|

w/rhy fig 10 x2
  gtr iv
         \\2
  h      h        +w           w             w
|---------------|------------|-------------|------|
|---------------|------------|-------------|------|
|--------0------|-(0)--------|-------------|------|
|---------------|------------|-------------|------|
|---------------|------------|-------------|------|
|---------------|------------|-------------|------|


                                 pm--------------------------------|
  h..         e    w             e   e e e e e e e   e e e e e e e e  4x
|---------------|------------||------------0-------|---------0--------||
|---------------|------------||o---------0---0-----|-------0---0-----o||
|---------------|------------||--------5-------5---|-----5-------5----||
|-------------9-|--8---------||------7-------------|---7-----------7--||
|-7-----------7-|--6---------||o-0---------------7-|-6---------------o||
|-5-------------|------------||--------------------|------------------||
|
|                            gtr iii
|        \\7
| h      h        +w             h..             e   w                4x
|---------------|------------||--------------------|------------------||
|---------------|------------||o-------------------|-----------------o||
|---------------|------------||--------------------|------------------||
|---------------|------------||------------------9-|-8----------------||
|---------------|------------||o-7---------------7-|-6---------------o||
|--------0------|-(0)--------||--5-----------------|------------------||


                     1.,2.,3.            2.
    d5      dm+5      dm6                         e5
    gtr iii
    h       h         h       h           h       h        +w
    |       |         |                   |       |         |
    /       /         /                   /       /         /

    gtr ii
    pm------------------------------------------|
    e e e e e e e e   e e e e e e e e  4x e e e e e e q    +w
||--------1-------1-|-------1-------5--||-------1-----3--|-(3)----||
||o-----3-------3---|-----3-------3---o||-----3-----5----|--------||
||----2-------3-----|---4-------5------||---4-----4------|--------||
||--0-------0-------|-0-------0--------||-0--------------|--------||
||o-----------------|-----------------o||----------------|--------||
||------------------|------------------||----------------|--------||


    e e e e +q   q    q  q   h         e e e e +q   q    q  h.            4x
||------------------|----------------|-----------------|------------------||
||o-----------------|----------------|-----------------|-----------------o||
||------------------|----------------|-----------------|------------------||
||------------------|----9-----------|-----------------|------------------||
||o-5-4-4-4-(4)--5--|-2--7---2-------|-5-4-4-4-(4)--5--|-2--2------------o||
||--3-2-2-2-(2)--3--|-0------0-------|-3-2-2-2-(2)--3--|-0--0-------------||
|-rhy fig 11                                               end rhy fig 11-|
|
|   gtr iv
|                            ~~~~~                               ~~~~~
|   w                 h      h         w                 h       h        4x
||------------------|----------------|-----------------|------------------||
||o-----------------|----------------|-----------------|--------15b17----o||
||------------------|-------14b16----|-----------------|------------------||
||------------------|----------------|-----------------|------------------||
||o-----------------|----------------|-----------------|-----------------o||
||------------------|----------------|-----------------|------------------||


w/rhy fig 11
        |--3--|
     e  s  s  s  e  e  +q    q     a  q  q  h
||------------------------------|----------------|
||o-12-10h12p10----10-(10)--12--|----------------|
||--12-11h12p11-12-11-(11)--12--|-10h12--7--9----|
||--------------14--------------|-12h14--5--9----|
||o-----------------------------|----------------|
||------------------------------|----------------|


      |--3--|
   e  s  s  s  e  e  +q    q     a  q   h.
|-----------------------------|----------------||
|-12-10h12p10----10-(10)--12--|---------------o||
|-12-11h12p11-12-11-(11)--12--|-10h12----------||
|-------------14--------------|-12h14---9------||
|-----------------------------|--------10-----o||
|-----------------------------|----------------||


w/rhy fig 11
        |--3--|
     e  s  s  s  e  e  +q    q     a  q   q  h
||--10--9h10p=9-----9--(9)--10--|-----------------|
||o-12-10-12-10-12-10-(10)--12--|-10h12------8----|
||--12-11h12p11-12-11-(11)--12--|-10-12--11--9----|
||--------------14--------------|-12h14--12--9----|
||o-----------------------------|--------10-------|
||------------------------------|-----------------|


                               1.
      |--3--|
   e  s  s  s  e  e  +q    q     a  q   h.
|-10--9h10p=9-----9--(9)--10--|----------------||
|-12-10-12-10-12-10-(10)--12--|-10h12---------o||
|-12-11h12p11-12-11-(11)--12--|-10-12---7------||
|-------------14--------------|-12h14---9------||
|-----------------------------|--------10-----o||
|-----------------------------|----------------||


  2.           h.=h
                                        >
      Q   H    E E   +Q   E E +H       +W
|------------------|-----------------|--------||
|------------------|-----------------|--------||
|------------------|-----------------|--------||
|------------------|-----------------|--------||
|-----2---2----9-9-|-(9)--9-9-(9)----|-(9)----||
|-----0---0----7-7-|-(7)--7-7-(7)----|-(7)----||
|
|                                       >
|  a  Q   H    E E   +Q   E E +H       +W
|------------------|-----------------|--------||
|-10h12--------7-7-|-(7)-------------|--------||
|-10-12---7----7-7-|-(7)--7-7-(7)----|-(7)----||
|-12h14---9----9-9-|-(9)--9-9-(9)----|-(9)----||
|--------10--------|------5-5-(5)----|-(5)----||
|------------------|-----------------|--------||


  Gtr I
Rhy Fig 1

w/Rhy Fig 1 - 1st 4 bars
  Gtr IV
  W                 W                 W                 W
|-5---------------|-----------------|-6---------------|-----------------|
|-----------------|-----------------|-----------------|-----------------|
|-----------------|-----------------|-----------------|-----------------|
|-----------------|-----------------|-----------------|-----------------|
|-----------------|-----------------|-----------------|-----------------|
|-----------------|-----------------|-----------------|-----------------|


                     H.=H
  E E E E  E E E E   E E E E  E E  E E   E    E E E E E E E    W
|---8----------8---|---8-----------8---|------5---------5---|-^5----||
|-------8--------8-|-------8---------8-|----------6-------5-|-^6----||
|-----9------9-----|-----9------9------|--------7-----7-----|-^7----||
|-0-------10-------|-0-------10--------|-0----------7-------|-^0----||
|------------------|-------------------|--------------------|-------||
|------------------|-------------------|--------------------|-------||
| H        H         H        H          H          H
|
| W                  H        E Q.       H          H          W
|-8----------------|----------5-6------|-5tr6---------------|-------||
|------------------|-------------------|--------------------|-------||
|------------------|-------------------|--------------------|-------||
|------------------|-------------------|--------------------|-------||
|------------------|-------------------|--------------------|-------||
|------------------|-------------------|--------------------|-------||


  Q=90
                             3/4
  Gtr II
  Q  Q  Q  Q    Q   Q  H      +H.
|-------------|-------------|--------|
|-------------|-------------|--------|
|-------------|-------------|--------|
|-7--5--7--3--|-7--10--7----|-(7)----|
|-5--3--5--1--|-5---8--5----|-(5)----|
|-------------|-------------|--------|


                H.=H        Q=72
 4/4
                       TP      TP
  Q  Q  Q  Q    Q   Q  H      +W                          H     Q   Q
|-------------|-------------|--------------------------|--------------------|
|-------------|-------------|--------------------------|--------------------|
|-------------|-------------|--------------------------|--------------------|
|-7--5--7--3--|-7--10--7----|-(7)----------------------|--7-----7\\---------|
|-5--3--5--1--|-5---8--5----|-(5)----------------------|--5-----5\\---------|
|-------------|-------------|--------------------------|--------------------|
|
| Gtr IV
|                              TPTPTPTPTPTPTPTPTPTPTPTP
|                              |-3-| |-3-| |-3-| |-3-|
| W             W              E E E E E E E E E E E E    H     Q   Q
|-------------|-------------|--------------------------|--------------------|
|-------------|-------------|--------------------------|--------------------|
|-------------|-------------|--------------------------|--------------------|
|-------------|-------------|--------------------------|--------------------|
|-------------|-------------|--------------------------|-------12\\---------|
|-------------|-------------|--3S1S3S5S3S5S6S5S6S8S6S8S|=10----10\\---------|


3.MASTER OF PUPPETS

Intro
-----------------------|
-----------------------|
-9--------7---6---5~~--|
-9--------7---6---5~~--|
-7--------5---4---3~~--|
-0---------------------|

(4 Times)
-----------------------|-------------|-----------------------------------|
-----------------------|-------------|-----------------------------------|
-----------------------|--7---6---5--|-----------------------------------|
-----------------------|--7---6---5--|-----------------------------------|
------7--------6-------|--5---4---3--|-----------------------------------|
-0-0------0-0-----0-0--|-------------|--0-0-7-0-0-6-0-0-5-0-4-0-3-0-2-0--|
 \' \'      \' \'     \' \'                   \' \'   \' \'   \' \'   \'   \'   \'   \'

(2Times)
------------------------------------------------------------------|
------------------------------------------------------------------|
------------------------------------------------------------------|
------------------------------------------------------------------|
-----2-----3-----4-----3-----2-2-----2-----3-----5/4---5/4---5/4--|
-0-1---0-1---0-1---0-1---0-1-----0-1---0-1-----0-3/2-0-3/2-0-3/2--|
 \'     \'     \'     \'     \'       \'     \'       \'     \'     \'


-----------------------------------------------------------------|
-----------------------------------------------------------------|
-----------------------------------------------------------------|
------------------------------------------------------------4----|
-----2-----3-----4-----3-----2-2-----2-----3-----4-----3----2----|
-0-1---0-1---0-1---0-1---0-1-----0-1---0-1---0-1---0-1----0------|
 \'     \'     \'     \'     \'       \'     \'     \'     \'      \'
------------------------------------------------------------------|
------------------------------------------------------------------|
------------------------------------------------------------------|
------------------------------------------------------------------|
-----2-----3-----4-----3-----2-2-----2-----3-----5/4---5/4---5/4--|
-0-1---0-1---0-1---0-1---0-1-----0-1---0-1-----0-3/2-0-3/2-0-3/2--|
 \'     \'     \'     \'     \'       \'     \'       \'     \'     \'
------------------------------------------------------------------|
------------------------------------------------------------------|
------------------------------------------------------------------|
-------------------------------------------------------------4----|
-----2-----3-----4-----3-----2-2-----2-----3-----4-----3-----2----|
-0-1---0-1---0-1---0-1---0-1-----0-1---0-1---0-1---0-1----0-------|
 \'     \'     \'     \'     \'       \'     \'     \'     \'      \'

----------------------------------------------|
----------------------------------------------|
----------------------------------------------|
----------------------------------------------|
-----2-----3-----4-----3-----2-2-----2-----3--|
-0-1---0-1---0-1---0-1---0-1-----0-1---0-1----|
 \'     \'     \'     \'     \'       \'     \'
----------------------------------------|
----------------------------------------|
----------------------------------------|
-------------------------------------2--|
--5/4---5/4---5/4---5/4---5/4---5/4--2--|
--3/2-0-3/2-0-3/2-0-3/2-0-3/2-0-3/2--0--|
      \'     \'     \'     \'     \'

Lead In
----------------------------------------|
----------------------------------------|
----------------------------------------|
------8------8------8------8------8~~~--|
----7------7------7------7------7-------|
--0------0------0------0------0---------|
  \'   *  \'   *  \'   *  \'   *  \'   *

* = Here it is a Semi-Harmonic (Give it a slightest touch of your thumb)


Verse (First Part)(6 Times)
------------------------------------------------------------|
------------------------------------------------------------|
------------------------------------------------------------|
------------------5/7--8/7--5/7-------------------5/7--5/7--|
------------------5/7--8/7--5/7-------------------5/7--5/7--|
-0-0-0-0-0-0-0-0--3/5--6/5--3/5--0-0-0-0-0-0-0-0--3/5--3/5--|
 \' \' \' \' \' \' \' \'                 \' \' \' \' \' \' \' \'

First Part With the Lyrics:

-End of passion play, crumbling away
-I\'m your source of self-destruction
-Veins that pump with fear, sucking darkest clear
-Leading on your death\'s construction


Verse (Second Part)(2 Times)
------------------------------------------------------------|
------------------------------------------------------------|
------------------------------------------------------------|
------------------4-4---5/4-4-4-------------------4----4----|
------------------0-2---3/2-0-2-------------------0h2--0h2--|
-2-2-2-2-2-2-2-2----------------2-2-2-2-2-2-2-2-------------|
 \' \' \' \' \' \' \' \'                \' \' \' \' \' \' \' \'

Second Part with the Lyrics:

-Taste me, you will see
-More is all you need
-You\'re dedicated to
-How I\'m killing you


Lead in To Pre-Chorus
------------------|
------------------|
-4-4-4-4-4-4-4-4--|
-4-4-4-4-4-4-4-4--|
-2-2-2-2-2-2-2-2--|
------------------|
 \' \' \' \' \' \' \' \'

Pre-Chorus (3 Times)
---------------------------------------------------------------------|
---------------------------------------------------------------------|
-9---------7--9-----------------------------------------------8------|
-9---------7--9--------9--------------------10---9------------8---9--|
-7---------5--7---7-9-----10-9h10-----------10---9------------6---9--|
-0----0-0---------------------------8-8-8-8--8---7---8-8-8-8------7--|
      \' \'         \' \'               \' \' \' \'          \' \' \' \'

Then This
-----------------------------------------------------------------------------|
-----------------------------------------------------------------------------|
-9---------7--9--------------------------------------------------------------|
-9---------7--9--------9--------------------10---9-----7--5--4------4--------|
-7---------5--7---7-9-----10-9h10-----------10---9-----9--7--6------6--7--6--|
-0----0-0---------------------------8-8-8-8--8---7---------------------8--7--|
      \' \'         \' \'               \' \' \' \'            \'  \'  \'      \'  \'  \'
Pre-Chorus with the Lyrics:

-Come crawling faster
-Obey your master
-Your life burns faster
-Obey your master


Lead In to Chorus
--------|--------|
--------|--------|
--------|--------|
--2--2--|--3--3--|
--2--2--|--3--3--|
--0--0--|--1--1--|

Lead In to Chorus with the Lyrics:

-Master!
-Master!

Chorus (First Part)
--------------------------------------------------|
--------------------------------------------------|
--------------------------------------------------|
----------------------------5~-------4-------2~---|
--2~-----------------5~-----3~--0-0--2--0-0--0~---|
--0~--0-0--2p0--0-0--3~---------------------------|
      \' \'       \' \'             \' \'     \' \'

--------------------------------------------------|
--------------------------------------------------|
--------------------------------------------------|
--7~-------5-------4~-------9~-------7-------5~---|
--5~-------3-------2~-------7~-------5-------3~---|
------3-3-----3-3---------------0-0-----0-0-------|
      \' \'     \' \'           \' \'     \' \'

First Chorus Part with the Lyrics:
-Master of puppets, I\'m pulling your strings
-Twisting your mind and smashing your dreams
-Blinded by me, you can\'t see a thing
-Just call my name, \'cause I\'ll hear you scream


Chorus (Second Part)
--------|--------|-------------------------|--------|--------|
--------|--------|-------------------------|--------|--------|
--------|--------|-------------------------|--------|--------|
--2--2--|--3--3--|---------------------5~--|--2--2--|--3--3--|
--2--2--|--3--3--|--2~-----------------3~--|--2--2--|--3--3--|
--0--0--|--1--1--|--0~--0-0--2p0--0-0------|--0--0--|--1--1--|
                        \' \'       \' \'

Second Chorus Part with the Lyrics:
-Master!
-Master!
-Just call my name, \'cause I\'ll hear you scream
-Master!
-Master!


------------------------------------------------------------------|
------------------------------------------------------------------|
------------------------------------------------------------------|
-------------------------------------------------------------4----|
-----2-----3-----4-----3-----2-2-----2-----3-----4-----3-----2----|
-0-1---0-1---0-1---0-1---0-1-----0-1---0-1---0-1---0-1----0-------|
 \'     \'     \'     \'     \'       \'     \'     \'     \'      \'

----------------------------------------------|
----------------------------------------------|
----------------------------------------------|
----------------------------------------------|
-----2-----3-----4-----3-----2-2-----2-----3--|
-0-1---0-1---0-1---0-1---0-1-----0-1---0-1----|
 \'     \'     \'     \'     \'       \'     \'
--------------------------------------|
--------------------------------------|
--------------------------------------|
--------------------------------------|
--5/4---5/4---5/4---5/4---5/4---5/4---|
--3/2-0-3/2-0-3/2-0-3/2-0-3/2-0-3/2---|

Verse (First Part)(6 Times)
------------------------------------------------------------|
------------------------------------------------------------|
------------------------------------------------------------|
------------------5/7--8/7--5/7-------------------5/7--5/7--|
------------------5/7--8/7--5/7-------------------5/7--5/7--|
-0-0-0-0-0-0-0-0--3/5--6/5--3/5--0-0-0-0-0-0-0-0--3/5--3/5--|
 \' \' \' \' \' \' \' \'                 \' \' \' \' \' \' \' \'

First Part With the Lyrics:

-Needlework the way, never you betray
-Life of death becoming clearer
-Pain monopoly, ritual misery
-Chop your breakfast on a mirror


Verse (Second Part)(2 Times)
------------------------------------------------------------|
------------------------------------------------------------|
------------------------------------------------------------|
------------------4-4---5/4-4-4-------------------4----4----|
------------------0-2---3/2-0-2-------------------0h2--0h2--|
-2-2-2-2-2-2-2-2----------------2-2-2-2-2-2-2-2-------------|
 \' \' \' \' \' \' \' \'                \' \' \' \' \' \' \' \'

Second Part with the Lyrics:

-Taste me, you will see
-More is all you need
-You\'re dedicated to
-How I\'m killing you


Lead in To Pre-Chorus
------------------|
------------------|
-4-4-4-4-4-4-4-4--|
-4-4-4-4-4-4-4-4--|
-2-2-2-2-2-2-2-2--|
------------------|
 \' \' \' \' \' \' \' \'

Pre-Chorus (3 Times)
---------------------------------------------------------------------|
---------------------------------------------------------------------|
-9---------7--9-----------------------------------------------8------|
-9---------7--9--------9--------------------10---9------------8---9--|
-7---------5--7---7-9-----10-9h10-----------10---9------------6---9--|
-0----0-0---------------------------8-8-8-8--8---7---8-8-8-8------7--|
      \' \'         \' \'               \' \' \' \'          \' \' \' \'

Then This
-----------------------------------------------------------------------------|
-----------------------------------------------------------------------------|
-9---------7--9--------------------------------------------------------------|
-9---------7--9--------9--------------------10---9-----7--5--4------4--------|
-7---------5--7---7-9-----10-9h10-----------10---9-----9--7--6------6--7--6--|
-0----0-0---------------------------8-8-8-8--8---7---------------------8--7--|
      \' \'         \' \'               \' \' \' \'            \'  \'  \'      \'  \'  \'
Pre-Chorus with the Lyrics:

-Come crawling faster
-Obey your master
-Your life burns faster
-Obey your master


Lead In to Chorus
--------|--------|
--------|--------|
--------|--------|
--2--2--|--3--3--|
--2--2--|--3--3--|
--0--0--|--1--1--|

Lead In to Chorus with the Lyrics:

-Master!
-Master!

Chorus (First Part)
--------------------------------------------------|
--------------------------------------------------|
--------------------------------------------------|
----------------------------5~-------4-------2~---|
--2~-----------------5~-----3~--0-0--2--0-0--0~---|
--0~--0-0--2p0--0-0--3~---------------------------|
      \' \'       \' \'             \' \'     \' \'

--------------------------------------------------|
--------------------------------------------------|
--------------------------------------------------|
--7~-------5-------4~-------9~-------7-------5~---|
--5~-------3-------2~-------7~-------5-------3~---|
------3-3-----3-3---------------0-0-----0-0-------|
      \' \'     \' \'           \' \'     \' \'

First Chorus Part with the Lyrics:
-Master of puppets, I\'m pulling your strings
-Twisting your mind and smashing your dreams
-Blinded by me, you can\'t see a thing
-Just call my name, \'cause I\'ll hear you scream


Chorus (Second Part)
--------|--------|-------------------------|--------|--------|
--------|--------|-------------------------|--------|--------|
--------|--------|-------------------------|--------|--------|
--2--2--|--3--3--|---------------------5~--|--2--2--|--3--3--|
--2--2--|--3--3--|--2~-----------------3~--|--2--2--|--3--3--|
--0--0--|--1--1--|--0~--0-0--2p0--0-0------|--0--0--|--1--1--|
                        \' \'       \' \'

Second Chorus Part with the Lyrics:
-Master!
-Master!
-Just call my name, \'cause I\'ll hear you scream
-Master!
-Master!


Interlude (James)(Clean w/Chorus effect)(2Times)
----------------------0h2p0-------3---------------------------------------------------|
----------------3------------3------------3---3-------0-------0----------0----------0-|
-------0-----2-----2------------2-------0---0---0-----------2---------2----------2----|
-----2----0----------------------------------------2--------------------------1-------|
---2---------------------------------3-------------------0-------0-2--------2---------|
-0------------------------------------------------------------------------------------|

James & Kirk Solo
-----19/22--19--------20---17-------------------20---17-------|
-20---------20---20---22---19---19---19-19-19---22---19---19--|
-21--------------21-------------19---19-19-19-------------19--|
--------------------------------------------------------------|
--------------------------------------------------------------|
--------------------------------------------------------------|

-19---15-------------------19---15--------17---15h17p15-14-------|
-20---17---17---17-17-17---20---17---17---19---17h19p17-16---17--|
-----------17---17-17-17-------------17----------------------17--|
-----------------------------------------------------------------|
-----------------------------------------------------------------|
-----------------------------------------------------------------|


-----------14-------14---16---17---19--|
-16---17--------17--16---17---19---20--|
-16---17--/19---17---------------------|
---------------------------------------|
---------------------------------------|
---------------------------------------|

James Solo
---------------14-15---14-15-17-15-14-19-15-12h15p12----------------|
-17---------17---------------------------------------13-----15b-15b-|
--------------------------------------------------------------------|
--------------------------------------------------------------------|
--------------------------------------------------------------------|
--------------------------------------------------------------------|

-15-14------15-14-------------------------------------------------|
-------12---------12h15p12-------------15b------------------------|
--------------------------------12-14--14b--14b---12----12--------|
-----------------------------------------------------14-----12----|
------------------------------------------------------------------|
------------------------------------------------------------------|

----------------------------------------------------------------------------|
----------------------------------------------------------------------------|
-12----14-12---11--------14---12---11h12p11---------------------------------|
--------------------12----------------------10------------9-10--------9-10--|
-------------------------------------------------------12-------------------|
----------------------------------------------------------------------------|

-----------------------------------15---14--11h12p11-----------/19--|
-------------------------12--------------------------12---10--------|
-------------9--11--12-------12-------------------------------------|
-12--10--12---------------------------------------------------------|
--------------------------------------------------------------------|
--------------------------------------------------------------------|

Now Back to this:
-----19/22--19--------20---17-------------------20---17-------|
-20---------20---20---22---19---19---19-19-19---22---19---19--|
-21--------------21-------------19---19-19-19-------------19--|
--------------------------------------------------------------|
--------------------------------------------------------------|
--------------------------------------------------------------|

-19---15-------------------19---15--------17---15h17p15-14-------|
-20---17---17---17-17-17---20---17---17---19---17h19p17-16---17--|
-----------17---17-17-17-------------17----------------------17--|
-----------------------------------------------------------------|
-----------------------------------------------------------------|
-----------------------------------------------------------------|


-----------14-------14---16---17---19--|
-16---17--------17--16---17---19---20--|
-16---17--/19---17---------------------|
---------------------------------------|
---------------------------------------|
---------------------------------------|

(James)(Distorted)(2Times)
----------------------0h2p0-------3---------------------------------------------------|
----------------3------------3------------3---3-------0-------0----------0----------0-|
-------0-----2-----2------------2-------0---0---0-----------2---------2----------2----|
-----2----0----------------------------------------2--------------------------1-------|
---2---------------------------------3-------------------0-------0-2--------2---------|
-0------------------------------------------------------------------------------------|
 \' \' \' \'  \'  \'  \'  \'                 \'  \'   \'   \'  \'     \'  \'    \' \'  \'     \' \'  \'

Build Up (First Part)
-----------------------------------|
-----------------------------------|
-4-4-4-4-4-4-4-4--4-4-4-4-4-4-4-4--|
-2-2-2-2-2-2-2-2--2-2-2-2-2-2-2-2--|
-2-2-2-2-2-2-2-2--2-2-2-2-2-2-2-2--|
-0-0-0-0-0-0-0-0--0-0-0-0-0-0-0-0--|
 \' \' \' \' \' \' \' \'  \' \' \' \' \' \' \' \'

Build Up (Second Part)(6 Times)
-------------------------------------|
-------------------------------------|
-------------------------------------|
-----------------------------------6-|
--4-4-5-4-4-4-5-4-4--4-4-5-4-4-4-5-4-|
--2-2-3-2-2-2-3------2-2-3-2-2-2-3---|
  \' \' \' \' \' \' \' \' \'  \' \' \' \' \' \' \' \'

Second Part of Build Up with lyrics:

-Master, master
-Where\'s the dreams that I\'ve been after?
-Master, master
-You promised only lies
-Laughter, laughter
-All I hear and see is laughter
-Laughter, laughter
-Laughing at my cries


Lead In
-------------------|
-------------------|
-------------------|
--5~~~----4~~~-----|
--5~~~----4~~~-----|
--3~~~----2~~~-----|


Lead In with Lyrics:

-Fix Me!


Kirk Fast Solo
-17p12----------12-17p12----------12-17p12----------12-15p12----------12--|
-------13-12-13----------13-12-13----------13-12-13----------13-12-13-----|
--------------------------------------------------------------------------|
--------------------------------------------------------------------------|
--------------------------------------------------------------------------|
--------------------------------------------------------------------------|

-17p12----------12-17p12----------12-17p12-------12-12-15p12----|
-------13-13-12----------13-12-13----------13-12-------------13-|
----------------------------------------------------------------|
----------------------------------------------------------------|
----------------------------------------------------------------|
----------------------------------------------------------------|

-----19-19-17-17-17-17-15-15-15-14-14-14-14-17-17-17-15-15-15-14--|
-/17--------------------------------------------------------------|
------------------------------------------------------------------|
------------------------------------------------------------------|
------------------------------------------------------------------|
------------------------------------------------------------------|

-14-14-14-14---------------------------------17h19------------------|
-------------15---17b--17b---------17p15p14---------15p14-----------|
-----------------------------------------------------------16-14-==-|
--------------------------------------------------------------------|
--------------------------------------------------------------------|
--------------------------------------------------------------------|

-x-------------------------------------------------------------|
---------------------------------------------------------------|
---------------------------------------------------------2--4--|
---------------------------------------------------------------|
---------------------------------------------------------------|
---------------------------------------------------------------|

x = This note produced by pulling string off edge of fretboard and
\"fretting\" it against pickup.

---------------------------------------------------------------------|
------------------------------------/15--13--12------13--12----------|
-2b-4--0--2-0h2----------------------------------14----------14--12--|
-----------------4--2---2-h4-----------------------------------------|
---------------------------------------------------------------------|
---------------------------------------------------------------------|

-----------------------------------------------------------|
-------------12----12-12-12-12-12-12-15-13-12-15-13-12-13--|
-11--12--14------------------------------------------------|
-----------------------------------------------------------|
-----------------------------------------------------------|
-----------------------------------------------------------|

-12----------12-------------14-------14-------15-15--------|
----15-15-13----15-13h15-15----17-15----15-17-------17/19--|
-----------------------------------------------------------|
-----------------------------------------------------------|
-----------------------------------------------------------|
-----------------------------------------------------------|

-17-------19-17-------17----------19-17-------17----------19-17--------|
----20-19-------19-19----21-19-19-------19-19----21-19-19-------19-19--|
-----------------------------------------------------------------------|
-----------------------------------------------------------------------|
-----------------------------------------------------------------------|
-----------------------------------------------------------------------|

-17-------------19-17-------------14--14------14------------14--|
----21b-19b-19b-------19b-19b-17b--------17b------17b-17b-------|
----------------------------------------------------------------|
----------------------------------------------------------------|
----------------------------------------------------------------|
----------------------------------------------------------------|

-19-p14------19-p14--14----------14------14------14-14-14------14-14--|
---------17b---------17b-----17b-----17b-----17b-----------17b--------|
----------------------------------------------------------------------|
----------------------------------------------------------------------|
----------------------------------------------------------------------|
----------------------------------------------------------------------|

-----15b-----15b-----15b-----15b-----17b-----17b-----18b-----18b--|
-18b-----18b-----18b-----18b-----20b-----20b-----21b-----21b------|
------------------------------------------------------------------|
------------------------------------------------------------------|
------------------------------------------------------------------|
------------------------------------------------------------------|

-----19b-----19b-22b-----/////---------------|
-22b-----22b---------------------------------|
---------------------------------------------|
---------------------------------------------|
---------------------------------------------|
---------------------------------------------|


Post solo (2Times)
----------------------------------------------------------------|
----------------------------------------------------------------|
----------------------------------------------------------------|
-----3-----3-----3-----3-------------3-----3-----3-----3-----4--|
-----3-----3-----3-----3-----2-2-----3-----3-----3-----3-----2--|
-0-0-1-0-0-1-0-0-1-0-0-1-0-0-----0-0-1-0-0-1-0-0-1-0-0-1-0-0----|
 \' \'   \' \'   \' \'   \' \'   \' \'     \' \'   \' \'   \' \'   \' \'   \' \'
Then this -
------------------------------------------------------------------|
------------------------------------------------------------------|
------------------------------------------------------------------|
------------------------------0-2-4-5------------------0----------|
------------------------0-2-3---------3------3-3-3-2-3---3-2------|
-0-0-0-0-0-0-0-0--0-2-3--------------------------------------3-2--|
 \' \' \' \' \' \' \' \'  \' \' \' \' \' \' \' \'            \' \' \' \' \' \' \' \' \' \'


Two guitars
-------------------------------------------------------------------------|
-------------------------------------------------------------------------|
----------------------------------------2-4------------------------------|
-------------------------------0-4-2/5--4-5-2------2-2-2-0-2-4-2-0-------|
-------------------------0-2-3--------------3------3-3-3-2-3-5-3-2-3-2---|
-0-0-0-0-0-0-0-0-0-0-2-3-------------------------------------------3-2---|
 \' \' \' \' \' \' \' \' \' \' \' \' \' \' \' \' \' \' \'             \' \' \' \' \' \' \' \' \' \'
------------------------------------------------------------------------|
---------------------------------------------5~~------------------------|
----------------------------------------2-4--5~~------------------------|
-------------------------------0-4-2/5--4-5--5~~------------------------|
-------------------------0-2-3---------------3~~---3-3-3-2-3-5-3-2------|
-0-0-0-0-0-0-0-0-0-0-2-3-------------------------------------------3-2--|
 \' \' \' \' \' \' \' \' \' \' \' \' \' \' \' \' \' \' \'             \' \' \' \' \' \' \' \' \' \'

-------------------------------------|
-------------------------------------|
-4~~--------------------2------------|
-2~~------------5-5-5-4-----5-4-2-4--|
-2~~------------3-3-3-2-3-5-3-2------|
-0~~----------------------------3-2--|
                \' \' \' \' \' \' \' \' \' \'

------------------------------------------------------------------|
------------------------------------------------------------------|
------------------------------------------------------------------|
------------------------------------------------------------------|
-----2-----3-----4-----3-----2-2-----2-----3-----5/4---5/4---5/4--|
-0-1---0-1---0-1---0-1---0-1-----0-1---0-1-----0-3/2-0-3/2-0-3/2--|
 \'     \'     \'     \'     \'       \'     \'       \'     \'     \'

----------------------------------------------|
----------------------------------------------|
----------------------------------------------|
----------------------------------------------|
-----2-----3-----4-----3-----2-2-----2-----3--|
-0-1---0-1---0-1---0-1---0-1-----0-1---0-1----|
 \'     \'     \'     \'     \'       \'     \'

--------------------------------------|
--------------------------------------|
--------------------------------------|
--------------------------------------|
--5/4---5/4---5/4---5/4---5/4---5/4---|
--3/2-0-3/2-0-3/2-0-3/2-0-3/2-0-3/2---|
      \'     \'     \'     \'     \'

Verse (First Part)(6 Times)
------------------------------------------------------------|
------------------------------------------------------------|
------------------------------------------------------------|
------------------5/7--8/7--5/7-------------------5/7--5/7--|
------------------5/7--8/7--5/7-------------------5/7--5/7--|
-0-0-0-0-0-0-0-0--3/5--6/5--3/5--0-0-0-0-0-0-0-0--3/5--3/5--|
 \' \' \' \' \' \' \' \'                 \' \' \' \' \' \' \' \'

First Part With the Lyrics:

-Hell is worth all that, natural habitat
-Just a rhyme without a reason
-Never-ending maze, drift on numbered days
-Now your life is out of season


Verse (Second Part)(2 Times)
------------------------------------------------------------|
------------------------------------------------------------|
------------------------------------------------------------|
------------------4-4---5/4-4-4-------------------4----4----|
------------------0-2---3/2-0-2-------------------0h2--0h2--|
-2-2-2-2-2-2-2-2----------------2-2-2-2-2-2-2-2-------------|
 \' \' \' \' \' \' \' \'                \' \' \' \' \' \' \' \'

Second Part with the Lyrics:

-I will occupy
-I will help you die
-I will run through you
-Now I rule you, too


Lead in To Pre-Chorus
------------------|
------------------|
-4-4-4-4-4-4-4-4--|
-4-4-4-4-4-4-4-4--|
-2-2-2-2-2-2-2-2--|
------------------|
 \' \' \' \' \' \' \' \'

Pre-Chorus (3 Times)
---------------------------------------------------------------------|
---------------------------------------------------------------------|
-9---------7--9-----------------------------------------------8------|
-9---------7--9--------9--------------------10---9------------8---9--|
-7---------5--7---7-9-----10-9h10-----------10---9------------6---9--|
-0----0-0---------------------------8-8-8-8--8---7---8-8-8-8------7--|
      \' \'         \' \'               \' \' \' \'          \' \' \' \'

Then This
-----------------------------------------------------------------------------|
-----------------------------------------------------------------------------|
-9---------7--9--------------------------------------------------------------|
-9---------7--9--------9--------------------10---9-----7--5--4------4--------|
-7---------5--7---7-9-----10-9h10-----------10---9-----9--7--6------6--7--6--|
-0----0-0---------------------------8-8-8-8--8---7---------------------8--7--|
      \' \'         \' \'               \' \' \' \'            \'  \'  \'      \'  \'  \'
Pre-Chorus with the Lyrics:

-Come crawling faster
-Obey your master
-Your life burns faster
-Obey your master


Lead In to Chorus
--------|--------|
--------|--------|
--------|--------|
--2--2--|--3--3--|
--2--2--|--3--3--|
--0--0--|--1--1--|

Lead In to Chorus with the Lyrics:

-Master!
-Master!

Chorus (First Part)
--------------------------------------------------|
--------------------------------------------------|
--------------------------------------------------|
----------------------------5~-------4-------2~---|
--2~-----------------5~-----3~--0-0--2--0-0--0~---|
--0~--0-0--2p0--0-0--3~---------------------------|
      \' \'       \' \'             \' \'     \' \'

--------------------------------------------------|
--------------------------------------------------|
--------------------------------------------------|
--7~-------5-------4~-------9~-------7-------5~---|
--5~-------3-------2~-------7~-------5-------3~---|
------3-3-----3-3---------------0-0-----0-0-------|
      \' \'     \' \'           \' \'     \' \'

First Chorus Part with the Lyrics:
-Master of puppets, I\'m pulling your strings
-Twisting your mind and smashing your dreams
-Blinded by me, you can\'t see a thing
-Just call my name, \'cause I\'ll hear you scream


Chorus (Second Part)
--------|--------|-------------------------|--------|--------|
--------|--------|-------------------------|--------|--------|
--------|--------|-------------------------|--------|--------|
--2--2--|--3--3--|---------------------5~--|--2--2--|--3--3--|
--2--2--|--3--3--|--2~-----------------3~--|--2--2--|--3--3--|
--0--0--|--1--1--|--0~--0-0--2p0--0-0------|--0--0--|--1--1--|
                        \' \'       \' \'

Second Chorus Part with the Lyrics:
-Master!
-Master!
-Just call my name, \'cause I\'ll hear you scream
-Master!
-Master!


Outro
------------------------------------------------------------|
------------------------------------------------------------|
------------------------------------------------------------|
-2----------------5/7--8/7--5/7--2----------------5/7--5/7--|
-2----------------5/7--8/7--5/7--2----------------5/7--5/7--|
-0-0-0-0-0-0-0-0--3/5--6/5--3/5--0-0-0-0-0-0-0-0--3/5--3/5--|
   \' \' \' \' \' \' \'                   \' \' \' \' \' \' \'


Ending
----------------------------------|---------|
----------------------------------|---------|
----------------------------------|--4~~~~--|
----------------------------------|--2~~~~--|
-----------------5/4---5/4---5/4--|--2~~~~--|
-----------------3/2-0-3/2-0-3/2--|--0~~~~--|
                     \'     \'

Ending With Psychotic Laughter

4.OF WOLF & MAN

1a) Jaymes
E-----------------|
B-----------------|
G-----------------|
D-2-2-2-2-2-2-2-2-|
A-2-2-2-2-2-2-2-2-|
E-0-0-0-0-0-0-0-0-|

1b) Kirk
E-------------------------------------------------------------------------------------|
B-------------------------------------------------------------------------------------|
G-------------------------------------------------------------------------------------|
D-9-10-11-12�9-10-11-13-9-10-11-12-9-3-3-3-------------------------------------|
A-7-8�-9--10�7-8�-9�-11-7-8�-9-�10-7-3-3-3--|
E-------------------------------------------------------------------------------------|

2) Jaymes
E------------------------------------|
B------------------------------------|
G------------------------------------|
D--------------4---3-----------------|
A-------3-2----2�--1----------|
E-0-0-0-1-0�-0�--0-----|

3) Both
E---------------------|
B---------------------|
G---------------------|
D-----------------4-3-|
A-------3-2-------2-1-|
E-0-0-0-1-0-0-0-0-----|

4a) Jaymes
E---------------------------|
B---------------------------|
G---------------------------|
D---------------------------|
A-------3-2---9---8~~~~~~~~-|
E-0-0-0-1-0-0-7-0-6~~~~~~~~-|

4b) Kirk
E-----------------------------------------------------------|
B-----------------------------------------------------------|
G-----------------------------------------------------------|
D-----------------------------------------------------------|
A-------3-2---9---8------5h7p5p0-5h7-5-7-7\-----------------|
E-0�0-0-1-0-0-7-0-6�-5-7----------------------|

5) Both    |      Twice       |
E----------|------------------|--------------------------------------------------------------------|
B----------|------------------|--------------------------------------------------------------------|
G----------|------------------|--------------------------------------------------------------------|
D---4---3--|-----------4--3---|-----------6--5------------6�-5------------------------------|
A---2---1--|--2-2-3-2�-2--1---|-2-2-3-2�--4�-3�-4-4-5-4---4�-3--|
E-0---0----|--0-0-1-0-0--0----|-0-0-1-0--0�-0---2-2-3-2-0�--0------------------------|


6) Both
E---------------------------------|
B---------------------------------|
G---------------------------------|
D---------------------------------|
A-------5-4-------5-4---4-4-4-----|
E-2-2-2-3-2-2-2-2-3-2---2-2-2-14\-|

7a) Jaymes      3 times |            |
E-----------------------|------------|----------------------------------------------------------|
B-----------------------|------------|----------------------------------------------------------|
G-----------------------|------------|----------------------------------------------------------|
D-----------------------|------------|-----------4�-3~~~~-6-5-----5-6-7-8----------------|
A-------3-2-------------|-5�-5�-3-3--|-2-2-3-2---2�-1~~~~-4-3-----3-4-5-6--|
E-0-0-0-1-0-0-0-0-0-0-0-|-3�-3�-1-1--|-0-0-1-0-0---0------------------------------|

E-----------------------------------------------------------|
B-----------------------------------------------------------|
G-----------------------------------------------------------|
D-----------------------------------------------------------|
A-------3-2---9---8------5h7p5p0-5h7-5-7-7\-----------------|
E-0�0-0-1-0-0-7-0-6�-5-7----------------------|

7b) Kirk
|----------------------------------------|
|----------------------------------------|
|---4p2p0---0----4p2p0---0----4p2p0------|
|---------2------------2------------2p0--|
|----------------------------------------|
|----------------------------------------|

|-------------------------------------------------|
|-------------------------------------------------|
|--4p2p0------------4p2p0-4p2p0-------------------|
|-------4p2p0-------------------4p2p0-4p2p0-------|
|-------------4p2p0-------------------------4p2p0-|
|-------------------------------------------------|

|----------------------------------------------------------------------------------|
|----------------------------------------------------------------------------------|
|------------------------------------------------------------------12-14-14b(16)---|
|-----------------------------------------------------------12h14------------------|
|-2p0-3p0-4p0-5p0-6p0-p7p0-8p0-9p0-9p0-10p0-11p0-12p0-12h14------------------------|
|----------------------------------------------------------------------------------|

|--------------------------------------| |--------------|
|---------------12-15---------12-15p12-| |----12h15p12--|
|-12-------9s14-------14b(16)----------| |-14-----------|
|----14--------------------------------| |--------------|x8
|--------------------------------------| |--------------|
|--------------------------------------| |--------------|
             ~~~~~~~~~~~~
|-------------------------12------------------12----------|
|-15b(17)-15b(17)----(17)----15p12---------12----15p12----|
|----------------------------------14b(16)----------------|
|---------------------------------------------------------|
|---------------------------------------------------------|
|---------------------------------------------------------|

|---------12-12---------------------------------------------------|
|---------------15p12---------12-15p12----------------------------|
|-14b(16)-------------14b(16)----------14p12----12-14b---(16)-----|
|--------------------------------------------14-------------------|
|-----------------------------------------------------------------|
|-----------------------------------------------------------------|
     ~~~~~~~~~~~         *
|----------------------|---------------------------------------|
|----------------------|-15--15-15--15-15--17p15----15--15-15--|
|-12-------------------|-15--15-15--15-15--17p15----15--15-15--|
|----14------(14)\8/17-|-------------------------17------------|
|----------------------|---------------------------------------|
|----------------------|---------------------------------------|

|-----------------------------------------------|
|-17p15-----------------------------------------|
|-17p15----15-17p15----15-17p15------------15\--|
|-------17----------17----------17-15-17--------|
|-----------------------------------------------|
|-----------------------------------------------|
 *
|------------------------------------|
|---------------------------8----8---|
|----------8----8--10-8-10----10-----|
|-10-8-10----10----------------------|
|------------------------------------|
|------------------------------------|

|---------8------------------------------------------------------------|
|-11b(13)---11p8---------8-11p8-11b(13)--[13]-[13]-[13]-[13]-[13]-[13]-|
|----------------10b(11)-----------------------------------------------|
|----------------------------------------------------------------------|
|----------------------------------------------------------------------|
|----------------------------------------------------------------------|

|---------------------------------------------------------|
|-[13]--[13]-[13]-[13]-[13]--[13]--[13]--[13]--[13]--[13]-|
|---------------------------------------------------------|
|---------------------------------------------------------|
|---------------------------------------------------------|
|---------------------------------------------------------|
                     ~~~~~~~~~
|-------------------------------------|
|-(13)-------r(11)-8------------------|
|--------------------9----------------|
|------------------------------10/14--|
|-------------------------------------|
|-------------------------------------|

|-----------------------|   |----------------------|------------|----------------|
|--------------14p12----|   |-------------------12-|-(12)----12-|-(12)---(12)\---|
|--12h14p12-------------|   |-12h14p12----------12-|-(12)----12-|-(12)---(12)\---|
|-----------14-------14-|x4 |----------14-12-14----|------------|----------------|
|-----------------------|   |----------------------|------------|----------------|
|-----------------------|   |----------------------|------------|----------------|

8a) Both
E-----------------------|----------------------|---------------------------------|
B-----------------------|----------------------|---------------------------------|
G-----------------------|----------------------|---------------------------------|
D-----------------------|-----------------6-5--|-4-5-6-7�5-6-7-8----------|
A-------3-2-------------|-------5-4-------4-3--|-2-3-4-5�3-4-5-6----------|
E-0-0-0-1-0�0-0-0-0-0�0-|-2-2-2-3-2-2-2-2------|-------------------|

5.THE THING THAT SHOULD NOT BE

Droppped "D" Tuning

riff 1
|----|----------------|----------------|----------------|
|----|----------------|----------------|----------------|
|----|----------------|----------------|----------------|
|----|----------------|----------------|----------------|
|--0-|2---------------|--------------0-|2---------------|
|--0-|2---------------|--------------0-|2---------------|

riff 2
|----------------|----------------|----------------|
|----------------|----------------|----------------|
|----------------|----------------|----------------|
|----------------|----------------|----------------|
|--------------0-|2-----1-------2-|------3---------|
|--------------0-|2-----------2---|----2-----------|

riff 3
|----------------|----------------|
|----------------|----------------|
|------3-------4-|------5---------|
|------3-------4-|------5---------|
|0-1-2-1-------2-|------3-------0-|
|0-1-2-------2---|----2---------0-|

riff 4
|----------------|----------------|
|----------------|----------------|
|------3-------4-|------5---------|
|------3-------4-|------5---------|
|0-1-2-1-------2-|------3-------0-|
|0-1-2-----1-2---|--1-2-----1-2-0-|

riff 5
|----------------||----------------|----------------|----------------|----------------|
|----------------||----------------|----------------|----------------|----------------|
|--------5---5---||1-------1---1---|2-------2---2---|4---------------|----------------|
|--------5---5---||1-------1---1---|2-------2---2---|4---------------|2---------------|
|7-7-7-7---7-----||--3-3-3---3-----|--4-4-4---4-----|--1-1-1-1-1-1-1-|2---------------|
|7-7-7-7---7-----||--3-3-3---3-----|--4-4-4---4-----|--1-1-1-1-1-1-1-|2---------------|

riff 6
|----------------|----------------|----------------|
|----------------|----------------|----------------|
|2-------3-------|--6-----6-------|----------------|
|2-------3-------|--6-----6-------|----------------|
|0-------1-------|5-6---5-6-0-0-0-|0-0-0-0-0-0-0-0-|
|----------------|5-6---5-6-0-0-0-|0-0-0-0-0-0-0-0-|

Solo: W/Wah
|----------------|----------------|----------------|--------------7-h10|
|----------------|----------------|----------------|-------------------|
|----------------|----------------|----------------|-------------------|
|----------------|----------------|----------------|-------------------|
|----------------|----------------|----------------|-------------------|
|----------------|----------------|----------------|-------------------|

|p7-h10-p7-h10-p7-h10-p7-h10-p7-h10-p7-h10-p7-h10-p7-h10-p7-h10-p7-h10-|
|----------------------------------------------------------------------|
|----------------------------------------------------------------------|
|----------------------------------------------------------------------|
|----------------------------------------------------------------------|
|----------------------------------------------------------------------|
T r i l l * *

p7-h10-p7-h10-p7-h10-p7-h10-p7-h10-p7-h10|
-----------------------------------------|
-----------------------------------------|
-----------------------------------------|
-----------------------------------------|
-----------------------------------------|

|p7-h10-p7-h10-------------------------------10-10-10-10|
|--------------/17-b19-~--------------------------------|
|-------------------------------------------------------|
|-------------------------------------------------------|
|-------------------------------------------------------|
|-------------------------------------------------------|

|14-p11-p10-14-p11-p10-14-p11-p10-14-p11-p10-14-p11-p10-14-p11-p10-14-p11-|
|-------------------------------------------------------------------------|
|-------------------------------------------------------------------------|
|-------------------------------------------------------------------------|
|-------------------------------------------------------------------------|
|-------------------------------------------------------------------------|

p10-14-p11-p10|14-p11-p10-14-p11-p10-14-p11-p10---------------|
--------------|---------------------------------13-b16-----\--|
--------------|-----------------------------------------------|
--------------|-----------------------------------------------|
--------------|-----------------------------------------------|
--------------|-----------------------------------------------|

|--------------9-10--9-h10-p-9------------------------|
|--------9-10------------------10--9------------------|
|-9-h10------------------------------11-10------------|
|------------------------------------------12-11--8--7|
|-----------------------------------------------------|
|-----------------------------------------------------|

|----------------------|
|----------------------|
|----------------------|
|8-h9---8~--------\----|
|----------------------|
|----------------------|

\
|---------14-p11-p10-14-p11-p10-14-p11-p10-14-p11-p10|
|----------------------------------------------------|
|0\--------------------------------------------------|
|----------------------------------------------------|
|----------------------------------------------------|
|----------------------------------------------------|
w hammy b a r d o w n

|14-p11-p10-14-p11-p10-14-p11-p10-/-------------|
|-----------------------------------------------|
|------------------------------------12---12~---|
|-----------------------------------------------|
|-----------------------------------------------|
|-----------------------------------------------|

6.FUEL

Tune all guitars down 1/2 step

Gimme fuel
gimme fire
gimme that wich I desire

Ab-2---2-2---2-2-2---2-2---2-2-2---2-2---2-2-2---2-2---2-2-2---2-2---2-2-|--------|
Eb-3p0-0-3p0-0-0-3p0-0-3p0-0-0-3p0-0-3p0-0-0-3p0-0-3p0-0-0-3p0-0-3p0-0-0-|5-5-5-3-|2x


Db-----7-7-7-5----|-----|
Ab-5h7----------7-|-5h7-|
         4x

Ab-2---2-2---2-2-2---2-2---2-2-|
Eb-3p0-0-3p0-0-0-3p0-0-3p0-0-0-|


gb--------|
Db--------|
Ab-2---5--|
Eb-0---3--|


gb-------14-14-14-12----------14-14-14-12----|
Db-12h14-14-14-14-12-14-12h14-14-14-14-12-14-|
Ab-12h14-------------14-12h14-------------14-|

Db-----4---3---2---|-----7-7-7-5----|-----|
Ab-2---2---1---0---|-5h7----------7-|-5h7-|
Eb-0---------------|----------------|-----|
                           4x

Ab-2---2-2---2-2-2---2-2---2-2-|
Eb-3p0-0-3p0-0-0-3p0-0-3p0-0-0-|


gb--------|
Db--------|
Ab-2---5--|
Eb-0---3--|


gb-------14-14-14-12----------14-14-14-12----|
Db-12h14-14-14-14-12-14-12h14-14-14-14-12-14-|
Ab-12h14-------------14-12h14-------------14-|


Db-----4---3---2---|-----7-7-7-5----|-----|
Ab-2---2---1---0---|-5h7----------7-|-5h7-|
Eb-0---------------|----------------|-----|
                           4x

Ab-2---2-2---2-2-2---2-2---2-2-|
Eb-3p0-0-3p0-0-0-3p0-0-3p0-0-0-|


  Coro:


Db-----------------------------|
Ab-7p5---7---7p5---7---7p5---7-|
Eb-----7---------7---------7---|
               6x

Ab-2---2-2---2-2-2---2-2---2-2-|
Eb-3p0-0-3p0-0-0-3p0-0-3p0-0-0-|


So gimme fuel
gimme fire
gimme that wich I desire


Ab-----------------------------2---2-2---2-2-2---2-2---2-2-2---2-2---2-2-|--------|
Eb-3p0-0-3p0-0-0-3p0-0-3p0-0-0-3p0-0-3p0-0-0-3p0-0-3p0-0-0-3p0-0-3p0-0-0-|5-5-5-3-|

Ab-2---2-2---2-2-2---2-2---2-2-2---2-2---2-2-2---2-2---2-2-2---2-2---2-2-|--------|
Eb-3p0-0-3p0-0-0-3p0-0-3p0-0-0-3p0-0-3p0-0-0-3p0-0-3p0-0-0-3p0-0-3p0-0-0-|5-5-5-3-|


Db-----7-7-7-5----|-----|
Ab-5h7----------7-|-5h7-|
         4x

Ab-2---2-2---2-2-2---2-2---2-2-|
Eb-3p0-0-3p0-0-0-3p0-0-3p0-0-0-|


gb--------|
Db--------|
Ab-2---5--|
Eb-0---3--|


gb-------14-14-14-12----------14-14-14-12----|
Db-12h14-14-14-14-12-14-12h14-14-14-14-12-14-|
Ab-12h14-------------14-12h14-------------14-|


Db-----4---3---2---|-----7-7-7-5----|-----|
Ab-2---2---1---0---|-5h7----------7-|-5h7-|
Eb-0---------------|----------------|-----|
                           4x

Ab-2---2-2---2-2-2---2-2---2-2-|
Eb-3p0-0-3p0-0-0-3p0-0-3p0-0-0-|


gb--------|
Db--------|
Ab-2---5--|
Eb-0---3--|


gb-------14-14-14-12----------14-14-14-12----|
Db-12h14-14-14-14-12-14-12h14-14-14-14-12-14-|
Ab-12h14-------------14-12h14-------------14-|


Db-----4---3---2---|-----7-7-7-5----|-----|
Ab-2---2---1---0---|-5h7----------7-|-5h7-|
Eb-0---------------|----------------|-----|
                           4x

Ab-2---2-2---2-2-2---2-2---2-2-|
Eb-3p0-0-3p0-0-0-3p0-0-3p0-0-0-|

  Coro:


Db-----------------------------|
Ab-7p5---7---7p5---7---7p5---7-|
Eb-----7---------7---------7---|
               6x


Ab-2---2-2---2-2-2---2-2---2-2-|
Eb-3p0-0-3p0-0-0-3p0-0-3p0-0-0-|


So gimme fuel
gimme fire
gimme that wich I desire

Db-7-7-7-5---------7-7-7-5-------|
Ab-7-7-7-5-2-2-2-2-7-7-7-5-2-2---|
Eb---------0-0-0-0---------0-0-3~|4x
 p.m.      . . . .         . .


gb-14-14-14-12-------12-----14-14-14-12-------12~-|
Db-14-14-14-12-12h14----14~-14-14-14-12-12h14-----|4x


  Solo:

gb-------14-14-14-12-----------14-14-14-12----------14-14-14-12---------|
Db-12h14-------------14-12h14-------------14-12h14-------------14-12h14-|

gb-14^-12-14^-12-14^-|
Db-------------------|

eb-12-----12-----15^-15-14-15-14----14-------------------------------------------|
bb----15^----15^-----------------15----15----------------------------15p14-------|
gb----------------------------------------14-------------------------------16/18-|
Db-------------------------------------------14-------12----12-14/16-------------|
Ab----------------------------------------------12-14----14----------------------|

eb-------------------15-17^-17-15----|
bb-------------15-17--------------17-|
gb-------14-16-----------------------|
Db-14-17-----------------------------|

eb---------------------------------------------------------------12-16--16-16-16-|
bb-12/14-12--12/14-12---------------------12/14-12--12/14-12-/14-12-17--17-17-17-|
gb-12/14-12--12/14-12---------------------12/14-12--12/14-12-/14-----------------|
Db---------------------7^7^7^7^p5------------------------------------------------|
Ab--------------------------------7p5h7------------------------------------------|

gb-9----------9----------|
Db---12-9-12^---12-9-----|
Ab-------------------12^-|4x

bb----------------------------------------|-12/17~-|
gb----11-12----11-12----11-12/14-12-11-12-|--------|
Db-14-------14-------14-------------------|--------|
                    4x

Ab-2---2-2---2-2-2---2-2---2-2-2---2-2---2-2-2---2-2---2-2-2---2-2---2-2-|--------|
Eb-3p0-0-3p0-0-0-3p0-0-3p0-0-0-3p0-0-3p0-0-0-3p0-0-3p0-0-0-3p0-0-3p0-0-0-|5-5-5-3-|


Db-----7-7-7-5----|-----|
Ab-5h7----------7-|-5h7-|
         4x

7.THE MEMORY REMAINS

eb-------------------------------------------------------------------------------------|
bb-------------------------------------------------------------------------------------|
gb--7-9-------9--9--7-9-------9--9--9-9-------9--9-----10------------------------------|
db--7-9-------9--9--7-9-------9--9--9-9-------9--9-----10------------------------------|
ab--5-7-------7--7--5-7-------7--7--5-7-------7--7------8------------------------------|
eb-------0-0-------------0-0-------------0-0--------0----------------------------------|
  PM     ---             ---             ---        -----------------------------------|

  Riff A
eb-------------------------------------------------------------------------------------|
bb-------------------------------------------------------------------------------------|
gb-------------------------------------------------------------------------------------|
db------------------------5-7-7bfp5----------------------5-7-7fbp5---------------------|
ab-------5h7~~--7-5h7-7~~-----------7~~-----5h7~~--7-5h7-----------7~~-----------------|
eb--0--0---------------------------------0---------------------------------------------|

                                End Riff A   Rhy.fill 1A    Harm
eb-------------------------------------------------------------------------------------|
bb-------------------------------------------------------------------------------------|
gb-------------------------------------------------------------------------------------|
db------------------5-7-7bfp5------5-----5---2-----------------------------------------|
ab----5h7~~-7-5h7-7-------------------2------2-----------------------------------------|
eb--0---------------------------3------------0---3-3-3-3-3-3-3/12----------------------|

  Verse
eb-------------------------------------------------------------------------------------|
bb-------------------------------------------------------------------------------------|
gb-------------------------------------------------------------------------------------|
db-----------------------5-7-7bfp5---------------------7fb----------------5-7-7bfp5----|
ab------5h7~~--7-5h7-7~~-----------7~~-----5h7~~-7-5h7-------5h7~~--7-5h7--------------|
eb--0-0---------------------------------0------------------0---------------------------|

eb-------------------------------------------------------------------------------------|
bb-------------------------------------------------------------------------------------|
gb-------------------------------------------------------------------------------------|
db-----5-----5---------------------5-7-7bfp5------7fb----------------------------------|
ab--------2---------5h7~~--7-5h7~~-----------7~~--------5h7~~-7-5h7-7~~----------------|
eb--3-----------0-0-----------------------------------0--------------------------------|

eb-------------------------------------------------------------------------------------|
bb-------------------------------------------------------------------------------------|
gb-------------------------------------------------------------------------------------|
db--------5-------------------5-7-7bfp5------5-----5----2------------------------------|
ab------5-----5h7~~-7-5h7-7~~-----------7-------2-------2------------------------------|
eb--5h7-----0------------------------------3------------0------------------------------|

  Chorus rhy.fig1                 end fig 1       fill2 end
eb-------------------------------------------------------------------------------------|
bb-------------------------------------------------------------------------------------|
gb--7-9------9--9-9--7-9------9--9--7-9------9--9------------7-9------9--7--7-9--------|
db--7-9------9--9-9--7-9------9--9--7-9------9--9--7-5--7-5--7-9------9--7--7-9--------|
ab--5-7------7--7-7--5-7------7--7--5-7------7--7--5-5--5-5--5-7------7--5--5-7--------|
eb-------0-0--------------0-0------------0-0----------------------0-0------------0-0---|
  PM     ---              ---            ---                      ---            ---

        1.Time   end chorus   W/riff A
eb-------------------------------------------------------------------------------------|
bb--------------------------------------------------12----12-14bhr-12----12-14-14bhr---|
gb--9-7-7-9-------9--7---10----14fbr-12-------------12----12-14bhr-12----12-14-14bhr---|
db--9-7-7-9-------9--7---10-------------14~~-12h14-----14-------------14---------------|
ab--7-5-5-7-------7--5----8------------------------------------------------------------|
eb-----------0-0-----------------------------------------------------------------------|
  PM         ---

eb------------------------------------------12------12---------------------------------|
bb--12----12-14bh-14bhr-12----12---------12----15hb----15-12---------------------------|
gb--12----12-14bh-14bhr-12----12----14fb---------------------14fbp12-------------------|
db-----14------------------14----14----------------------------------------------------|
ab-------------------------------------------------------------------------------------|
eb-------------------------------------------------------------------------------------|

  W/rhy.fill 1A
eb----------------------------------15\\-----------------------------------------------|
bb---------12b--x-12--12-12--12-12--15\\-----------------------------------------------|
gb---------12b--x-12--12-12--12-12-----------------------------------------------------|
db--14--14-----------------------------------------------------------------------------|
ab-------------------------------------------------------------------------------------|
eb-------------------------------------------------------------------------------------|

  2.Time after chorus          -Rhy.fig 2                               end rhy.fig2
eb-------------------------------------------------------------------------------------|
bb-----------------------------.-------------------------------------------------------|
gb-------10~~------------12fbr-.----------------0---------0----------------------------|
db----10------10------12-------.------2-------4---------0----------7---4---------------|
ab--8-------------/10----------.----2---2h3-2-----3p2-------2h3-/5---2-----------------|
eb--------------------------------0-------------------3--------------------------------|
  PM                                -         -         -

  Riff B
eb--------12----------14-15-------------15-----------17----14--------------------------|
bb-----12----12h13-12-------13p12----15----12h13-/15----12-----------------------------|
gb--------------------------------12---------------------------------------------------|
db--14---------------------------------------------------------------------------------|
ab-------------------------------------------------------------------------------------|
eb-------------------------------------------------------------------------------------|

  Played with rhy.fig 2 3 times and together with riff B 4 times during "na na na na"
eb-------------------------------------------------------------------------------------|
bb-----7h8-7~~-8-7------/10-10-8p7--------------7h8-7~~-8-7-8~~-(8\)-/10-10-10fbr-8~~--|
gb--/9-------------7~~-------------9--9~~-9/-\9----------------------------------------|
db-------------------------------------------------------------------------------------|
ab-------------------------------------------------------------------------------------|
eb-------------------------------------------------------------------------------------|

eb-------------------------------------------------------------------------------------|
bb--8~~-(8\)----7h8-7~~-8-7----------/10-10-8p7-------------7h8-7~~-8-7-8~~-/10-10-----|
gb-----------/9-------------7~~-(7\)-/7--7--5p4-9-9~~-9\-/9-----------------/7--7------|
db-----------/5-7/9-7~~-9-7-5~~-(5\)------------5-5~~-5\-/5-7/9-7~~-9-7-9~~------------|
ab-------------------------------------------------------------------------------------|
eb-------------------------------------------------------------------------------------|

            end  The part where it goes "drift away fade away little...."with rhy.fig1
eb-------------------------------------------------------------------------------------|
bb--10fbr-8~~--.------10-------10-------------------------14hbp12-14hbp12--------------|
gb--7fbr-------.-12fb-----12fb----14fbp-12----12-------12-14hbp12-14hbp12--------------|
db--------9~~--.---------------------------14----14~~~~-------------------12-----------|
ab-------------.-------------------------------------------------------------14-12-----|
eb-------------------------------------------------------------------------------------|

eb-------------------------------------------------------------------------------------|
bb--14hbr-12-14hbr-12-------12~~-----17-(17)----15---------------------------14hbr-12--|
gb--14hbr-12-14hbr-12-14fbr-12~~-/16---------16----\12-----------------12-14-14nbr-12--|
db-----------------------------------------------------14~-14~14~-14~~-----------------|
ab-------------------------------------------------------------------------------------|
eb-------------------------------------------------------------------------------------|

eb---------------------------------------------------12--------------------------------|
bb-----12-14-14p12-------------------------------------------------12------------------|
gb--14-------------14-12h14p12---------------12-14fb---------------12-12----12-14fb----|
db-----------------------------14-12-14-14~~------------12-14-14~~-------14------------|
ab-------------------------------------------------------------------------------------|
eb-------------------------------------------------------------------------------------|

  end on "memory remains"    part "ash to ash, dust to dust...."
eb--------------------------------------------------------------------------------------|
bb--15-12------------------.------------------------------------------------------------|
gb--------14-12\-----------.------------------------------------------------------------|
db-------------------------.-5-----------------------5-5-5-5----------------------------|
ab-------------------------.-5-5-5-5-5-5-5-5-5-5-5-5-5-5-5-5-5-5-5-5-5-5-5--------------|
eb---------------------------3-3-3-3-3-3-3-3-3-3-3-3-3-3-3-3-3-3-3-3-3-3-3-4-4-4-5-5-5--|
  PM                           ---------------------         ---------------------------|harmed

                            Last solo W/wah wah
eb--------------------------------------------------------------------------------------|
bb------------------------.------------------------------------12-14-14hbp12-14fb-------|
gb------------------------.-12-12-12-12-12-12-12-12--12~~------12-14-14hbp12-14fb-------|
db------------------------.-------------------------------14~~--------------------------|
ab------------------------.-------------------------------------------------------------|
eb--7-7-7-7-7-12-12-12-12---------------------------------------------------------------|
    harmed               PM ------------------------------------------------------------|

eb--------------------------------------------------------------------12---------------|
bb------------------------14hbr-12----12-14-14hbr-12----12---------12----15fb----------|
gb--2-2fb-2fb-0-------0---14hbr-12----12-14-14hbr-12----12----14fb---------------------|
db--------------2-2~~---0----------14----------------14----14--------------------------|
ab-------------------------------------------------------------------------------------|
eb-------------------------------------------------------------------------------------|

eb--12---------------13\--15-(15\)---|
bb-----15-12---------13\--15-(15\)---|
gb-----------14fbp12-----------------|
db-----------------------------------|
ab-----------------------------------|
eb-----------------------------------|

8.NO LEAF CLOVER

Eb,Ab,Db,Gb,Bb,eb


intro
eb--7---7---8----8----7---7---8----8----|
Bb--8---8---10---10---7---7---10---10---|
Gb----9---9----9----9---8---8----9----9-|
Db--------------------------------------|
Ab--------------------------------------|
Eb--------------------------------------|

eb--7---7---8----8----7---7-----------------|
Bb--8---8---10---10---7---7-------10-----10-|
Gb----9---9----9----9---8---8-8/9----8/9----|
Db------------------------------------------|
Ab------------------------------------------|
Eb------------------------------------------|

eb--7---7---8----8----7---7----------10-8----|
Bb--8---8---10---10---7---7-------10------10-|
Gb----9---9----9----9---8---8-8/9------------|
Db-------------------------------------------|
Ab-------------------------------------------|
Eb-------------------------------------------|

eb--7---7---8----8----7---7-----------8----|
Bb--8---8---10---10---7---7-------10----10-|
Gb----9---9----9----9---8---8-8/9----------|
Db-----------------------------------------|
Ab-----------------------------------------|
Eb-----------------------------------------|


Gb-----------------------       ------------------------|
Db------------2-----2---- three -4-----4----------------|
Ab----2~--3~2~2-----2---- times -4-----4-------2~--3~2~-|
Eb--0---0-----0-0-0-0-0-0 then  -2-2-2-2-2-2-0---0------|

3)
Gb--2--4------------5--4------------2--4-----5--4-4-4-4-4-4-4-4-4-4-|
Db--2--4------------5--4------------2--4--5--5--4-4-4-4-4-4-4-4-4-4-|
Ab--0--2---2~--3~2~-3--2---2~--3~2~-0--2--5--3--2-2-2-2-2-2-2-2-2-2-|
Eb-------0---0-----------0---0------------3-------------------------|

eb--0-0-0-0-0--0--0--0--0--0---2-2-2-2-2--0--0--0--0--0-|
Bb--0-0-0-0-0--1--1--1--1--1---0-0-0-0-0--1--1--1--1--1-|
Gb--0-0-0-0-0--2--2--2--2--2---2-2-2-2-2--2--2--2--2--2-|
Db--2-2-2-2-2--2--2--2--2--2---1-1-1-1-1--2--2--2--2--2-|
Ab--2-2-2-2-2--0--0--0--0--0---2-2-2-2-2--0--0--0--0--0-|
Eb--0-0-0-0-0-------------------------------------------|

second guitar
     ^V
eb------------------------------------------------------|
Bb------------------------------------------------------|
Gb--14--12----------------------------------------------|
Db----------14~~~~~~~~~~~~~~~~13-14-13~~~~~~~~~~~~~~~~~-|
Ab------------------------------------------------------|
Eb------------------------------------------------------|


first guitar
eb-------0-0-0-0-0--2-2-2-2-2--0-0-0-0-0--0-0-0-0--2-2-2-2----------------|
Bb-------1-1-1-1-1--0-0-0-0-0--0-0-0-0-0--1-1-1-1--3-3-3-3----------------|
Gb-------0-0-0-0-0--2-2-2-2-2--0-0-0-0-0--0-0-0-0--2-2-2-2--2--2--2--2--2-|
Db-------2-2-2-2-2--1-1-1-1-1--2-2-2-2-2--2-2-2-2--0-0-0-0--1--1--1--1--1-|
Ab-------3-3-3-3-3--2-2-2-2-2--2-2-2-2-2--3-3-3-3-----------2--2--2--2--2-|
Eb-----------------------------0-0-0-0-0----------------------------------|
"It's coming your way" (3:05)
also clean played after riff 4)


2nd guitar
     ^V                 ^V
eb------------------------------------------------------------------------|
Bb--------------------------------12--------------------------------------|
Gb--14--12-12~~~~~~14~~14--12-----12----14--12-12~~~14~~~11~~~12-11-12-11-|
Db----------------------------14~~---14-----------------------------------|
Ab------------------------------------------------------------------------|
Eb------------------------------------------------------------------------|


first guitar
Gb---------------------------------------------------4----------------------------------------|
Db--2-2-2--2--2-2-2--2-2-2-5--2-2-2--2--2-2-2--2-2-2-4--2-2-2--2--2-2-2--2-2-2-5---2----2-----|
Ab--2-2-2--2--2-2-2--2-2-2-5--2-2-2--2--2-2-2--2-2-2-2--2-2-2--2--2-2-2--2-2-2-5---2----2-----|
Eb--0-0-0--0--0-0-0--0-0-0-3--0-0-0--0--0-0-0--0-0-0----0-0-0--0--0-0-0--0-0-0-3~--0-3~~0-3~--|
breakdown


second guitar
eb--7---7---7---7---7---7---7---7---7---7---7---7-7--7-7-|
Bb--8---8---8---8---8---8---8---8---8---8---8---7-7--7-7-|
Gb----9---9---9---9---9---9---9---9---9---9---9-8-8--8-8-|
Db-------------------------------------------------------|
Ab-------------------------------------------------------|
Eb-------------------------------------------------------|

Gb-----2--4--2---     ----4--5--4----|
Db--2--2--4--2--2     -2--4--5--4--2-|
Ab--2--0--2--0--2     -2--2--3--2--2-|
Eb--0-----------0     -0-----------0-|


solo

w/wah              E5
1|--7-----8---10--|-12--12--12-------12---------12----------------|
2|--10b---11b-13b-|-15b-15b-15b--/12----12-15b-----15p12----------|
3|----------------|--------------------------------------14p12----|
4|----------------|--------------------------------------------14-|
5|----------------|-----------------------------------------------|
6|----------------|-----------------------------------------------|
  E5
1|-------------------------------------------12----------------------|
2|----------------------------------------12----12-15-12h15p12----12-|
3|-14b-14b-14b-14--12----12---------12-14----------------------14b---|
4|--------------------14~---14~-/14----------------------------------|
5|-------------------------------------------------------------------|
6|-------------------------------------------------------------------|
  E5                  F#5
1|--------------------|-------14h17p14------------------------------|
2|--------------------|-14h17----------17p14-14h17p14---------------|
3|-14p12-14p12-----12-|-------------------------------16p14-16b-16--|b
4|-------------14-----|---------------------------------------------|
5|--------------------|---------------------------------------------|
6|--------------------|---------------------------------------------|
  F#5      E5
1|--------|------------------------------------15br-----12-15p12----|
2|--------|---------15b----------15b-----------------15-------------|
3|--14----|------12-----------12-----------12-----------------------|
4|-----16-|--/14----------/14----------/14--------------------------|
5|--------|---------------------------------------------------------|
6|--------|---------------------------------------------------------|

1|----12-15p12----12-15-16b-17b-17b-17b~--12-15-12h15p12----12-------|
2|-15----------15----------------------------------------15----15p12-|
3|-------------------------------------------------------------------|
4|-------------------------------------------------------------------|
5|-------------------------------------------------------------------|
6|-------------------------------------------------------------------|
                                          F#5
1|--------------------------------------|-------14-----14-------|
2|----12-15-12--------------------------|---17b----17b----17p14-|
3|-14----------14-12--14br-12----12-----|-----------------------|
4|----------------------------14----14\-|-----------------------|
5|--------------------------------------|-----------------------|
6|--------------------------------------|-----------------------|

1|-----14------------14--------19br-17-----|
2|-17b----17p14--17b----17p14-----------19-| thnx.
3|-----------------------------------------|
4|-----------------------------------------|
5|-----------------------------------------|
6|-----------------------------------------|

eb--------------------------------------------------------------------|
Bb--------------------------------------------------------------------|
Gb---------------------------------------14b(16)r14p12----------------|
Db------/14~~----------13b(14)r13~~--------------------------14~~-----|
Ab--------------------------------------------------------------------|
Eb--------------------------------------------------------------------|

The second part is the thing he plays during the riff that comes after the
solo.

eb---------------------------------------------------|
Bb---------------------------------------------------|
Gb-----12--------12--------12----------12------------|
Db----------14~-------14~--------14~-------13~-------|
Ab---------------------------------------------------|
Eb---------------------------------------------------|

*after that gets played 3 times, he plays this:

eb---------------------------------------------------------------------------|
Bb---------------------------------------------------------------------------|
Gb---12------12-------14-------14-------11-------11-------14-------14--------|
Db-------14------14-------14-------14-------13-------13-------14-------14----|
Ab---------------------------------------------------------------------------|
Eb---------------------------------------------------------------------------|

9.HERO OF THE DAY

Opening part

e:---------------------------------------------------------------------------|
B:-------------------------------------------------0-----0--------0--------0-|
G:----------------2--------2--------2--------2--------1-----1--------1-------|
D:-------------2--------2--------2--------2--------------------2--------2----|
A:----0-----0--------2--------4--------5-------------------------------------|
E:-2-----2--------------------------------------0----------------------------|

e:-----------------------------------------------------------------------------|
B:-------------------------------------------------0-----0--------0--------0---|
G:----------------2--------2--------2--------2--------1-----1--------1---------|
D:-------------2--------2--------2--------2-----2--------------2--------2------|
A:----0-----0--------2--------4--------5---------------------------------------|
E:-2-----2---------------------------------------------------------------------|
e:-----------------------------------------------------------------------------|
B:-2p0-------------------------------------------------------------------------|
G:------2--1-/-2---------------------------------------------------------------|
D:-----------------------------------------------------------------------------|
A:-----------------------------------------------------------------------------|
E:-----------------------------------------------------------------------------|

Distortion riff

e:----------------------------------------------------------------------|
B:----------------------------------------------------------------------|
G:--------2--------2--------2--------2----------------------------------|
D:-----2--------2--------2--------2--------4-h-6--6--6-----4-h-6--6--6--|
A:--0--------2--------4--------5-----------7---7--7--7-----7---7--7--7--|
E:--------------------------------------0---------------0---------------|

Fast Riff

e:------------------------------------|
B:------------------------------------|
G:------------------------------------|
D:------------------------------------|
A:-----4--4--4--4--4--4--44--5--4--54-|
E:--0--2--2--2--2--2--2--22--3--2--32-|

solo:

e:----------------------------------------------------------------------|
B:-------------------10----------------10-15-14-14-13-------------------|
G:----11-9-11-9-11-9----11-9-11-9-11-9----------------------------------|
D:----------------------------------------------------------------------|
A:----------------------------------------------------------------------|
E:----------------------------------------------------------------------|

e:----------------------------------------------------------------------|
B:-------------------10----------------10-17-15-15-17-19-21-------------|
G:----11-9-11-9-11-9----11-9-11-9-11-9----------------------------------|
D:----------------------------------------------------------------------|
A:----------------------------------------------------------------------|
E:----------------------------------------------------------------------|

10.DEVIL'S DANCE

Intro
E|------------------------------------|
B|------------------------------------|
G|------------------------------------| REPEATS
D|------------------------------------| THROUGHOUT
A|------------------------------------| INTRO
D|--6~--0---0---0-3-0---0-5-3-0-3-5---|


E|-----------|--------------|----------|---------------|
B|-----------|--------------|----------|---------------|
G|-----------|--------------|----------|---------------| PLAY
D|-----------|--------------|----------|---------------|  1X
A|--8-8------|--8-8-8-8-8---|--8-8-----|--0-0-0-0------|
D|--8-8------|--8-8-8-8-8---|--8-8-----|--0-0-0-0------|
    x x         x x x x        x x        m m m m


E|---------------------------------|
B|---------------------------------|
G|---------------------------------| PLAY
D|---------------------------------|  8X
A|--0-0-0-0---0-0---0-0---0-0--0---|
D|--0-0-0-0---0-0---0-0---0-0--0---|
    m m m m   m m   m m   m m  m

E|-----------------------------------------------------|
B|-----------------------------------------------------|
G|-----------------------------------------------------|
D|-----------------------------------------------------|
A|--0--------------------------------------------------|
D|--0--------------------------------------------------|
    ^ Let Ring out about 16 beats....


E|-------------|------------|-----------|--------------|
B|-------------|------------|-----------|--------------|
G|-------------|------------|-----------|--------------|
D|-------------|------------|-----------|--------------|
A|-/5----------|-/5---------|-/5--------|-/5-----------|
D|-----6~------|-----5~-----|-----6~----|-----5~-------|


Main Riff: with swing feel.

E|------------------------|---------------------------|
B|------------------------|---------------------------|
G|------------------------|---------------------------| PLAY
D|------------------------|---------------------------|  2X
A|--5-----------5---------|--5------------5-----------|
D|------6~----------5~----|------6~----------5--3p0---|


E|-------|
B|-------|
G|-------| PLAY
D|-------|  1X
A|-------|
D|--3p0--|

Verse:

E|-------------------------------|
B|-------------------------------|
G|-------------------------------| PLAY
D|-------------------------------|  3X
A|--0-0-0-0---0-0-----0---0---0--|
D|--0-0-0-0---0-3-----0---0---0--|
    m m m m   m       m   m   m

E|-------------------------------|
B|-------------------------------|
G|-------------------------------| PLAY
D|-------------------------------|  1X
A|--0-0-0-0---0-0----------------|
D|--0-0-0-0---0-3-----5b6r5--3---|
    m m m m   m

E|-------------------------------|--------------------------------|
B|-------------------------------|--------------------------------|
G|-------------------------------|--------------------------------| PLAY
D|-------------------------------|--------------------------------|  1X
A|--3-3-3-3---3-3---3-3---3-3--3-|--3-3-3-3---3-3---3-3-----------|
D|--3-3-3-3---3-3---3-3---3-3--3-|--3-3-3-3---3-3---3-3-5b6r5--3--|
    m m m m   m m   m m   m m       m m m m   m m   m m

E|-------------------------------|
B|-------------------------------|
G|-------------------------------| PLAY
D|-------------------------------|  1X
A|--0-0-0-0---0-0-----0---0---0--|
D|--0-0-0-0---0-3-----0---0---0--|
    m m m m   m       m   m   m

E|-------------------------------|
B|-------------------------------|
G|-------------------------------| PLAY
D|-------------------------------|  1X
A|--0-0-0-0---0-0----------------|
D|--0-0-0-0---0-3-----5b6r5--3---|
    m m m m   m

E|-------------------------------|--------------------------|
B|-------------------------------|--------------------------|
G|-------------------------------|--------------------------| PLAY
D|-------------------------------|--------------------------|  1X
A|--3-3-3-3---3-3---3-3---3-3--3-|--2-2-2-2---2-2---2-2-----|
E|--3-3-3-3---3-3---3-3---3-3--3-|--2-2-2-2---2-2---2-2-----|
    m m m m   m m   m m   m m       m m m m   m m   m


Bridge:

E|---------------------------|----------------------------|
B|---------------------------|----------------------------|
G|---------------------------|----------------------------| PLAY
D|---------------------------|----------------------------|  1X
A|--5-----------5------------|---5-----------5------------|
D|------6~----------5~-------|-------6~----------5~--3p0--|


E|-------|
B|-------|
G|-------| PLAY
D|-------|  1X
A|-------|
D|--3p0--|


Chorus:

E|---------------------------------|---------------------------|
B|---------------------------------|---------------------------|
G|---------------------------------|---------------------------| PLAY
D|---------------------------------|---------------------------|  3x
A|--6-------6-------6-------6---3--|--0-----3-----3-----0--3---|
D|--6---6-6-6---6-6-6---6-6-6---3--|--0--0--3-----3-----0--3---|
        m m     m m     m m              m

E|------------------|
B|------------------|
G|------------------| PLAY
D|------------------|  1X
A|--6---------------|
D|--6---------------|


Repeat Main Riff
Repeat Verse
Repeat Bridge
Repeat Chorus

Solo Rhythm:


E|---------------------------------|
B|---------------------------------|
G|---------------------------------| PLAY
D|---------------------------------|  4X
A|--0-0-0-0---0-0---0-0---0-0--0---|
D|--0-0-0-0---0-0---0-0---0-0--0---|
    m m m m   m m   m m   m m  m

E|---------------------------------|
B|---------------------------------|
G|---------------------------------| PLAY
D|---------------------------------|  3X
A|--3-3-3-3---3-3---3-3---3-3--3---|
D|--3-3-3-3---3-3---3-3---3-3--3---|
    m m m m   m m   m m   m m  m

E|---------------------------------|
B|---------------------------------|
G|---------------------------------| PLAY
D|---------------------------------|  1X
A|--3-3-3-3---3-3---3-3------------|
D|--3-3-3-3---3-3---3-3--5b6r5--3--|
    m m m m   m m   m m

E|-------------------------------|
B|-------------------------------|
G|-------------------------------| PLAY
D|-------------------------------|  4X
A|--0-0-0-0---0-0-----0---0---0--|
D|--0-0-0-0---0-3-----0---0---0--|
    m m m m   m       m   m   m

E|---------------------------------|---------------------------|
B|---------------------------------|---------------------------|
G|---------------------------------|---------------------------| PLAY
D|---------------------------------|---------------------------|  3x
A|--6-------6-------6-------6---3--|--0-----3-----3-----0--3---|
D|--6---6-6-6---6-6-6---6-6-6---3--|--0--0--3-----3-----0--3---|
        m m     m m     m m              m

E|------------------|
B|------------------|
G|------------------| PLAY
D|------------------|  1X
A|--6---------------|
D|--6---------------|


E|-------------|------------|-----------|--------------|
B|-------------|------------|-----------|--------------|
G|-------------|------------|-----------|--------------| PLAY
D|-------------|------------|-----------|--------------|  1X
A|-/5----------|-/5---------|-/5--------|-/5-----------|
D|-----6~------|-----5~-----|-----6~----|-----5~-------|


E|------------------------|---------------------------|
B|------------------------|---------------------------|
G|------------------------|---------------------------| PLAY
D|------------------------|---------------------------|  1X
A|--5-----------5---------|--5------------5-----------|
D|------6~----------5~----|------6~----------5--3p0---|


E|------------------------|---------------------------|
B|------------------------|---------------------------|
G|------------------------|---------------------------| PLAY
D|------------------------|---------------------------|  1X
A|--5-----------5---------|--5-------6---------6--6---|
D|------6~----------5~----|------6~--6---------6--6---|

11.BLEEDING ME

|--------------------------------------------------------------------|
|--------------------------------------------------------------------|
|--------------------------------------------------------------------|
|--------5p0------------------5-------------5p0----------------------|
|----/7-------7~~---7-------5----7~~----/7-------7~~-----7------4--2-|
|-0--------------0-----0--5----------0----------------0-----0h5----3-|

|--------------------------------------------------------------------|
|--------------------------------------------------------------------|
|--------------------------------------------------------------------|
|--------5p0------------------5-------------5p0----------------------|
|----/7-------7~~---7-------5----7~~----/7-------7/5-----5-----5-----|
|-0--------------0-----0--5----------0----------------3----3-2---2-0-|

|--------------------------------------------------------------------|
|--------------------------------------------------------------------|
|--------------------------------------------------------------------|
|--------5p0------------------5-------------5p0----------------------|
|----/7-------7~~---7-------5----7~~----/7-------7~~-----7------4--2-|
|-0--------------0-----0--5----------0----------------0-----0h5----3-|


|--------------------------------------------------------------------|
|--------------------------------------------------------------------|
|--------------------------------------------------------------------|
|--------5p0------------------5-------------5h7--7b------------------|
|----/7-------7~~---7-------5----7~~----/7--------------5-----5------|
|-0--------------0-----0--5----------0---------------3----3-2---2-0--|

With this
as the backing

|-0------0-------0--------0----------0------0--------0-------0-------|
|-8------8-------8--------8----7-----8------8--------8-------8-----7-|
|-9------9-------9--------9----------9------9--------9-------9-------|
|--------------------------------------------------------------------|
|--------------------------------------------------------------------|
|--------------------------------------------------------------------|


|-0------0-------0--------0----------0------0--------0-------0-------|
|-8------8-------8--------8----7-----8------8--------8-------8-----7-|
|-9------9-------9--------9----------9------9--------9-------9-------|
|--------------------------------------------------------------------|
|--------------------------------------------------------------------|
|--------------------------------------------------------------------|

Verse 1

|--------------------------------------------------------------------|
|--------------------------------------------------------------------|
|--------------------------------------------------------------------|
|--------5p0------------------5-------------5p0----------------------|
|----/7-------7~~---7-------5----7~~----/7-------7~~-----7------4--2-|
|-0--------------0-----0--5----------0----------------0-----0h5----3-|


|-----------------------------------------------------------------------|
|-----------------------------------------------------------------------|
|----------------------------------------------------x--7--7/9--9/12--9-|
|--------5p0------------------5-------------5p0-------------------------|
|----/7-------7~~---7-------5----7~~----/7-------5~~-x--5--5/7--7/10--7-|
|-0--------------0-----0--5----------0----------------------------------|


|------------------------------------------------------------------------|
|------------------------------------------------------------------------|
|------------------------------------------------------------------------|
|--------5p0------------------5-------------5p0---------------5--7b--5~~-|
|----/7-------7~~---7-------5----7~~----/7-------5~~-----5h7-------------|
|-0--------------0-----0--5----------0----------------0------------------|


|--------------------------------------------------------------------|
|--------------------------------------------------------------------|
|--------------------------------------------------------------------|
|--------5p0------------------5-------------5p0----------------------|
|----/7-------7~~---7-------5----7~~----/7-------7/5-----5-----5-----|
|-0--------------0-----0--5----------0----------------3----3-2---2-0-|

Verse backing

|-------------------------------12-------------------------------------7-|
|-------------------------------12--------------------------------8----7-|
|-------------------------12---------------------------------9---------9-|
|-------------------14---------------------------------------------------|
|------------------------------------------------------------------------|
|------------------------------------------------------------------------|


|-------------------------------12---------------------------------------|
|-------------------------------12---------------------------------------|
|-------------------------12---------------------------------------------|
|-------------------14---------------------------------------------------|
|------------------------------------------------------------------------|
|------------------------------------------------------------------------|

Chorus
|-------------------------------------------------|
|-------------------------------------------------|
|-9-9-x-9-9---7-7-x-7-7---7-7-x-7-7---9-9-x-9-9---|
|-9-9-x-9-9---7-7-x-7-7---7-7-x-7-7---9-9-x-9-9---|
|-7-7-x-7-7---5-5-x-5-5---5-5-x-5-5---7-7-x-7-7---|
|-------------------------------------------------|


|--------------------------------------------------------------------------|
|--------------------------------------------------------------------------|
|----------12b~~----------------------------7------------------------------|
|------12-----------------5--7b----------5-----7b~~------5--7b---7p5-------|
|-/14-----------------/7-------------/7-------------------------------7~~~-|
|--------------------------------------------------------------------------|

Verse 2
|--------------------------------------------------------------------|
|--------------------------------------------------------------------|
|--------------------------------------------------------------------|
|--------5p0------------------5-------------5p0----------------------|
|----/7-------7~~---7-------5----7~~----/7-------7~~-----7------4--2-|
|-0--------------0-----0--5----------0----------------0-----0h5----3-|


|--------------------------------------------------------------------|
|--------------------------------------------------------------------|
|--------------------------------------------------------------------|
|--------5p0------------------5-------------5h7--7b------------------|
|----/7-------7~~---7-------5----7~~----/7--------------5-----5------|
|-0--------------0-----0--5----------0---------------3----3-2---2-0--|

|------------------------------------------------------------------------|
|------------------------------------------------------------------------|
|------------------------------------------------------------------------|
|--------5p0------------------5-------------5p0---------------5--7b--5~~-|
|----/7-------7~~---7-------5----7~~----/7-------5~~-----5h7-------------|
|-0--------------0-----0--5----------0----------------0------------------|


|------------------------------------------------------------------------------|
|------------------------------------------------------------------------------|
|----------------------------------------------------x--7--7/9--9/12--12/11--9-|
|--------5p0------------------5-------------5p0--------------------------------|
|----/7-------7~~---7-------5----7~~----/7-------5~~-x--5--5/7--7/10--10/9---7-|
|-0--------------0-----0--5----------0-----------------------------------------|


|--------------------------------------------------------------------|
|--------------------------------------------------------------------|
|--------------------------------------------------------------------|
|--------5p0------------------5-------------5p0----------------------|
|----/7-------7~~---7-------5----7~~----/7-------7~~-----7------4--2-|
|-0--------------0-----0--5----------0----------------0-----0h5----3-|


|--------------------------------------------------------------------|
|--------------------------------------------------------------------|
|--------------------------------------------------------------------|
|--------5p0------------------5-------------5p0----------------------|
|----/7-------7~~---7-------5----7~~----/7-------7/5-----5-----5-----|
|-0--------------0-----0--5----------0----------------3----3-2---2-0-|

Chorus

|-------------------------------------------------|
|-------------------------------------------------|
|-9-9-x-9-9---7-7-x-7-7---7-7-x-7-7---9-9-x-9-9---|
|-9-9-x-9-9---7-7-x-7-7---7-7-x-7-7---9-9-x-9-9---|
|-7-7-x-7-7---5-5-x-5-5---5-5-x-5-5---7-7-x-7-7---|
|-------------------------------------------------|


|--------------------------------------------------------------------------|
|--------------------------------------------------------------------------|
|----------12b~~----------------------------7------------------------------|
|------12-----------------5--7b----------5-----7b~~------5--7b---7p5-------|
|-/14-----------------/7-------------/7-------------------------------7~~~-|
|--------------------------------------------------------------------------|


|------------------------------------------------------------|
|------------------------------------------------------------|
|------------------------------------------------------------|
|-/9--9--9-----/7--7--7-----/7--7--7--------------x--x--x----|
|-/7--7--7-----/5--5--5-----/5--5--5-----7--7--7--x--x--x----|
|----------------------------------------5--5--5--x--x--x----|


|------------------------------------------------------------|
|------------------------------------------------------------|
|------------------------------------------------------------|
|-/9--9--9-----/7--7--7-----/7--7--7-------------------------|
|-/7--7--7-----/5--5--5-----/5--5--5-----7--7--7-------------|
|----------------------------------------5--5--5--0--3~~~----|


|------------------------------------------------------------|
|------------------------------------------------------------|
|------------------------------------------------------------|
|-/9--9--9--9b--7--7--7-----/7--7--7-------------------------|
|-/7--7--7------5--5--5-----/5--5--5-----7--7--7-------------|
|----------------------------------------5--5--5--0--3~~~----|


|---------------------------------------------------------------|
|---------------------------------------------------------12b---|
|---------------------------------------------------------12b---|
|-/9--9--9------7--7/9--7~~--/7--7--7-----------------12--------|
|-/7--7--7------5------------/5--5--5-----7--7--7/14------------|
|-----------------------------------------5--5--5---------------|


|---------------------------------------------|
|---------------------------------------------|
|-----7--------------7------------------------|
|-/9-----7~~------5-----7b~~--5--7b--7p5------|
|-------------/7--------------------------7~~-|
|---------------------------------------------|


|------------------------------------------------------------|
|------12--12b-----------------------------------------------|
|------12--12b-------7--------------7------------------------|
|----------------/9-----7~~------5-----7b~~--5--7b--7p5------|
|-/14------------------------/7--------------------------7~~-|
|------------------------------------------------------------|

Middle Solo

|---------------------------------------------------------------------------|
|---------------------------------------------------------------------------|
|-4/9--12\11/12\9--12\11/12\9--12\11/12/14--11/12\9--12\11/12\9--12\11/12\9-|
|---------------------------------------------------------------------------|
|---------------------------------------------------------------------------|
|---------------------------------------------------------------------------|

|-------------|
|-------------|
|-12\11/12/14-|
|-------------|
|-------------|
|-------------|


|-10/12--15\14/15\12--15\14/15\12--15\14/15/17--14/15\12--15\14/15\12-|
|---------------------------------------------------------------------|
|---------------------------------------------------------------------|
|---------------------------------------------------------------------|
|---------------------------------------------------------------------|
|---------------------------------------------------------------------|


|-15\14/15\12--15\14/15/17--19///-------------------------------------|
|---------------------------------------------------------------------|
|---------------------------------------------------------------------|
|---------------------------------------------------------------------|
|---------------------------------------------------------------------|
|---------------------------------------------------------------------|


Chorus

|------------------------------------------------------------|
|------------------------------------------------------------|
|------------------------------------------------------------|
|-/9--9--9-----/7--7--7-----/7--7--7--------------x--x--x----|
|-/7--7--7-----/5--5--5-----/5--5--5-----7--7--7--x--x--x----|
|----------------------------------------5--5--5--x--x--x----|


|------------------------------------------------------------|
|------------------------------------------------------------|
|------------------------------------------------------------|
|-/9--9--9-----/7--7--7-----/7--7--7-------------------------|
|-/7--7--7-----/5--5--5-----/5--5--5-----7--7--7-------------|
|----------------------------------------5--5--5--0--3~~~----|


|------------------------------------------------------------|
|------------------------------------------------------------|
|------------------------------------------------------------|
|-/9--9--9--9b--7--7--7-----/7--7--7-------------------------|
|-/7--7--7------5--5--5-----/5--5--5-----7--7--7-------------|
|----------------------------------------5--5--5--0--3~~~----|


|---------------------------------------------------------------|
|---------------------------------------------------------------|
|---------------------------------------------------------------|
|-/9--9--9--9b--7--7/9--7~~--/7--7--7---------------------2~~---|
|-/7--7--7------5------------/5--5--5-----7--7--7---------2~~---|
|-----------------------------------------5--5--5--0--3~--0~~---|

|----------------------------------------------------------------------|
|----------------------------------------------------------------------|
|----------------------------------------------------------------------|  Play 4
|-7h9-----9-----9-----9--------10p9--9~~~--9-----9-----9----------10p9-|   Times
|-7-------7-----7-----7---7h10-------7~~~--7-----7-----7-----7h10------|
|-0---0-0-0-0-0-0-0-0-0-0------------------0-0-0-0-0-0-0-0-0-----------|

Chorus

|-----------------------------------------------------------------|
|------------------------------------------------------7b---------|
|---------------------------------------------5-----5--7b--5------|
|-/9--9--9-----/7--7--7-----/7--7--7----5--7-----7------------7---|
|-/7--7--7-----/5--5--5-----/5--5--5------------------------------|
|-----------------------------------------------------------------|


|------------------------------------------------------------------|
|------------------------------------------8b--8b--8b--------------|
|---------------------------------------5--7b--7b--7b---7p5--------|
|-/9--9--9-----/7--7--7-----/7--7----7-----------------------7~~---|
|-/7--7--7-----/5--5--5-----/5--5----------------------------------|
|------------------------------------------------------------------|


|------------------------------------------------------------|
|------------------------------------------------------------|
|------------------------------------------------------------|
|-/9--9--9--9b--7--7--7-----/7--7--7-------------------------|
|-/7--7--7------5--5--5-----/5--5--5-----7--7--7-------------|
|----------------------------------------5--5--5--0--3~~~----|


|-----------------------------------------------------------|
|-----------------------------------------------------------|
|-----------------------------------------------------------|
|-/9--9--9--9b--7--7/9--7~~--/7--7--7-----------------------|
|-/7--7--7------5------------/5--5--5-----7--7--7-----------|
|-----------------------------------------5--5--5--0--3~~~--|

Solo:

|-----------------------------------------------------------|
|-----------------------------------------------------------|
|----12~----------14-12--------------------------------12b~-|
|-14-----12-14-14-------14-12~--14-14~-12-14-14~-14-12-12b~-|
|-----------------------------------------------------------|
|-----------------------------------------------------------|


-------------------------------------------------------------------|
-------------------------------------------------------------------|
----------------14-12-------14b-12-----14b-12----------------------|
14-14-12-14-14~-------14-12--------14~--------14-12----12h14-12----|
----------------------------------------------------14----------14-|
-------------------------------------------------------------------|

|-15-12----12-------------------------------------------------------------|
|-------15----15-12----12-------------------------------------------------|
|-------------------14----14-12----12-14b-14p12----12-14-12-------12------|
|-------------------------------14--------------14----------14-12----14~~-|
|-------------------------------------------------------------------------|
|-------------------------------------------------------------------------|


|-12h15p12----12-----12h15p12----12-----12h15p12----12-----|
|----------15----15b----------15----15b----------15----15b-|
|----------------------------------------------------------|
|----------------------------------------------------------|
|----------------------------------------------------------|
|----------------------------------------------------------|


-----------------------------------------------|
-15p12-12-12-15p12-12-12-15p12-12-12-15p12-----|
-----------------------------------------------|
-----------------------------------------------|
-----------------------------------------------|
-----------------------------------------------|


|----------------------------------------------------------|
|-12h15p12----12h15p12----12h15p12-12h15p12----12h15p12----|
|----------14----------14-------------------14----------14-|
|----------------------------------------------------------|
|----------------------------------------------------------|
|----------------------------------------------------------|


------------------------------------------------|
12h15p12-12h15p12----12h15p12-12h15p12--15b-15b-|
------------------14----------------------------|
------------------------------------------------|
------------------------------------------------|
------------------------------------------------|


|--------------------------------------|
|-12--14--15--14--12-14---14-15-14-12--|
|-12--14--15--14--12-14---14-15-14-12--|
|--------------------------------------|
|--------------------------------------|
|--------------------------------------|


----------------------------------------------|
15b~-15-12-------------15b~-15-12-------------|
-----------14-12------------------14-12-------|
-----------------14-12------------------14-12-|
----------------------------------------------|
----------------------------------------------|

|---------------------------------|
|-15b-15b-12-15b-12-15--15-12-15b-|
|---------12-----12-15--15-12-----|
|---------------------------------|
|---------------------------------|
|---------------------------------|


|----------------------------------------------------------------------|
|-----------------------------------------------15-12------------------|
|-9--9--9--12/14--12--14--12--11------12-14-14b-------14-14b-12----14b-|
|---------------------------------/14---------------------------14-----|
|-7--7--7--10/12--10--12--10--9----------------------------------------|
|----------------------------------------------------------------------|


|------------------------------------------------|
|------------------------------------------------|
|-9--9--9--12/14--12--14--12--11~/12-12/14-14/16-|
|------------------------------------------------|
|-7--7--7--10/12--10--12--10--9~~/10-10/12-12/14-|
|------------------------------------------------|


-------------------------------------|
-----------------------------14-12~~-|
----12-14-14b-12----------12-14-12~~-|
/14--------------14-12-14------------|
-------------------------------------|
-------------------------------------|

Distorted
|--------------------------------------------------------------------|
|--------------------------------------------------------------------|
|--------------------------------------------------------------------|
|--------5p0------------------5-------------5p0----------------------|
|----/7-------7~~---7-------5----7~~----/7-------7~~-----7------4--2-|
|-0--------------0-----0--5----------0----------------0-----0h5----3-|


|--------------------------------------------------------------------|
|--------------------------------------------------------------------|
|--------------------------------------------------------------------|
|--------5p0------------------5-------------5p0----------------------|
|----/7-------7~~---7-------5----7~~----/7-------7/5-----5-----5-----|
|-0--------------0-----0--5----------0----------------3----3-2---2-0-|

Clean
|--------------------------------------------------------------------|
|--------------------------------------------------------------------|
|--------------------------------------------------------------------|
|--------5p0------------------5-------------5p0----------------------|
|----/7-------7~~---7-------5----7~~----/7-------7~~-----7------4--2-|
|-0--------------0-----0--5----------0----------------0-----0h5----3-|


|--------------------------------------------------------------------|
|--------------------------------------------------------------------|
|--------------------------------------------------------------------|
|--------5p0------------------5-------------5h7--7b------------------|
|----/7-------7~~---7-------5----7~~----/7--------------5-----5------|
|-0--------------0-----0--5----------0---------------3----3-2---2-0--|


|--------------------------------------------------------------------|
|--------------------------------------------------------------------|
|--------------------------------------------------------------------|
|--------5p0------------------5-------------5p0----------------------|
|----/7-------7~~---7-------5----7~~----/7-------7~~-----7------4--2-|
|-0--------------0-----0--5----------0----------------0-----0h5----3-|


|------------------------------------------------------------------------|
|------------------------------------------------------------------------|
|------------------------------------------------------------------------|
|--------5p0------------------5-------------5p0---------------5--7b--5~~-|
|----/7-------7~~---7-------5----7~~----/7-------5~~-----5h7-------------|
|-0--------------0-----0--5----------0----------------0------------------|


|--------------------------------------------------------------------|
|--------------------------------------------------------------------|
|--------------------------------------------------------------------|
|--------5p0------------------5-------------5p0----------------------|
|----/7-------7~~---7-------5----7~~----/7-------7~~-----7------4--2-|
|-0--------------0-----0--5----------0----------------0-----0h5----3-|


|--------------------------------------------------------------------|
|--------------------------------------------------------------------|
|--------------------------------------------------------------------|
|--------5p0------------------5-------------5p0----------------------|
|----/7-------7~~---7-------5----7~~----/7-------7/5-----5-----5-----|
|-0--------------0-----0--5----------0----------------3----3-2---2-0-|

12.NOTHING ELSE MATTERS

Intro -
----------0--------|-----------0--------|-----------0--------|
-------0-----0-----|--------0-----0-----|--------0-----0-----|
----0-----------0--|-----0-----------0--|-----0-----------0--|
-------------------|--------------------|--------------------|
-------------------|--------------------|--------------------|
-0-----------------|--0-----------------|--0-----------------|

----------0-----7--|--7--------7p0--------|--------7--8--7h8/5--|--7--5/2-----|
-------0-----0-----|-----0-----0----0-----|--0-----0--0---------|----------5--|
----0--------------|--------0----------0--|-----0---------------|-------------|
-------------------|----------------------|---------------------|-------------|
-------------------|----------------------|---------------------|-------------|
-0-----------------|--0-------------------|--0------------------|-------------|

----------2p0--------|-----------0--0--0--|--0--------------3p0--------0--|
-5-----5-------5-----|--------5-----5--5--|--5--------5----------5-----5--|
----5-------------5--|-----5--------5--5--|--5-----5-----5----------5--5--|
---------------------|--------------------|-------------------------------|
-0-------------------|--0-----------0--2--|--3--3----------------------3--|
---------------------|--------------------|-------------------------------|

----------------0h5p0------------|---------------12^--------|
-7--------7------------7p0--0h5--|-----12^--12^-------0-----|
-7-----7-----7-------------------|-----12^---------------0--| ^ = harmonic
---------------------------------|--------------------------|
-5--5----------------------------|--------------------------|
---------------------------------|--0-----------------------|

----------0--------|-----------0--------|-----------0--------|
-------0-----0-----|--------0-----0-----|--------0-----0-----|
----0-----------0--|-----0-----------0--|-----0-----------0--|
-------------------|--------------------|--------------------|
-------------------|--------------------|--------------------|
-0-----------------|--0-----------------|--0-----------------|

-----------7--|--------------------|--------------7--|-------------------|
-----------8--|--------7--------5--|--------------8--|-------7--------5--|
---------9----|--------7--------5--|-----------9-----|-------7--------5--|
-------9------|-----7--------5-----|--------9--------|----7--------5-----|
-----7--------|--5--------3--------|-----7-----------|-5--------3--------|
-0------------|--------------------|--0--------------|-------------------|

-------------7--|--------------------|--------------------|
-------------8--|--------7--------5--|--------3--------4--|
----------9-----|--------7--------5--|--------4--------2--|
-------9--------|-----7--------5-----|-----5--------4-----|
----7-----------|--5--------3--------|-----------2--------|
-0--------------|--------------------|--3-----------------|

----------0--------|-----------0--------|-----------0--------|--12^--|
-------0-----0-----|--------0-----0-----|--------0-----0-----|--12^--|
----0-----------0--|-----0-----------0--|-----0-----------0--|--12^--|
-------------------|--------------------|--------------------|-------|
-------------------|--------------------|--------------------|-------|
-0-----------------|--0-----------------|--0-----------------|-------|


Verse -
----------3-----0--------|--2-----3--------0--------------|
-------0-----------0-----|-----------3--------3-----------|
----0--------0--------0--|--------------0--------0--------|
-------------------------|--0--0--------------------------|
-------------------------|-----------------3--------------|
-0-----------------------|--------------------------3--2--|

----------3-----0--------|--2-----------------------------|
-------0-----------0-----|--------3-------3-----3---------|
----0--------0--------0--|-----------2p0-----0------------|
-------------------------|--0--0--------------------------|
-------------------------|----------------3---------------|
-0-----------------------|--------------------------3--2--|

----------3-----0--------|--2-----3--------3--------|--------3--2-----2-----|
-------0-----------0-----|-----------3--------3-----|--------3--0--------0--|
----0--------0--------0--|--------------0--------0--|-----0-----2-----------|
-------------------------|--0--0--------------------|-----------------------|
-------------------------|-----------------3--------|-----------2--2--------|
-0-----------------------|--------------------------|--3--------------------|

-0--------0--------|-----------0-----------|
-------0-----0-----|--------0-----0--------|
----0-----------0--|-----0-----------------|
-------------------|-----------------------|
-------------------|-----------------------|
-0-----------------|--0--------------3--2--|


Chorus -
-0-------|--2---2-2-2-3-2--0--2--|--0-------|--2---2-2-2-3-2--0--2--|
-1----2--|--3---3-3-3-3-3--3--3--|--1----2--|--3---3-3-3-3-3--3--3--|
-0----2--|--2---2-2-2-2-2--2--2--|--0----2--|--2---2-2-2-2-2--2--2--|
-2----2--|--0---0-0-0-0-0--0--0--|--2----2--|--0---0-0-0-0-0--0--0--|
-3----0--|-----------------------|--3----0--|-----------------------|
---------|-----------------------|----------|-----------------------|

-0-------|--2--2-2-2--|---0---|
-1----2--|--3--3-3-3--|---0---|
-0----2--|--2--2-2-2--|---0---|
-2----2--|--0--0-0-0--|---2---|
-3----0--|------------|---2---|
---------|------------|---0---|


Solo I �

Guitar I -
-12--------14------|--15--------17------|--8--------8--------|
-----12--------12--|------12--------12--|-----5--------5-----|
-------------------|--------------------|--------5--------5--|
-------------------|--------------------|--------------------|
-------------------|--------------------|--------------------|
-------------------|--------------------|--------------------|

Guitar II -
-15--------17------|--19--------20------|--12----------------|
-----17--------17--|------17--------17--|------13------------|
-------------------|--------------------|--------------------|
-------------------|--------------------|--------------------|
-------------------|--------------------|--------------------|
-------------------|--------------------|--------------------|

Guitar I -
-------8-----------|--0----------0------|--0----------0---------|
----5-----5--------|-----1----------1---|-----3----------3------|
-5-----------5\\----|--------0-----------|--------2-------------|
-------------------|--------------------|-----------------------|
-------------------|--------------------|-----------------------|
-------------------|--------------------|-----------------------|

Guitar II -
-------------------|--11/12-------------|--12/14-------------|
-------------------|---------13---------|----------15--------|
-------------------|-------------12-----|---------------14---|
-------------------|--------------------|--------------------|
-------------------|--------------------|--------------------|
-------------------|--------------------|--------------------|

Guitar I -
-0--7--------7--0--------|-----------0--|--12--------14------|
-------0-----------0-----|--------0-----|------12--------12--|
----------0-----------0--|-----0--------|--------------------|
-------------------------|--------------|--------------------|
-------------------------|--------------|--------------------|
-------------------------|--0-----------|--------------------|

Guitar II -
-----12------12----------|--------------|--15--------17------|
-12-------------12-------|--------------|------17--------17--|
-------------------------|--------------|--------------------|
-------------------------|--------------|--------------------|
-------------------------|--------------|--------------------|
-------------------------|--------------|--------------------|
Guitar I -
-15--------17------|--8--------8--------|--------8--------------|
-----12--------12--|-----5--------5-----|-----5-----5-----------|
-------------------|--------5--------5--|--5-----------5\\------|
-------------------|--------------------|-----------------------|
-------------------|--------------------|-----------------------|
-------------------|--------------------|-----------------------|

Guitar II -
-19--------20------|--12----------------|--------------------|
-----17--------17--|------13------------|--------------------|
-------------------|--------------------|--------------------|
-------------------|--------------------|--------------------|
-------------------|--------------------|--------------------|
-------------------|--------------------|--------------------|

Guitar -
-0-----------0-----|--0-----------0-----|--0-7--------7--0--------|
----1-----------1--|-----3-----------3--|-------0-----------0-----|
-------0-----------|--------2-----------|----------0-----------0--|
-------------------|--------------------|-------------------------|
-------------------|--------------------|-------------------------|
-------------------|--------------------|-------------------------|

Guitar II -
-11/12-------------|----------------------------|--------------------|
--------13---------|----------------------------|-----12-----12------|
------------12-----|-----12--12h14---12h14-14b--|--12----------------|
-------------------|----------------------------|----------------14--|
-------------------|----------------------------|--------------------|
-------------------|----------------------------|--------------------|

Guitar I -
-----------------0-----------------|------|
------------0---------0------------|------|
-------0---------------------------|------|
-----------------------------------|------|
-----------------------------------|------|
-0---------------------------------|------|

Guitar II -
-----------------------------------|------|
----15--15--15---------------------|------|
----14--14b-14r-12-------------12--|------|
--------------------14--12h14------|--14--|
-----------------------------------|------|
-----------------------------------|------|


Lead into solo -
----------------------------|
----------------------------|
----------------------------|
----------------------------|
-7--7----------2-2-2-2-2-2--|
-------0-0-0-0-0-0-0-0-0-0--|

Played Under Solo � (distorted)
----------------------|-------------------------------|
----------------------|-------------------------------|
------------9------9--|--7--------7--------5----------|
------------9------9--|--7--------7--------5----------|
--2---2/7---7------7--|--5--------5--------3----------|
--0-------------------|-------------------------3--2--|


Solo II � (distorted)
----------------------------------------------------------------------12--|
-15---------------------------------------------------------------12------|
-14b---14br-12---14-12----11h12p11------11---------12-14-12--14b----------|
------------------------------------14------12-14-------------------------|
--------------------------------------------------------------------------|
--------------------------------------------------------------------------|

----------12----------------------------------------------------14/15--------|
------12------15p12------12---------------------14--14--13-------------------|
-14b-----------------15------15-14----12br------14--14--13--12\\-------------|
--------------------------------------------14-------------------------------|
-----------------------------------------------------------------------------|
-----------------------------------------------------------------------------|

-14------15--14--15/17----15-14h15p14/12------15-14-----------------------|
-----12-----------------------------------12---------12--------------15---|
----------------------------------------------------------12-14-12---14b--|
--------------------------------------------------------------------------|
--------------------------------------------------------------------------|
--------------------------------------------------------------------------|

---------------------12--------------------|
-----------------12------15-15b-12----15b--|
-12------12-14b----------------------------|
-----14------------------------------------|
-------------------------------------------|
-------------------------------------------|

-------------------|-----------------------|
-12h15p12/-----7\\--|--5h7p5---------------|
-------------------|-----------------------|
-------------------|-----------------------|
-------------------|-----------------------|
-------------------|-----------------------|


Ending � repeat and fade out . . . .
-0--------0--------|-----------0-----7--|--7--------7p0--------|
-------0-----0-----|--------0-----0-----|-----0----------0-----|
----0-----------0--|-----0--------------|--------0----------0--|
-------------------|--------------------|----------------------|
-------------------|--------------------|----------------------|
-0-----------------|--0-----------------|--0-------------------|

-------7--8--7h8p7/5--|--7--5/3--0--|
-------0--0-----------|--0----------|
----0-----------------|-------------|
----------------------|-------------|
----------------------|-------------|
-0--------------------|-------------|

----------0--------|-----------0--------|
-------0-----0-----|--------0-----0-----|
----0-----------0--|-----0-----------0--|
-------------------|--------------------|
-------------------|--------------------|
-0-----------------|--0-----------------|

13.UNTIL IT SLEEPS

Intro (Bass arranged for guitar):
|------------------------------|
|------------------------------|
|------------------------------|
|------------------------------|
|------32----------32----------|
|-5-5------3---5-5------0--1/5-|
pm............................

Verse:
|-----0------------------0~-|
|-------3--1--0----------1~-|
|----------------2--0----2~-|
|---2--------------------2~-|
|-0----------------------0~-|
|---------------------------|


Chorus
|---------------------------------|
|---------------------------------|
|---------------------------------|
|---------------------------------|
|-7-7-7-7-7-7-7-7-5-5-5-5-3-3-3-3-|
|-5-5-5-5-5-5-5-5-3-3-3-3-1-1-1-1-|
pm...............................

Bridge:
|-----0-------------------------0--------------------|
|-------3--1--0-------------------3--1---------------|
|----------------2--0----------------------0-----0---|
|---2-------------------------2------------0-----3---|
|-0------------------------0---------------2-----3---|
|----------------------0-3--------------3------1-----|

Post-Chorus:
|---------------------------------------------|
|---------------------------------------------|
|---------------------------------------------|
|-9-9-9-9-9-9-9-7-7-7-7-5-5-5-5-5-5-5-5-5-7-7-|
|-7-7-7-7-7-7-7-5-5-5-5-3-3-3-3-3-3-3-3-3-5-5-|
|---------------------------------------------|

Solo:
|-/5-5-5-5-5-5-5-5-8-8-8-7-7-7-3-3--13b-13b--12p11-p9--11--------7p5-|
|----------------------------------------------------------5h6-8-----|
|--------------------------------------------------------------------|
|--------------------------------------------------------------------|
|--------------------------------------------------------------------|
|--------------------------------------------------------------------|

|-------1-1-1-0-3-3/8-8-8-7-7-7-2-2--13b-13b--12p11-p9--11-------7p5-|
|-3-3-3----------------------------------------------------5h6-8-----|
|--------------------------------------------------------------------|
|--------------------------------------------------------------------|
|--------------------------------------------------------------------|
|--------------------------------------------------------------------|

Each of these bars played over the verse riff played by the second guitar
|------------------------|
|-------5--6--8--10--12b-|
|------------------------|
|------------------------|
|-0-0--------------------|
|------------------------|

|-------------------------|
|-------5--6--8--10--11b--|
|-------------------------|
|-------------------------|
|-0-0---------------------|
|-------------------------|

|-----------------------------------------------|
|-------5--6--8--10--12--13--15--17--18--19--20-|
|-----------------------------------------------|
|-----------------------------------------------|
|-0-0-------------------------------------------|
|-----------------------------------------------|

Outro:
(Bass arranged for guitar):
|--------------------------|
|--------------------------|
|--------------------------|
|--------------------------|
|------32------------------|
|-5-5------3---5-5---1/3-1-|
pm........................
followed straight by
|--------5~-|
|--------5~-|
|--------x~-|
|--------x~-|
|---5----5~-|
|-5---5—-5~-|

14.FOR WHOM THE BELL TOLLS

gtr.1
|-------------------------------------|
|-------------------------------------|
|-------------------------------------|
|-4-4----4-4---2----------------------|         5x
|-4-4----4-4---2----------------------|
|-2-2----2-2---0----------------------|

|-----------------------|
|-----------------------|
|-----------------------|
|--4-4----2-------------|        8x
|--4-4----2-------------|
|--2-2----0-------------|

gtr2 does this  all 5 times with the first bit then does it only 4 times with the second bit.
(he does this right after the first gtr  but youll figure it out if you've heard it)
THIS PART HERE IS REALLY BASS BUT THIS IS IT TABBED OUT FOR GUITAR IF YOUR PLAYIN ALONE.
|---------------------------------------------|
|---------------------------------------------|
|---------------------------------------------|
|-12--11--10--9-------------12----------------|so that would make it  9x RIGHT?
|---------------------10--9-------------------|
|---------------------------------------10--9-|
gtr 2

Ok for this part you do the chord 5&7 in that bar the first time and for 2nd time you do it with
the 2&4 chord at the end of it instead of the 7&5.and the alternate
|---------------------------------------------------------|
|---------------------------------------------------------|
|---------------------------------------------------------|
|----------------------------------------------|---|-4----|
|--2--5--4--3--2--5--4--3--2--5--4--3--2--5--4-|-7-|-2----|
|--0--3--2--1--0--3--2--1--0--3--2--1--0--3--2-|-5-|------|

this part is the 1st guitar and it comes rite after the second guitar is done that last riff
so listen or yull miss it!!
gtr1
|---------------------------------------|
|---------------------------------------|
|---------------------------------------|
|-2-----5----2----5----9--7-------------|        2x letting it RING OUT
|-2-----5----2----5----9--7-------------|
|-0-----3----0----3----7--5-------------|


gtr2 plys this along with gtr 1
|----------------------------------------------------------------------------------------------|
|--8----7--------7-8-----7---------------------------------------------------------------------|
|-----9----7--9-------9-----7-9-------ok you play this monster 16x FAST along wit that last 1--|
|----------------------------------------------------------------------------------------------|
|----------------------------------------------------------------------------------------------|
|----------------------------------------------------------------------------------------------|

gtr 1
(this is the chorus too but for now u just play it through)
|-------------------------------------------------------|
|-------------------------------------------------------|
|---------------------------------------3---------------|
|---------5-----------7-----------5-----3----4----------|
|---------5-----------7-----------5-----1----4----------|
|---0-0-0-3-----0-0-0-5-----0-0-0-3----------2----------|

|---------------------------------------------|
|---------------------------------------------|
|------------------------------------3--------|
|---------5------7----------5--------3-4-3----|        ok alternate these ones 2x each
|---------5------7----------5--------1-4-3----|
|--0-0-0--3--0-0-5----0-0-0-3--0-0-0---2-1----|

Verse let ring out and each chord changes at the first of every line of lyrics
|-----------------------------|------------------------------------|
|-----------------------------|------------------------------------|
|-odd line of lyrics----------|2nd line,and 4th,8th you know-------|
|-2-----------------5---------|---2--------5-------10-----7--------|
|-2-----------------5---------|---2--------5-------10-----7--------|
|-0-----------------3---------|---0--------3-------8------5--------|
DO CHORUS,THEN,
this part is between the 1st and 2nd verse im workin on gtr 2 but this is
gtr1
|------------------------------------------------------------------------------------------------------|
|------------------------------------------------------------------------------------------------------|
|------------------------------------------------------------------------------------------------------|
|-2----2----2----5--5-5-5-5--5-5-5-2----9----2----2----2----5--5-5-5-5--5-5-5-2-----5------------------|
|-2----2----2----5--5-5-5-5--5-5-5-2----9----2----2----2----5--5-5-5-5--5-5-5-2-----5------------------|
|-0----0----0----3--3-3-3-3--3-3-3-0----7----0----0----0----3--3-3-3-3--3-3-3-0-----7------------------|
GO RIGHT INTO VERSE 2 AND THEN DO THE CHORUS AGAIN.THEN,

outro
|-----------------------------------------------------|
|-----------------------------------------------------|
|-----------------------------------------------------|
|-9----11--11------9----11---11---12---12-------------|
|-7-----9---9------7----9----9----10---10-------------|
|-0----------------0----------------------------------|

15.HUMAN

Tuning - Dropped D, 1/2 Step Down

Riff 1
Eb------------------------------------------------|
Bb------------------------------------------------|
Gb------------------------------------------------|
Db------------------------------------------------|
Ab----------------------------------------3-3-----|
Db--0-0-0/7--0-6--3-0-3b--0-0-0/7--6--0-2-3-3-----|

Riff 2					Riff 3
Eb-------------------------------------	Eb----------------------|
Bb-------------------------------------	Bb----------------------|
Gb-------------------------------------	Gb----------------------|
Db-------------------------------------	Db----------------------|
Ab--0---0---0---0---6--7--6--5---------	Ab--0---0--6--7--x--x---|
Db--0---0---0---0---6--7--6--5---------	Db--0---0--6--7--x--x---|

Riff 4					 Riff 5
Eb-------------------------------------- Eb-----------------------------|
Bb-------------------------------------- Bb-----------------------------|
Gb-------------------------------------- Gb----7---7---7----13/14\13\12-|
Db-------------------------------------- Db-----------------------------|
Ab--0--0--0--0--6--7--6--5--3--5--3--2-- Ab----5---5---5----11/12\11\10-|
Db--0--0--0--0--6--7--6--5--3--5--3--2-- Db--0---0---0----0-------------|

Riff 6						Chords
Eb---------------------------------------	Eb-----------------------|
Bb---------------------------------------	Bb-----------------------|
Gb----7---7---13/14\13\12-10/12\10\9-----	Gb--------------------7--|
Db---------------------------------------	Db-----------------------|
Ab----5---5---11/12\11\10--8/10\8-\7-----	Ab--0---3---5------7--5--|
Db--0---0---0----------------------------	Db--0---3---5--7-7-7-----|
						    D5  F5  G5 A   A5 D5
Riff 7					Riff 7A
Eb---------------------------------------------------|
Bb---------------------------------------------------|
Gb---------------------------------------------------|
Db--0---0---0---3---3---3---5---5---5----------------|
Ab--0---0---0---3---3---3---5---5---5-------7------7-|
Db--0---0---0---3---3---3---5---5---5---7-7-7--7-7-7-|

Solo 1
Eb--19-19-19-19-19-19--19-19-19-19-18-18-18-18--18-18-18-19-19-19--|
Bb--17-17-17-17-17-17--17-17-17-17-16-16-16-16--16-16-16-17-17-17--|
Gb-----------------------------------------------------------------|
Db-----------------------------------------------------------------|
Ab-----------------------------------------------------------------|
Db-----------------------------------------------------------------|

Eb--19-21-21-22-21-19---19-19-19-19-19-19-19-18-18-18-18-15-15-15-15-|
Bb--17-19-19-20-19-17---17-17-17-17-17-17-17-16-16-16-16-13-13-13-13-|
Gb-------------------------------------------------------------------|
Db-------------------------------------------------------------------|
Ab-------------------------------------------------------------------|
Db-------------------------------------------------------------------|

Solo 2
Eb--17/20--20--17/20--20-17-20-22-20-17-17\15-15--|
Bb--15/18--18--15/18--18-15-18-20-18-15-15-13-13--|
Gb------------------------------------------------|
Db------------------------------------------------|
Ab------------------------------------------------|
Db------------------------------------------------|

Solo 3
Eb---------------------------------13----------17-----16-13----13----------17-|
Bb---------------------------13-15----15-15-15-----15-------15----15-15-15----|
Gb--10-----------10-10-12-14--------------------------------------------------|
Db--10--10-12-12--------------------------------------------------------------|
Ab----------------------------------------------------------------------------|
Db----------------------------------------------------------------------------|

Eb--16-------13-13-------------------------------------------------------------|
Bb-----15-17-------------------------------------------------------------------|
Gb---------------------------------7-7-7-7-7-7---4b-4--------------------------|
Db-----------------0-5-4-3-2.6-2.6-------------0------0--0-0-0-0-5-5-5-5-5-5-5-|
Ab-----------------------------------------------------------------------------|
Db-----------------------------------------------------------------------------|

Eb-------------------/-/---------------------------------------|
Bb-------------------/-/---------------------------------------|
Gb-------------------/-/------13p12---13p12---13p12-13p12-12b--|
Db--4-4-4-3-2.6-2.6--2-0--4b--------0-------0------------------|
Ab-------------------/-/---------------------------------------|
Db-------------------/-/---------------------------------------|

16.WHEREVER I MAY ROAM

STANDARD TUNING

(INTRO) (SYNTHIZIZED GUITAR 1)(SITAR ARR.)(2x)


E|------------------------------------------------------------------|
B|---------5---5/6---5-----------8---8/10---6---5-------5---5/6---5-|
G|------------------------------------------------------------------|
D|---------2---2/3---2-----------5---5/7----3---2-------2---2/3---2-|
A|------------------------------------------------------------------|
E|---0---------------------0----------------------------------------|

THEN YOU PLAY THIS ONCE...


E|---------------------------------------------------|
B|---------5---5/6---5-----------8---8/10---10/6---5-|
G|---------------------------------------------------|
D|---------2---2/3---2-----------5---5/7----7-/3---2-|
A|---------------------------------------------------|
E|---0---------------------0-----------------------0-|


(INTRO) (GUITAR 2)(PLAYED SIMALTAINIOUSLY WITH GUITAR 1)(2x)

E--------------------------------------------------------|
B--------------------------------------------------------|
G---7---7h8---7~~~---12---12h13---8~---7~~~7---7h8---7~~~|
D--------------------------------------------------------|
A--------------------------------------------------------|
E--------------------------------------------------------|

(RIFF A) (BOTH GUITARS) (2x)

In this riff you can add the strings in
the optional indications to give the chord extra power.
It sounds more accurate to the way METALLICA plays it.
You can also add vibrato to give a cool sound.)

E|-------------------------------------------------------------------------------------------|
B|-------------------------------------------------------------------------------------------|
G|-------------------------------------------------7---7/9-----------------------------------|
D|--------------------------9---9/10---9-----------5---5/7---10---9----------9---9/10---9----|
A|----2---------------------7---7/8----7---------------------8----7----------7---7/8----7----|
E|----0--------------------(0)--------(0)-------------------------0---------(0)--------(0)---|

THEN...

E|----------------------|
B|----------------------|
G|----------------------|
D|---7---8---9---10\\---|
A|---7---8---9---10\\---|
E|---5---6---7---8-\\---|


(MAIN RIFF) (BOTH GUITARS)


E|------------------------------------------------------------------------------------|
B|------------------------------------------------------------------------------------|
G|------------------------------7---7/9-----------------------------------------------|
D|---------9---9/10---9---------5---5/7---10~---9-----9---9/10---9-----7---8---9---10-|
A|---2-----7---7/8----7---7---------------8-~---7-----7---7/8----7-----7---8---9---10-|
E|---0--------------------0---------------------0----------------------5---6---7---8--|

E|------------------------------------------------------------------------------------|
B|------------------------------------------------------------------------------------|
G|------------------------------7---7/9-----------------------------------------------|
D|---------9---9/10---9---------5---5/7---10~---9-----9---9/10---9-----7---8---9---10-|
A|---2-----7---7/8----7---7---------------8-~---7-----7---7/8----7-----7---8---9---10-|
E|---0--------------------0---------------------0----------------------5---6---7---8--|

E|------------------------------------------------------------------------------------|
B|------------------------------------------------------------------------------------|
G|------------------------------7---7/9-----------------------------------------------|
D|-------------9/10---9---------5---5/7---10~---9-----9---9/10---9-----7---8---9---10-|
A|---5-6-7-8---7/8----7---7---------------8-~---7-----7---7/8----7-----7---8---9---10-|
E|------------------------0---------------------0----------------------5---6---7---8--|

THEN YOU PLAY THIS...


E|------------------------------------------------------------------------------|
B|------------------------------------------------------------------------------|
G|----------------------------------------------------------------------------0-|
D|-------------2----------------------------3-----------------------------2-----|
A|---5-6-7-8---2------------------------3-----------------------------2---------|
E|-------------0--------------------1-----------------------------0-------------|


E|-----------------------------------------------|
B|-----------------------------------------------|
G|-----------------------------------------------|
D|---------------------------3-------------------|
A|-----------------------3-----------------------|
E|-------------------1---------------------------|

(VERSE 1) (GUITAR 1)(MEASURE 1)

E|----------------------------------------------------------------------------------------------|
B|----------------------------------------------------------------------------------------------|
G|---------------------------------------------------(2)----------------------------------------|
D|----------2--------------------8--------------------2--------------------8--------------------|
A|--/12-----2--------------------8--------------------0--------------------8--------------------|
E|--/10-----0--------------------6-----------------------------------------6--------------------|

(MEASURE 2)

E|---------------------------------------------------------------------------------------------|
B|---------------------------------------------------------------------------------------------|
G|--------------------------------------------------(2)----------------------------------------|
D|---------2--------------------8--------------------2--------------------8--------------------|
A|---------2--------------------8--------------------0--------------------8--------------------|
E|---0---0-0--------------------6-----------------------------------------6--------------------|


(VERSE 1) (GUTIAR 2)(Once guitar 1 plays measure 1,
then guitar 2 comes in with this clean riff over guitar 1 measure 2)

E|---------------0-----------|
B|---------------------0-----|
G|---------------------------|	2x
D|---------------------------|
A|---------2-----------------|
E|---0-----------------------|

E|---------------------------|
B|---------------3-----------|
G|---------------------3-----|	2x
D|---------3-----------------|
A|---1-----------------------|
E|---------------------------|

E|---------------------------|
B|---------------3-----------|
G|---------------------3-----|	2x
D|---------------------------|
A|---------1-----------------|
E|---3-----------------------|

E|---------------------------|
B|------------------3--------|
G|-------------------------3-|	2x
D|------------3--------------|
A|---1-----------------------|
E|---------------------------|


(PRE-CHORUS)

E|-----------------------------------------------------------------------------------|
B|-----------------------------------------------------------------------------------|
G|------------------------------------------------7---7/9----------------------------|
D|---3---3---4---5-------------9---10---9---------5---5/7---10~---9-----9---9/10---9-|
A|---1---1---2---3---5-6-7-8---7---8----7---7---------------8-~---7-----7---7/8----7-|
E|------------------------------------------0---------------------0------------------|

(CHORUS)

E|---------------------------------------------------------------------------------------|
B|---------------------------------------------------------------------------------------|
G|---------------------------------------------------------------------------------------|
D|---7---8---9---10----3---3-3-----3-----3---2h3---2----2---2-2-----2-----2---2h3---2----|
A|---7---8---9---10----3---3-3-----3-----3--------------2---2-2-----2-----2--------------|
E|---5---6---7---8-----1---1-1-1—1-1-1-1-1--------------0---0-0-0-0-0-0-0-0--------------|

E|-----------------------------------|
B|-----------------------------------|
G|---3---3-3-----3-----3-------------|
D|---3---3-3-----3-----3---2h3---2---|
A|---1---1-1-1-1-1-1-1-1-------------|
E|-----------------------------------|


(BRIDGE)

E|-------------------------|
B|-------------------------|
G|-------------------------|
D|---2----------5----------|
A|---0----------5----------|
E|--------------3----------|


E|------------------------------------------------------------------------------------|
B|------------------------------------------------------------------------------------|
G|------------------------------7---7/9-----------------------------------------------|
D|---------9---9/10---9---------5---5/7---10~---9-----9---9/10---9-----7---8---9---10-|
A|---2-----7---7/8----7---7---------------8-~---7-----7---7/8----7-----7---8---9---10-|
E|---0--------------------0---------------------0----------------------5---6---7---8--|


E|------------------------------------------------------------------------------------|
B|------------------------------------------------------------------------------------|
G|------------------------------7---7/9-----------------------------------------------|
D|---------9---9/10---9---------5---5/7---10~---9-----9---9/10---9-----7---8---9---10-|
A|---2-----7---7/8----7---7---------------8-~---7-----7---7/8----7-----7---8---9---10-|
E|---0--------------------0---------------------0----------------------5---6---7---8--|


E|-----------------------------------------------------------------------------------|
B|-----------------------------------------------------------------------------------|
G|-----------------------------------------------------------------------------------|
D|-------------2----------------------------3----------------------------------------|
A|---5-6-7-8---2------------------------3--------------------------------------------|
E|-------------0--------------------1------------------------------------------------|

(VERSE 2) (GUITAR 1)(MEASURE 1)


E|----------------------------------------------------------------------------------------------|
B|----------------------------------------------------------------------------------------------|
G|---------------------------------------------------(2)----------------------------------------|
D|----------2--------------------8--------------------2--------------------8--------------------|
A|--/12-----2--------------------8--------------------0--------------------8--------------------|
E|--/10-----0--------------------6-----------------------------------------6--------------------|

(MEASURE 2)

E|---------------------------------------------------------------------------------------------|
B|---------------------------------------------------------------------------------------------|
G|--------------------------------------------------(2)----------------------------------------|
D|---------2--------------------8--------------------2--------------------8--------------------|
A|---------2--------------------8--------------------0--------------------8--------------------|
E|---0---0-0--------------------6-----------------------------------------6--------------------|


(VERSE 2) (GUTIAR 2)
(Just do the same thing as you did in verse 1)

E|---------------0-----------|
B|---------------------0-----|
G|---------------------------|	2x
D|---------------------------|
A|---------2-----------------|
E|---0-----------------------|

E|---------------------------|
B|---------------3-----------|
G|---------------------3-----|	2x
D|---------3-----------------|
A|---1-----------------------|
E|---------------------------|

E|---------------------------|
B|---------------3-----------|
G|---------------------3-----|	2x
D|---------------------------|
A|---------1-----------------|
E|---3-----------------------|

E|---------------------------|
B|------------------3--------|
G|-------------------------3-|	2x
D|------------3--------------|
A|---1-----------------------|
E|---------------------------|

(PRE-CHORUS)
E|-----------------------------------------------------------------------------------|
B|-----------------------------------------------------------------------------------|
G|------------------------------------------------7---7/9----------------------------|
D|---3---3---4---5-------------9---10---9---------5---5/7---10~---9-----9---9/10---9-|
A|---1---1---2---3---5-6-7-8---7---8----7---7---------------8-~---7-----7---7/8----7-|
E|------------------------------------------0---------------------0------------------|

(CHORUS)

E|------------------------------------------------------------------------------------|
B|------------------------------------------------------------------------------------|
G|------------------------------------------------------------------------------------|
D|---7---8---9---10----3---3-3-----3-----3---2h3---2----2---2-2-----2-----2---2h3---2-|
A|---7---8---9---10----3---3-3-----3-----3--------------2---2-2-----2-----2-----------|
E|---5---6---7---8-----1---1-1-1—1-1-1-1-1--------------0---0-0-0-0-0-0-0-0-----------|

E|-----------------------------------|
B|-----------------------------------|
G|---3---3-3-----3-----3-------------|
D|---3---3-3-----3-----3---2h3---2---|
A|---1---1-1-1-1-1-1-1-1-------------|
E|-----------------------------------|


(BRIDGE)

E|-------------------------|
B|-------------------------|
G|-------------------------|
D|---2----------5----------|
A|---0----------5----------|
E|--------------3----------|


(SOLO 1) (WELL, IT ISN'T MUCH OF A SOLO, BUT WHO CARES)(GUITAR 1)


E|-------------------------------------|
B|-------------------------------------|
G|----------------------------------9~~|
D|---------------------6h7-6~~-9h10----|
A|---2-----/7---7h8-7~~----------------|
E|---0---------------------------------|


E|----------------------------------------------|
B|----------------------------------------------|
G|----------------------------8-9---11/12---8~~~|
D|-------------------6-7-9-10-------------------|
A|---2-----------7-8----------------------------|
E|---0-----0-0----------------------------------|

(GUITARS 1&2)


E|------------------------------------------|
B|--------------------------------------8---|
G|-----------------------4-5-4---8-9----9---|
D|---------------6-7-6---6-7-6---9-10-------|
A|---2---2-------7-8-7----------------------|
E|---0---0---0------------------------------|

E|----------------------------------------------------|
B|----------------------------------7-8---10-12---7~~~|
G|---------------------4-5---8-9----8-9---11-12---8~~~|
D|---------------6-7---6-7---9-10---------------------|
A|---2---2-------7-8----------------------------------|
E|---0---0---0----------------------------------------|

(CHORUS)


E|------------------------------------------------------------------|
B|------------------------------------------------------------------|
G|------------------------------------------------------------------|
D|---3---3-3-----3-----3---2h3---2----2---2-2-----2-----2---2h3---2-|
A|---3---3-3-----3-----3--------------2---2-2-----2-----2-----------|
E|---1---1-1-1—1-1-1-1-1--------------0---0-0-0-0-0-0-0-0-----------|

E|-----------------------------------|
B|-----------------------------------|
G|---3---3-3-----3-----3-------------|
D|---3---3-3-----3-----3---2h3---2---|
A|---1---1-1-1-1-1-1-1-1-------------|
E|-----------------------------------|


(BRIDGE)

E|-------------------------|
B|-------------------------|
G|-------------------------|
D|---2----------5----------|
A|---0----------5----------|
E|--------------3----------|


(FINAL BRIDGE)

E|-----------------------------------------------3--1---|
B|-----------------------------------------------0--1---|
G|-------------------------5-----3------3-----1--0--2---|
D|---2----------5----------5-----3------3-----2--0--3---|
A|---0----------5----------3-----1------1-----2--2--3---|
E|--------------3----------3------------1-----0--3--1---|

17.THE OUTLAW TORN

Tunning:
Eb Ab Db Gb Bb eb

The whole time there are delay-effects.

Intro Riff:
===========
With wah
|--------------------------------|
|--------------------------------|
|-10~\---------------------------|
|-10~\-10-10--10-10--10-10--10---|
|-8~~\-8--8---8--8---8--8---8----|
|------0--0---0--0---0--0---0----|
|      PM......................	 |
|				 | 6 Times
|				 |
|--------------------------------|
|--------------------------------|
|-10~\---------------------------|
|-10~\-10-10--10-10--10-10--10---|
|-8~~\-7--7---7--7---7--7---7----|
|------0--0---0--0---0--0---0----|
       PM.....................
Then

Both guitars
With Wah
|-------------------------|
|-------------------------|
|-10-10-10-10-10-10-10-10-|
|-10-10-10-10-10-10-10-10-|
|-8--8--8--8--8--8--8--8--|
|-------------------------|

Then


Chorus riff:
============
with Heavy distortion
 (D5)/E5        (D5)/E5         G5\F#5 B5    G5\F#5 B5    G5\F#5/G5 B5
|----------------------------------------------------------------------------|
|----------------------------------------------------------------------------|
|----------------------------------------------------------------------------|
|----------------------------------------------------------------------------|
|-(7)/9~-X-9--X----9--(7)/9~-X-9--X-9--12\11--------12\11---------11/12/11---|
|-(5)/7~-X-7--X----7--(5)/7~-X-7--X-7--10\9--12~-12-10\9--12~-12--9-/10/9----|
|-----0--X-0--X-(0)0---0--0--X-0--X-0--------10~-10-------10~-10----------10-|
|	 	 PM			    	  	  	             |
|								             | 4 Times
|						    		             |
|----------------------------------------------------------------------------|
|----------------------------------------------------------------------------|
|----------------------------------------------------------------------------|
|----------------------------------------------------------------------------|
|-(7)/9~-X-9--X----9--(7)/9~-X-9--X-9----------------------------------------|
|-(5)/7~-X-7--X----7--(5)/7~-X-7--X-7--10\9---------10\9----------9-/10/9----|
|-----0--X-0--X-(0)0---0--0--X-0--X-0--------10~-10-------10~-10----------12-|
                 PM


Then
 (D5)/E5
|-------------------------------|-|-|-|-|
|-------------------------------|-|-|-|-|
|-(7)/9~~~~~~~~~~~~~~~~~~~~-X\--|-|-|-|-|
|-(7)/9~~~~~~~~~~~~~~~~~~~~-X\--|-|-|-|-|
|-(5)/7~~~~~~~~~~~~~~~~~~~~-X\--|-|-|-|-|
|-------------------------------|-|-|-|-|


Verse 1:
========
And now I wait my whole lifetime
For You
And now I wait my whole lifetime
For You
 (D5)/E5
|-------------------------------|
|-------------------------------|
|-(7)/9~~~~~~~~~~~~~~~~~~~~-X\--|
|-(7)/9~~~~~~~~~~~~~~~~~~~~-X\--|
|-(5)/7~~~~~~~~~~~~~~~~~~~~-X\--|
|-------------------------------|


Verse 2:
========
I ride the dirt, I ride the tide
For you
I search the outside, search the inside
For you


Pre Chorus:
===========
A5/B5
|----------------------------------------|
|----------------------------------------|
|----------------------------------------|
|-7/9~~~~~~~~~~~~~~~~~~~~~~~~~~~~~~~~~---|
|-7/9~~~~~~~~~~~~~~~~~~~~~~~~~~~~~~~~~---|
|-5/7~~~~~~~~~~~~~~~~~~~~~~~~~~~~~~~~~---|
For you To take back what you left me

I know I'll always burn to be
The one who seeks so I may find
And now I wait my whole life-


Chorus: (The rythm changes sometimes but I'm too lazy to figur it out.)
=======
 (D5)/E5        (D5)/E5         G5\F#5 B5    G5\F#5 B5    G5\F#5/G5 B5
|----------------------------------------------------------------------------|
|----------------------------------------------------------------------------|
|----------------------------------------------------------------------------|
|----------------------------------------------------------------------------|
|-(7)/9~-X-9--X----9--(7)/9~-X-9--X-9--12\11--------12\11---------11/12/11---|
|-(5)/7~-X-7--X----7--(5)/7~-X-7--X-7--10\9--12~-12-10\9--12~-12--9-/10/9----|
|-----0--X-0--X-(0)0---0--0--X-0--X-0--------10~-10-------10~-10----------10-|
|	 	 PM			    	  	  	             |
|								             | 4Times
|						    		             |
|----------------------------------------------------------------------------|
|----------------------------------------------------------------------------|
|----------------------------------------------------------------------------|
|----------------------------------------------------------------------------|
|-(7)/9~-X-9--X----9--(7)/9~-X-9--X-9----------------------------------------|
|-(5)/7~-X-7--X----7--(5)/7~-X-7--X-7--10\9---------10\9----------9-/10/9----|
|-----0--X-0--X-(0)0---0--0--X-0--X-0--------10~-10-------10~-10----------12-|
                 PM
1. -time_________________________________			   Outlaw of
2. Torn__________________________________
3.								   Outlaw of
4. Torn 							   And I'm Torn


Verse 3:
========
So on I wait my whole lifetime
For You
So on I wait my whole lifetime
For You
 (D5)/E5
|-------------------------------|
|-------------------------------|
|-(7)/9~~~~~~~~~~~~~~~~~~~~~-\--|
|-(7)/9~~~~~~~~~~~~~~~~~~~~~-\--|
|-(5)/7~~~~~~~~~~~~~~~~~~~~~-\--|
|-------------------------------|

Verse 4:
=========
The more I search, the more my need
For you
The more I bless, the more I bleed
For You

Pre Chorus:
===========
A5/B5
|-----------------------------------------------------------------------------|
|-----------------------------------------------------------------------------|
|-----------------------------------------------------------------------------|
|-7/9~~~~~~~~~~~~~~~~~~~~~~~~~~~~~~~---7/9~~~~~~~~~~~~~~~~~~~~~~~~~~~~~~~~~---|
|-7/9~~~~~~~~~~~~~~~~~~~~~~~~~~~~~~~---7/9~~~~~~~~~~~~~~~~~~~~~~~~~~~~~~~~~---|
|-5/7~~~~~~~~~~~~~~~~~~~~~~~~~~~~~~~---5/7~~~~~~~~~~~~~~~~~~~~~~~~~~~~~~~~~---|
   You make me smash the clock and feel___     I'd rather die behind the wheel__

|------------------------------------------------------------------------------|
|------------------------------------------------------------------------------|
|------------------------------------------------------------------------------|
|-(9)\5/7------------------------------5/7~~~~~~~~~~~~~~~~~~~~~~~~~~~~~~~~~~~--|
|-(9)\5/7------------------------------5/7~~~~~~~~~~~~~~~~~~~~~~~~~~~~~~~~~~~--|
|-(7)\3/5~~~~~~~~~~~~~~~~~~~~~~~-------3/5~~~~~~~~~~~~~~~~~~~~~~~~~~~~~~~~~~~--|
_____       Time was never on my side_____ So on I wait my whole lifetime________


Chorus
======

Bridge:
=======
|---------------------------------------------------------------------|
|---------------------------------------------------------------------|
|-7/9~~~~~~~~-7/9~~~~~~-----------\-7~--7-7-----7~-7-7---7~-7-7-------|
|-7/9~~~~~~~~-7/9~~~~~~-----------\-7~--7-7-----7~-7-7---7~-7-7-------|
|-5/7~~~~~~~~-5/7~~~~~~-----------\-5~--5-5-----5~-5-5---5~-5-5-------|
|-0~~~~~~~~~~-0~~~~~~~~-----------------------------------------------|
  Hear me - And if close my mind in fear	Please pry it open

|---------------------------------------------------------------------|
|---------------------------------------------------------------------|
|-7/9~~~~~~~~-7/9~~~~~~-----------\-7~--7-7-----4~-4-4---4~-4-4-------|
|-7/9~~~~~~~~-7/9~~~~~~-----------\-7~--7-7-----4~-4-4---4~-4-4-------|
|-5/7~~~~~~~~-5/7~~~~~~-----------\-5~--5-5-----2~-2-2---2~-2-2-------|
|-0~~~~~~~~~~-0~~~~~~~~-----------------------------------------------|
  See me  - And if my face becomes sincere	Beware

|---------------------------------------------------------------------|
|---------------------------------------------------------------------|
|-7/9~~~~~~~~-7/9~~~~~~-----------\-7~--7-7-----7~-7-7---7~-7-7-------|
|-7/9~~~~~~~~-7/9~~~~~~-----------\-7~--7-7-----7~-7-7---7~-7-7-------|
|-5/7~~~~~~~~-5/7~~~~~~-----------\-5~--5-5-----5~-5-5---5~-5-5-------|
|-0~~~~~~~~~~-0~~~~~~~~-----------------------------------------------|
  Hold me - And when I start to come undone     Stitch me together

|---------------------------------------------------------------------|-----------------|
|---------------------------------------------------------------------|-----------------|
|-7/9~~~~~~~~-7/9~~~~~~-----------\-7~--7-7-----7~-7-7---7~-7-7-------|-/9~~~~~~~~~~~~~~|
|-7/9~~~~~~~~-7/9~~~~~~-----------\-7~--7-7-----7~-7-7---7~-7-7-------|-/9~~~~~~~~~~~~~~|
|-5/7~~~~~~~~-5/7~~~~~~-----------\-5~--5-5-----5~-5-5---5~-5-5-------|-/7~~~~~~~~~~~~~~|
|-0~~~~~~~~~~-0~~~~~~~~-----------------------------------------------|--0--------------|
  Save me - And when you see me strut		Remind me of what left this outlaw torn


Interlude:
|-------------------------------------------------------------------------------------|
|-------------------------------------------------------8-10b(12)-8-10b(12)-10b(12)~~-|
|-------0-3b(4)--0-----------0-3b(4)-0----------/9~~~~--------------------------------|
|-2~~~~------------2~~~\-2~~~----------2~~~~-\----------------------------------------|
|-------------------------------------------------------------------------------------|
|-------------------------------------------------------------------------------------|

|----------------------------------------------------------------------------------|
|--------8-10b(12)-8-10b(12)-10b(12)~~~--8-10b(12)-8-------8-10b(12)-8--10b(12)~~~-|
|-/9~~~~---------------------------------------------9-\-7-------------------------|
|----------------------------------------------------------------------------------|
|----------------------------------------------------------------------------------|
|----------------------------------------------------------------------------------|
|----------------------------------------------------------------------------------|

|------------------------------------------------------------------------------------------|
|------------------------------------------------------------------------------------------|
|------0-2~~-4-----------------0-2~~-4---------------------2-4-----4-2-------4-2--4-5~-7~~-|
|-2~~~---------0~-5-2~~~~--2~~~--------0~-5-2~~~~------0-0-----0-0-------------------------|
|--------------------------------------------------2~~----------------3b(5)r3--------------|
|------------------------------------------------------------------------------------------|
(In the Interlude and the first part of the outro you should use the volume-pedal or
just the volume-controller at the first an the last note. You should do it to emphasize
the notes in the middle. Listen to the song and you know what I mean.)


Solo: with Wah
====
The chorus-riff is played 4 times under the solo.
I know that the solo isn't perfectly figured out. But there so many effects
that solo is very difficult to figure out. I think there some notes that are
right.

 (D5)/E5        (D5)/E5         G5\F#5 B5    G5\F#5 B5    G5\F#5/G5 B5
|----------------------------------------------------------------------------|
|----------------------------------------------------------------------------|
|----------------------------------------------------------------------------|
|----------------------------------------------------------------------------|
|-(7)/9~-X-9--X----9--(7)/9~-X-9--X-9--12\11--------12\11---------11/12/11---|
|-(5)/7~-X-7--X----7--(5)/7~-X-7--X-7--10\9--12~-12-10\9--12~-12--9-/10/9----|
|-----0--X-0--X-(0)0---0--0--X-0--X-0--------10~-10-------10~-10----------10-|
|	 	 PM			    	  	  	             |
| (   Pick it as fast as you can     )					     |
|----------------------------------------------------------------------------|
|-12-12-12-12-12-12-12-12-12-12-12-12-12--12--12--12--12--12--12--12--12b~~~-|
|-12-12-12-12-12-12-12-12-12-12-12-12-11b-11b-11b-11b-11b-11b-11b-11b-12b~~~-|
|----------------------------------------------------------------------------|
|----------------------------------------------------------------------------|
|----------------------------------------------------------------------------|


 (D5)/E5        (D5)/E5         G5\F#5 B5    G5\F#5 B5    G5\F#5/G5 B5
|----------------------------------------------------------------------------|
|----------------------------------------------------------------------------|
|----------------------------------------------------------------------------|
|----------------------------------------------------------------------------|
|-(7)/9~-X-9--X----9--(7)/9~-X-9--X-9--12\11--------12\11---------11/12/11---|
|-(5)/7~-X-7--X----7--(5)/7~-X-7--X-7--10\9--12~-12-10\9--12~-12--9-/10/9----|
|-----0--X-0--X-(0)0---0--0--X-0--X-0--------10~-10-------10~-10----------10-|
|	 	 PM			    	  	  	             |
|									     |
|----------------------------------------------------------------------------|
|-15--15--15--15--15--15--15--15---------------------------------------------|
|-14b-14b-14b-14b-14b-14b-14b-14b---12-------12------------------------------|
|----------------------------------------14~-----14~--X-/14~-X-/14~-X-/14~---|
|----------------------------------------------------------------------------|
|----------------------------------------------------------------------------|

 (D5)/E5        (D5)/E5         G5\F#5 B5    G5\F#5 B5    G5\F#5/G5 B5
|----------------------------------------------------------------------------|
|----------------------------------------------------------------------------|
|----------------------------------------------------------------------------|
|----------------------------------------------------------------------------|
|-(7)/9~-X-9--X----9--(7)/9~-X-9--X-9--12\11--------12\11---------11/12/11---|
|-(5)/7~-X-7--X----7--(5)/7~-X-7--X-7--10\9--12~-12-10\9--12~-12--9-/10/9----|
|-----0--X-0--X-(0)0---0--0--X-0--X-0--------10~-10-------10~-10----------10-|
|	 	 PM			    	  	  	             |
|slide-echo-artificial-harmic-part: I'm tabbed it wrong ... If you don't like|
|my tab, just slide down in way						     |
|									     |
|-17\----<15>\---14\---<12>\------<10>\-----<9>\------<7>\-----x\-----0/22/--|
|----------------------------------------------------------------------------|
|----------------------------------------------------------------------------|
|----------------------------------------------------------------------------|
|----------------------------------------------------------------------------|
|----------------------------------------------------------------------------|

 (D5)/E5        (D5)/E5         G5\F#5 B5    G5\F#5 B5    G5\F#5/G5 B5
|----------------------------------------------------------------------------|
|----------------------------------------------------------------------------|
|----------------------------------------------------------------------------|
|----------------------------------------------------------------------------|
|-(7)/9~-X-9--X----9--(7)/9~-X-9--X-9--12\11--------12\11---------11/12/11---|
|-(5)/7~-X-7--X----7--(5)/7~-X-7--X-7--10\9--12~-12-10\9--12~-12--9-/10/9----|
|-----0--X-0--X-(0)0---0--0--X-0--X-0--------10~-10-------10~-10----------10-|
|	 	 PM			    	  	  	             |
|									     |
|--------------------------------/15~----/15~--/15-/15----/15-----/15-22b(24)|
|------------------------------------------------------17~----17~------------|
|-----12-14~~~-----12-14~~~--14~-----14~-------------------------------------|
|-/14-----------14-----------------------------------------------------------|
|----------------------------------------------------------------------------|
|----------------------------------------------------------------------------|
Bridge
======


Outro:
=======
|    Use the volume-controller again     | the other Guitar just strum down the E5
|----------------------------------------|------------------------------------------------|
|----------------------------------------|------------------------------------------------|
|-------0-3b(4)-0--------0-3b(4)~~~~~~~~-|-------------------------------------0-2-4-2-0--|
|-2~~~~-----------2~~~~~-----------------|----2--2--2---2-4-5-4-0----2--2--2--------------|
|----------------------------------------|---2--2--2--2-------------2--2--2--2------------|
|----------------------------------------|--0--0--0--0-------------0--0--0--0-------------|


|--------------------------------------------------------------------------|
|--------------------------------------------------------------------------|
|--------------------------------------0-2-4-2-0h2p0-----------------------|
|---2--2--2---2-4-5-4-0-----2--2--2---------------------2-2-2---2-4-5-4-0--|
|--2--2--2--2--------------2--2--2--2------------------2-2-2-2-------------|
|-0--0--0--0--------------0--0--0--0------------------0-0-0-0--------------|

|----------------------------------------------------------------------|
|----------------------------------------------------------------------|
|------------0-2-4-2-0-------------------------------------------------|
|---2-2-2-----------------2-2-2---2-4-5-4-0-----2-2-2---2-2h5-2-2h7\5~-|
|--2-2-2-2---------------2-2-2-2---------------2-2-2-2-----------------|
|-0-0-0-0---------------0-0-0-0---------------0-0-0-0------------------|


| This part is played two times  |
|--------------------------------|
|--------------------------------|
|------------------------0-4-2-0-|
|-2~-2-2-2-5-2--2~-2-2-2---------|
|-2~------------2~---------------|
|-0~------------0~---------------|

|---------------------------------------------------8-----8---8-|
|----------8---------10-12-10-8~----------8---------8-----8---8-|
|-/9-9-9-9---9~--9-9--------------9-9-9-9---9~--9-9---9-9---9---|
|---------------------------------------------------------------|
|---------------------------------------------------------------|
|---------------------------------------------------------------|

|-------------------------------------------------------------|
|-------------------------------------------------------------|
|-------------------------------------------------------------|
|---2-2-2--2-4-5-4-0----2-2-2--5p4p2-5/7~---2-2-2--2-4-5-4-0--|
|--2-2-2-2-------------2-2-2-2-------------2-2-2-2------------|
|-0-0-0-0-------------0-0-0-0-------------0-0-0-0-------------|

|----------------------------------------------------------------------------|
|----------------------------------------------------------------------------|
|---------------------------------------------------------3b(4)r3-3b(4)r3-0~-|
|---2-2-2--5h7-5h7-5h7-5h7~----2-2-2--2-4-5-4-0----2-2-2---------------------|
|--2-2-2-2--------------------2-2-2-2-------------2-2-2-2--------------------|
|-0-0-0-0--------------------0-0-0-0-------------0-0-0-0---------------------|

|-------------------------------------------------------------------------|
|-------------------------------------------------------------------------|
|------------------------------5h7-555-4h5-444-7\5~------------0-2-4-2-0~-|
|---2-2-2--2-4-5-4-0----2-2-2--------------------------2-2-2--------------|
|--2-2-2-2-------------2-2-2-2------------------------2-2-2-2-------------|
|-0-0-0-0-------------0-0-0-0------------------------0-0-0-0--------------|

|        This part is played two times           |
|------------------------------------------------|
|-12-12~-----------------------------------------|
|-12-12~-9---------------------------------------|
|----------12p9----------------------------------|
|--------------12p10~--------10-12b(14)r12b(14)~-|
|----------------------12-12---------------------|

|------------------8-----10\8------------------8-XX-12-XX-12-12-|
|---------8--------8-----10\8----------8-------8-XX-12-XX-12-12-|
|-9-9-9-9---9~-999---999-------9-9-9-9---9~-9-9-----------------|
|---------------------------------------------------------------|
|---------------------------------------------------------------|
|---------------------------------------------------------------|

|--------------------------------|
|--------------------------------|
|--------------------------------| Fade out
|---2-2-2--2-4-5-4-0~----2-2-2---|
|--2-2-2-2--------------2-2-2-2--|
|-0-0-0-0--------------0-0-0-0---|

18.SAD BUT TRUE

FIG 1                                 END FIG 1
|-------------|---------|---------------|-------------------------------------|
|-------------|---------|---------------|-------------------------------------|
|-2---2--2--2-|--3---3--|--2------------|-------------------------------------|
|-2---2--2--2-|--3---3--|--2---/7--6--5-|--3H5P3H5P3H5P3H5P3H5P3H5P3H5P3H5P3H5|
|-0---0--0--0-|--1---1--|--0------------|-------------------------------------|
|-------------|---------|---------------|-------------------------------------|

---------------------------------------------
PLAY FIG 1.
---------------------------------------------


FIG 2
|-----------------------------|
|-----------------------------|
|-----------------------------|
|--2----2--2------------------|
|--2----2--2--5P0--1P0--------|
|--0----0--0-------------3P0--|


|-----------------------|
|-----------------------|
|-----------------------|
|-2----2--2-------------|
|-2----2--2----5P0-5-5--|
|-0----0--0-------------|

VERSES 1,2 AND 3
|------------------------|-----------------------|
|------------------------|-----------------------|
|------------------------|--------------3--------|X 4 EACH TIME
|-2--2--2-2-2--0---2--2--|-2--2--2-2-2--3--2--2--|
|-2--2--2-2-2--0---2--2--|-2--2--2-2-2--1--2--2--|
|-0--0--0-0-0------0--0--|-0--0--0-0-0-----0--0--|


CHOURS
|---------------------------|--------------------------------|
|---------------------------|--------------------------------|
|---------------------------|--------------------------------|
|------3-3-0--3--2----------|------3---3--0------------------|
|------3-3-0--3--2----------|------3---3--0-----7---7--7--7--|
|-0-0---------------0--0--0-|-0-0------------0--5---5--5--5--|


|--------------------------------------|
|--------------------------------------|
|--------------------------------------|
|--------------------------------------|
|--7---7---8---8--5---7---5---5--5--5--|
|--5---5---6---6--3---5---3---3--3--3--|


|-------------------------------------|
|-------------------------------------|
|-------------------------------------|X 2
|---------5---5---5---5---------------|
|--5---5--3---3---3---3------3--3-----|
|--3---3-----------------0---1--1--0--|


REPEAT FIG 2 FIVE TIMES.THEN

|-----------------------|-----------------------------|
|-----------------------|-----------------------------|
|-----------------------|-----------------------------|
|-----------------------|-----------------------------|
|--2---2--2--5P0--5--5--|--2---2--2--------0H1P0------|
|--0---0--0-------------|--0---0--0--0--3----------3--|


|-------------------------|------------------------|-----------------------|
|-------------------------|------------------------|-----------------------|
|-------------------------|------------------------|-----------------------|
|--/7--6--5--2 ~~~~~~~~~~-|--/7--6--5--3 ~~~~~~~~~-|--/7--6--5--2 ~~~~~~~~-|
|-------------------------|------------------------|-----------------------|
|-------------------------|------------------------|-----------------------|


|------------------------|---------------------|---------------------------|
|---------------5--4--3--|------------5--4--3--|---------------------------|
|------------------------|--2------------------|--3---------------------2--|
|--/7--6--5--4-----------|---------------------|----------2--3-5-3-5-3-----|
|------------------------|---------------------|---------------------------|
|------------------------|---------------------|---------------------------|


|------------------|
|------------------|
|------------------|
|-2--3-5-3-5-2--3--|
|---------------1--|
|------------------|


solo 1

|-------------------------------------------------------------------|
|-2/12----------------------------------------------12--12--12------|
|-3/13----------------------------------------------12--12--12------|
|-----------------------------------14\-----12--14------------------|
|-------------------------------------------------------------------|
|-------------------------------------------------------------------|

|----------------------------------------------------------------|
|----------------12----------------------------------------------|
|----------------12----------------------------------------------|
|14------------------14--12------14-12-----------\-------12--14--|
|----------------------------14--**------------------14----------|
|----------------------------------------------------------------|

|----------------------------------------------------------------|
|12--------------------------------------------------------------|
|12------------------------------9p7p6---------------------------|
|----14--12------14----------------------9---7---9-----------\---|
|------------14--**------------------------------**--------------|
|----------------------------------------------------------------|

|----------------------------------------------------------------|
|----------------------------------------------------------------|
|4-h-5p4-----4---------------------------------------------------|
|--------7-------7---5---4-----------------------9---s---5---s---|
|----------------------------5---7-------------------------------|
|--------------------------------**------------------------------|

|--------------------------------------------------------------------------|
|----12--15p12-15p12----12 12-15p12----12h15p12--12h15p12------------------|
|14^-----------------14^-----------14^---------14--------14-12-------------|
|--------------------------------------------------------------14--14------|
|--------------------------------------------------------------------------|
|--------------------------------------------------------------------------|

|----------------------------------------------------------------|
|--------12------------------------------------------------------|
|--------12------14--12------------------------------------------|
|12-h14------14----------14--12----------------------------------|
|--------------------------------14--12-s10--12--10--------------|
|----------------------------------------------------------------|

|----------------------------------------------------------------|
|14^-r---14^-r-------------------14^-r-----------12--------------|
|14^-r---14^-r---14^r12--12--14--14^-r---12------12----------12--|
|----------------------14--------------------14----------14------|
|----------------------------------------------------------------|
|----------------------------------------------------------------|

|----------------------------------------------------------------|
|14^-r---12--14^-r---12--14^-r---12--14^-r-----------------------|
|14^-r---12--14^-r---12--14^-r---12--14^-r---12--14^-------------|
|------------------------------------------------------------12--|
|----------------------------------------------------------------|
|----------------------------------------------------------------|


|------------------------------------------------------------------------|
|------------------------------------------------12-12-13-12-13-15-15-15-|
|---------------------------12----12-14-12-14-14^------------------------|
|---------12----12-14-12-14----14----------------------------------------|
|14-12-14----14----------------------------------------------------------|
|------------------------------------------------------------------------|


|--12h15p12--12--12-12-15p12-12-12-12-12-12-15p12--------------------------|
|--------15-------------------------------------15p13--13-15p13----13--15--|
|----------------------------------------------------14--------14----------|
|--------------------------------------------------------------------------|
|--------------------------------------------------------------------------|
|--------------------------------------------------------------------------|

|-15------15----------|
|-15^-----15^---------|
|---------------------|
|---------------------|
|---------------------|
|---------------------|


solo 2

|----------------------------------------------------------------|
|----------------------------------------------------------------|
|----------------------------------------------------------------|
|2-------2-p-0---2-------2-p-0---2-------------------------------|
|----------------------------------------------------------------|
|----------------------------------------------------------------|


|-------0------------0-------------------------------------------|
|-----------3^-----------3---0-----------------------------------|
|2^------------------------------2^rp0---------------------------|
|----------------------------------------2-----------------------|
|----------------------------------------------------------------|
|----------------------------------------------------------------|

|----------------------------------------------------------------|
|----------------------------------------------------------------|
|4^------4^------4^------4^------4^--------------0---------------|
|-----Semi - harmonics-------------------------------2-----------|
|----------------------------------------------------------------|
|----------------------------------------------------------------|


|----------------------------------------------------------------|
|--------12--12--x---12--12------12--12--12--12--x---12--12--12--|
|--------12--12--x---12--12------12--12--12--12--x---12--12--12--|
|-/14------------------------14----------------------------------|
|----------------------------------------------------------------|
|----------------------------------------------------------------|


|--------12----------12------12----------------------------------|
|----12------15^---------15^-----15^-\---------------------------|
|14^-------------------------------------------------------------|
|----------------------------------------------------------------|
|----------------------------------------------------------------|
|----------------------------------------------------------------|

19.ONE

intro


   Bm             Gmaj7(no3rd)   Bm             Gmaj7(no3rd)
|--------------|--------------|--------------|-------------------|
|--------------|--------------|--------------|-------------------|
|--------------|--------------|--------------|----------------0--|
|-----4-----0--|-----4-----0--|-----4-----0--|-----4-----0-------|
|--2-----2-----|--------------|--2-----2-----|-------------------|
|--------------|--3-----3-----|--------------|--3-----3----------|

		 D/A            Gmaj7(no3rd)
|--------------|--------------|--------------|-------------------|
|--------------|--------------|--------------|-------------------|
|-(0)----------|--------------|--------------|-------------------|
|-----4-----0--|-----4-----0--|-----4-----0--|-------------------|
|--2-----2-----|--0-----0-----|--------------|-----2-----2-------|
|--------------|--------------|--3-----3-----|--0-----2----------|

   Bm              Gmaj7(no3rd)  Bm
|--------------|--------------|--------------|-------------------|
|--------------|--------------|--------------|-------------------|
|*-------------|--------------|--------------|--------------0----|
|*----4-----0--|-----4-----0--|-----4-----0--|-----4-----0-------|
|--2-----2-----|--------------|--2-----2-----|-------------------|
|--------------|--3-----3-----|--------------|--3-----3----------|

		  D/A            Gmaj7(no3rd) [1. N.C           ]
|--------------|--------------|--------------|-------------------|
|--------------|--------------|--------------|-------------------|
|--------------|--------------|--------------|------------------*|
|-----4-----0--|-----4-----0--|-----4-----0--|------------------*|
|--2-----2-----|--0-----0-----|--------------|-----2-----2-------|
|--------------|--------------|--3-----3-----|--0-----2----------|

 [2. N.C                    ] Bm                     Gmaj7(no3rd)
|---------------------------|----------------------|-----------------------|
|---------------------------|----------------------|-----------------------|
|---------------------------|----------------------|-----------------------|
|---------------------------|-----4-----0--0--4----|-----4-----0--4--4--0--|
|-----2-----2-----2--2h4--2-|--2-----2-----------0-|-----------------------|
|--0-----2-----0------------|----------------------|--3-----3--------------|

   Bm                     Gamj7                   Bm
|-----------------------|-----------------------|-----------------------|
|-----------------------|-----------------------|-----------------------|
|-----------------------|-----------------------|-----------------------|
|-----4-----0--0--4-----|-----4-----0--4--4--0--|-----4-----0--0--4--0--|
|--2-----2-----------0--|-----------------------|--2-----2--------------|
|-----------------------|--3-----3--------------|-----------------------|

  D/A                     Gamj7                   (Em)
|-----------------------|-----------------------|-------------------|
|-----------------------|-----------------------|-------------------|
|--------------------0--|-(0)-------------------|-------------------|
|-----4-----0--4--4-----|-----4-----0--0--4--0--|-----2h4--2--------|
|--0-----0--------------|-----------------------|----------------4--|
|-----------------------|--3-----3--------------|--0----------2-----|

  G5            A5        (D) Riff A              (G)
|-----------------------|-----------------------|------------------------|
|-----------------------|-----------------------|-----0h3p0----0h3p0-----|
|-----------------------|*--------0--7-----0----|------------4--------0--|
|---------0-------------|*-----7--------7-------|--5---------------------|
|-----5------------7----|---5-------------------|------------------------|
|--3---------3--5-------|-----------------------|------------------------|

  (F)              [1. (Em)            ]  [2.(Em) N.C end Riff A
|--------1--------|--------------0------|------------------|
|-----------1-----|-----------0-----0---|-----0------------|
|-----0--------0--|-----4--0-----------*|--------0--4------|
|--3--------------|--2-----------------*|--2---------------|
|-----------------|---------------------|-------------/3---|
|-----------------|---------------------|------------------|

solo:

  1       2       3  4    1       2   3       4          1        2  3  4
|-----------------------|------------------------------|--------------------|
|-----------------------|-----3p2-----3p2---------3----|-3p2----------------|
|---------2---4b6b4-----|---------4-------2------------|-----4--------------|
|-----2h4---------------|------------------------------|--------------------|
|-----------------------|------------------------------|--------------------|
|-----------------------|------------------------------|--------------------|

    1       2       3       4          1     2     3     4
|----------------------------------|----------------------------|
|-----7\5---5\4---4\2---2p0--------|------------------------2h3-|
|---------7-----------4-----0h2----|-2/4--------------2/4-------|
|----------------------------------|----------------------------|
|----------------------------------|----------------------------|
|----------------------------------|----------------------------|

    1   2    3        4         1     2     3     4       1     2
|---------------------------|-------------------------|-------------|
|-2-------------2---3p2-----|-------------------------|-------------|
|---------2/4-----------2---|-2/4---------------------|-------------|
|---------------------------|-------------------------|-------------|
|---------------------------|-------------------------|-------------|
|---------------------------|-------------------------|-------------|

    1     2     3         4       1           2      3     4
|-----------------}14---19----|-17-15-14-15--------------------|
|-----------------{x----------|-------------15-----------------|
|-----------------}x----------|--------------------------------|
|-----------------{x----------|--------------------------------|
|-----------------------------|--------------------------------|
|-----------------------------|--------------------------------|

    1       2     3       4          1       2          3      4
|--------------------------------|---------------------------------|
|--------------------------------|---------------------------------|
|-----7p6-7-----9p7-9-------11p9-|-11----11/12---12---11-----------|
|--------------------------------|---------------------------------|
|--------------------------------|---------------------------------|
|--------------------------------|---------------------------------|

    1         2          3           4            1          2
|---------------------------------------------|----------------12-----|
|----------------------------------12---------|----12-14---15---------|
|-----------11-12-14---------11-12------------|-11--------------------|
|--------12---------------12---------------12-|-----------------------|
|-----14---------------14---------------14----|-----------------------|
|---------------------------------------------|-----------------------|

    3         4           1         2      3     4
 -----------------------|------------------------------|
 ---15---14---12---14---|-14-----15-12-----------------|
 -----------------------|------------------------------|
 -----------------------|------------------------------|
 -----------------------|------------------------------|
 -----------------------|------------------------------|


Bm                   Gmaj7(no3rd)    Bm                      Gmaj7(no3rd)
  I can't remember   anything          can't tell if this is true or dream
Bm                   D/A             Gmaj7(no 3rd)           N.C.
  deep down inside I feel to scream    this terrible silence stops me
Bm                    Gmaj7(no3rd)   Bm                Gmaj7(no3rd)
  Now that the war is through with me, I'm waking up I can not see
Bm                      D/A          Gmaj7(no 3rd)           N.C.
  that there's not much lef to to me.   Nothing is real but pain now!

[Next comes the chorus.  Just power chords. ]

 G5   A5 B5     A5 G5 F#5  B5  A5
 Hold my breath as I  wish for death
 B5 C#5 B5 A5  (5th [A] string:)-3---4----5---
        Oh,please           God  wake me!


Bm                   Gmaj7(no3rd)    Bm                 Gmaj7(no3rd)
  Back in the womb it's much to real in pumps life that I must feel
Bm                     D/A             Gmaj7(no 3rd)           N.C.
But can't look forward to reveal         look to the time when I'll live
Bm                       Gmaj7(no3rd)   Bm                    Gmaj7(no3rd)
Fed thourgh the tube that sticks in me    just like a wartime novelty
Bm                      D/A           Gmaj7(no 3rd)            N.C.
  tied to machines that make me be         cut this life off   from me

 G5   A5 B5     A5 G5 F#5  B5  A5
 Hold my breath as I  wish for death
 B5 C#5 B5 A5  (5th [A] string:)-3---4----5---
        Oh,please           God  wake me!

[ classical solo ]
|----------------------------|----------------------|----------------------|
|-------------10p7-----7-----|-10-----10---8---7----|-7h8p7----------------|
|------------------7---------|--------------------9-|--------7-------------|
|----------------------------|----------------------|----------------------|
|-(5)------------------------|----------------------|----------------------|
|----------------------------|----------------------|----------------------|

|-/10-8-7-----7---8-|---------17p14-----14-|-17---17-15--14---15p14--------|
|---------10--------|-8~~~~~---------15----|-------------------------------|
|-------------------|----------------------|-------------------------------|
|-------------------|----------------------|-------------------------------|
|-------------------|----------------------|-------------------------------|
|-------------------|----------------------|-------------------------------|

|------------------15--17--|--19p17p15-19p17p15-19p17p15-14-15----14-------|
|-15------15--19-----------|-----------------------------------17----15----|
|--------------------------|-----------------------------------------------|
|--------------------------|-----------------------------------------------|
|--------------------------|-----------------------------------------------|
|--------------------------|-----------------------------------------------|

|------|-------------------------------|-----------------------------------|
|------|-/8---8--8\7-------------------|-/13----13---13---13---12----------|
|------|-/7---7--7----7----------------|-/12----12---12---12---12----------|
|------|-------------------------------|-----------------------------------|
|------|-------------------------------|-----------------------------------|
|------|-------------------------------|-----------------------------------|

    T          T          T          T          T          T
|---20p17p13---20p17p13---20p17p13---20p17p13---20p17p13---20p17p13--------|
|--------------------------------------------------------------------------|
|--------------------------------------------------------------------------|
|--------------------------------------------------------------------------|
|--------------------------------------------------------------------------|
|--------------------------------------------------------------------------|
[ T = tap using pick ]

    T             T
|---20p12h13p12---20p12h13p12-|
|-----------------------------|
|-----------------------------|
|-----------------------------|
|-----------------------------|
|-----------------------------|

G5  A5  B5    A5 G5   F#5 B5
Now the world is gone I'm just one.
A5 B5 C#5 B5 A5 B5 C#5
Oh God help me!

G5  -A5-B5    -A5-G5-F#5 -B5 -A5-B5-C#5-B5-A5-B5-C#5
Hold my breath as I  wish for death. Oh,please God wake

G5-A5-B5-A5-G5-F#5-B5
me!

  Am           G                B               C
-------------|----------------|-------------|------------|
-------------|----------------|-------------|------------|
-------------|----------------|-4-----4-----|---5-----5--|
--2--0--2--0-|-----5--5--5--5-|-4-----4-----|---5-----5--|
--3--2--3--0-|--2--5--5--5--5-|-2-----2-----|---3-----3--|
-------------|--3--3--3--3--3-|----2-----2--|------3-----|
                                              Play 4 times

  C/E                D                  B5            C5
-------------------|----------------|---------------|---------------------|
-------------------|----------------|---------------|---------------------|
-------------------|----------------|---4-----4-----|-5--5-5--------5-----|
--5--5--5--7--5----|-4--4--4--5--4\-|---4-----4-----|-5--5-5--5-----5-----|
--7--7--7--7--7--5-|-5--5--5--5--5\-|---2-----2-----|-3--3-3--3-----3-----|
-------------------|----------------|------2-----2--|------------3-----3--|
                                                                Play twice

---------------|-----------------|------------------------------------|
---------------|-----------------|------------------------------------|
---------------|-----------------|------------------------------------|
--5------(5)---|--------------2--|--------------2-(2)-------------2-3-|
--7------(7)---|--------------2--|--------------2-(2)-------------2-3-|
--0------(0)---|--0-0-0-0-0-0-0--|--0-0-0-0-0-0-------0-0-0-0-0-0-----|
		   Play 4 times                       Play 4 times

--------------------------------|-----------------------------------|
--------------------------------|-----------------------------------|
--------------------------------|-----------------------------------|
--------------------------------|------------------------------2-3--|
--------------2---------------2-|--------------2---------------2-3--|
--0-0-0-0-0-0-0---0-0-0-0-0-0-0-|--0-0-0-0-0-0-0---0-0-0-0-0-0------|
    Dark-ness     imprisoning me   all that I see  absolute  hor-ror
I can-not live I can-not die Trapped in my-self body my holdind cell!

------------------------------------|------------------------------------|
------------------------------------|------------------------------------|
------------------------------------|------------------------------------|
------------------------------------|------------------------------------|
--------------7-(7)-------------7-8-|-------------5-(5)-------------5/8--|
--0-0-0-0-0-0-------0-0-0-0-0-0-----|-0-0-0-0-0-0-------0-0-0-0-0-0------|

------------------------------------|------------------------------------|
------------------------------------|------------------------------------|
------------------------------------|------------------------------------|
------------------------------------|------------------------------------|
--------------7-(7)-------------7-8-|-------------5-(5)-------------5----|
--0-0-0-0-0-0-------0-0-0-0-0-0-----|-0-0-0-0-0-0-------0-0-0-0-0-0---7--|

---------------------------------|-----------------------------------|
---------------------------------|-----------------------------------|
---------------------------------|-----------------------------------|
---------------------------------|------------------------------2-3--|
--------------2---------------2--|--------------2---------------2-3--|
--0-0-0-0-0-0-0---0-0-0-0-0-0-0--|--0-0-0-0-0-0-0---0-0-0-0-0-0------|
  Land-mine    has taken my sight  taken my speech taken my  hear-ing
  Taken my   arms taken my   legs taken my soul left me with life in

Double-time
-----------------------------------------|
-----------------------------------------|
-----------------------------------------|
--------------2--------------2--------3--|
--------------2--------------2--------3--|
--0-0-0-0-0-0----0-0-0-0-0-0----0-0-0----|
hell!_____________


Riff C
  E5                                      F5
-------------------------|--------------------|
-------------------------|--------------------|
-------------------------|--------------------|
---------------2---------|--------2--------3--|
---------------2---------|--------2--------3--|
--0-0-0-0-0-0-----0-0-0--|--0-0-0----0-0-0----|

[  4 times ]


  T         T        T        T        T        T        T        T
E-19p15p12--19p15p12-19p15p12-19p15p12-19p15p12-19p15p12-19p15p12-19p15p12-|
B--------------------------------------------------------------------------|
G--------------------------------------------------------------------------|
D--------------------------------------------------------------------------|
A--------------------------------------------------------------------------|
E--------------------------------------------------------------------------|
[ T= Tap using pick; p = pull off ]

  T         T        T        T        T        T        T        T
E-20p15p12--20p15p12-20p15p12-20p15p12-20p15p12-20p15p12-20p15p12-20p15p12-|
B--------------------------------------------------------------------------|
G--------------------------------------------------------------------------|
D--------------------------------------------------------------------------|
A--------------------------------------------------------------------------|
E--------------------------------------------------------------------------|

  T         T        T        T        T        T        T        T
E--------------------------------------------------------------------------|
B-19p15p12--19p15p12-19p15p12-19p15p12-19p15p12-19p15p12-19p15p12-19p15p12-|
G--------------------------------------------------------------------------|
D--------------------------------------------------------------------------|
A--------------------------------------------------------------------------|
E--------------------------------------------------------------------------|

  T         T        T        T        T        T        T        T
E--------------------------------------------------------------------------|
B-20p15p12--20p15p12-20p15p12-20p15p12-20p15p12-20p15p12-20p15p12-20p15p12-|
G--------------------------------------------------------------------------|
D--------------------------------------------------------------------------|
A--------------------------------------------------------------------------|
E--------------------------------------------------------------------------|

  T         T        T        T        T        T        T        T
E--------------------------------------------------------------------------|
B-17p13p10--17p13p10-17p13p10-17p13p10-17p13p10-17p13p10-17p13p10-17p13p10-|
G--------------------------------------------------------------------------|
D--------------------------------------------------------------------------|
A--------------------------------------------------------------------------|
E--------------------------------------------------------------------------|

  T         T        T        T        T        T        T        T
E--------------------------------------------------------------------------|
B-18p13p10--18p13p10-18p13p10-18p13p10-18p13p10-18p13p10-18p13p10-18p13p10-|
G--------------------------------------------------------------------------|
D--------------------------------------------------------------------------|
A--------------------------------------------------------------------------|
E--------------------------------------------------------------------------|

  T        T     T     T     T     T      T     T    T    T    T    T
E---------------------------------------|----------------------------------|
B-17p12h14-17p12-17p10-17p12-17p10-17p8-|-17p10-17p8-17p7-17p8-17p7-17p5---|
G---------------------------------------|----------------------------------|
D---------------------------------------|----------------------------------|
A---------------------------------------|----------------------------------|
E---------------------------------------|----------------------------------|

E------------------------------14-14-14-|-15-15-15--17-17-17----------------|
B-/12-12-12--12-12-12--12--12-----------|---------------------15-15-15------|
G---------------------------------------|-----------------------------------|
D---------------------------------------|-----------------------------------|
A---------------------------------------|-----------------------------------|
E---------------------------------------|-----------------------------------|

E-17-17-17-17-|-22^24-------22^24----22^24~|~~~~~~~~\---------------15-----|
B-------------|----------------------------|--------------/17--------------|
G-------------|----------------------------|-------------------------------|
D-------------|----------------------------|-------------------------------|
A-------------|----------------------------|-------------------------------|
E-------------|----------------------------|-------------------------------|

E-17p15---------------15h17p15-------------|-15h17p15-------------15h17p15--|
B--------17-15-17-19-----------17-15-17-19-|----------17-15-17-19-----------|
G------------------------------------------|--------------------------------|
D------------------------------------------|--------------------------------|
A------------------------------------------|--------------------------------|
E------------------------------------------|--------------------------------|

E-----------15-|-17p15------------15-17p15---------15h17----|
B-17-17-19-----|--------15-17-19------------17--15----------|
G--------------|--------------------------------------------|
D--------------|--------------------------------------------|
A--------------|--------------------------------------------|
E--------------|--------------------------------------------|

E-19p17p15-----19p17p15-----19p17p15------19p17p15----------|
B----------15-----------15------------15------------15------|
G-----------------------------------------------------------|
D-----------------------------------------------------------|
A-----------------------------------------------------------|
E-----------------------------------------------------------|

E-19p17--------19p17--------19p17---------19p17p15----------|
B----------15-----------15------------15--------------------|
G-----------------------------------------------------------|
D-----------------------------------------------------------|
A-----------------------------------------------------------|
E-----------------------------------------------------------|

E-------15-------15-------15-------15-|-18^19-15-------15-18^19-15-------15-|
B-18^20----18^20----18^20----18^20----|----------18^20-------------18^20----|
G-------------------------------------|-------------------------------------|
D-------------------------------------|-------------------------------------|
A-------------------------------------|-------------------------------------|
E-------------------------------------|-------------------------------------|

E-19p17p15-17----17p15----15----------|-------------------------------------|
B----------------------19-------------|-19p17p15-17-----15h17p15\13--15-----|
G-------------------------------------|-------------------------------------|
D-------------------------------------|-------------------------------------|
A-------------------------------------|-------------------------------------|
E-------------------------------------|-------------------------------------|

E------------------------------------------|--------------------------------|
B-13h15p13\12--13-----12h13p12----12-------|--------------------------------|
G------------------------------14----14p12-|-14p12----12----12--14^-14^-14^-|
D------------------------------------------|-------14----14-----------------|
A------------------------------------------|--------------------------------|
E------------------------------------------|--------------------------------|

E----------------------------|---------------------|------------------------|
B----------------------------|---------------------|------------------------|
G-14^16-14^16-----v14p12-----|-12-----12-----------|------------------------|
D-------------------------14-|----14------14-13-12-|------------------------|
A----------------------------|---------------------|-14-13-12-10~~~~~-------|
E----------------------------|---------------------|------------------------|

E---------------------------|---------------------------|-------------------|
B---------15^----------15^--|---------15^----------15^--|-17^-v-^-v-^-17^v^-|
G---------15^----------15^--|---------15^----------15^--|-17^-v---v-^-17^v^-|
D-17--17--------17--17------|-17--17--------17--17------|-------------------|
A---------------------------|---------------------------|-------------------|
E---------------------------|---------------------------|-------------------|


E---------------------|------------------------|----------------------------|
B-v(17)-^-v--15----15-|--------15^---------15^-|-17-----17-----15^-------15-|
G-v(17)-^-v--15----15-|--------15^---------15^-|-17-----17-----15^----------|
D---------------17----|-17--17------17--17-----|----------------------------|
A---------------------|------------------------|----------------------------|
E---------------------|------------------------|----------------------------|

E-------15--------15--------15--------15-|-------15--------15--------------||
B-18^20-----18^20-----18^20-----18^20----|-18^20-----18^20-----18^20~~~~~~-||
G----------------------------------------|---------------------------------||
D----------------------------------------|---------------------------------||
A----------------------------------------|---------------------------------||
E----------------------------------------|---------------------------------||

E------------------------------------|------------------------------------|
B------------------------------------|------------------------------------|
G------------------------------------|------------------------------------|
D------------------------------------|------------------------------------|
A---------------------------5-5-5----|-5-5-5----4-4-4---3-3-3---2-2-2-----|
E-3-3-3--3-3-3--3--------------------|------------------------------------|

Riff C
  E5                                      F5
-------------------------|--------------------|
-------------------------|--------------------|
-------------------------|--------------------|
---------------2---------|--------2--------3--|
---------------2---------|--------2--------3--|
--0-0-0-0-0-0-----0-0-0--|--0-0-0----0-0-0----|

[  9 times   ]

E------------------------------------|------------------------------------|
B------------------------------------|------------------------------------|
G------------------------------------|------------------------------------|
D------------------------------------|------------------------------------|
A---------------------------5-5-5----|-5-5-5----4-4-4---3-3-3---2-2-2-----|
E-0-0-0--0-0-0--0--------------------|------------------------------------|

[ two guitars                                                             ]
E-----------------------5--5--5------|------------------7--7--7--5--------|
B-8--8--8--7^-----------7--7--7------|--8^--------5-----8--8--8--7--------|
G-9--9--9--7^----7-------------------|--8^--------------------------------|
D----------------9-------------------|------------9-----------------------|
A------------------------------------|------------------------------------|
E------------------------------------|------------------------------------|

E-7--5-----5-------5-----------------|------------------------------------|
B-8--7--8--7-------7--8--7--8--------|-8--7--5--7--------7--5-----5-------|
G-------9-------------9--7--9--------|-9--7--6--7--------7--6--7--6-------|
D------------------------------------|-------------------------9----------|
A------------------------------------|------------------------------------|
E------------------------------------|------------------------------------|

E-----------------------5--5--5------|------------------7--7--7--5--------|
B-8--8--8--7^-----------7--7--7------|--8^--------5-----8--8--8--7--------|
G-9--9--9--7^----7-------------------|--8^--------------------------------|
D----------------9-------------------|------------9-----------------------|
A------------------------------------|------------------------------------|
E------------------------------------|------------------------------------|

E-7--5-----5-------5-----------------|-8--7--5--7--------7--5-----5-------|
B-8--7--8--7-------7--8--7--8--------|-10-8--7--8--------8--7--8--7-------|
G-------9-------------9--7--9--------|-------------------------9----------|
D------------------------------------|------------------------------------|
A------------------------------------|------------------------------------|
E------------------------------------|------------------------------------|

E-----------------------5--5--5------|------------------7--7--7--5--------|
B-8--8--8--7^-----------7--7--7------|--8^--------5-----8--8--8--7--------|
G-9--9--9--7^----7-------------------|--8^--------------------------------|
D----------------9-------------------|------------9-----------------------|
A------------------------------------|------------------------------------|
E------------------------------------|------------------------------------|

E-7--5-----5-------5-----------------|------------------------------------|
B-8--7--8--7-------7--8--7--8--------|-8--7--5--7--------7--5-----5-------|
G-------9-------------9--7--9--------|-9--7--6--7--------7--6--7--6-------|
D------------------------------------|-------------------------9----------|
A------------------------------------|------------------------------------|
E------------------------------------|------------------------------------|

E-----------------------5--5--5------|------------------7--7--7--5--------|
B-8--8--8--7^-----------7--7--7------|--8^--------5-----8--8--8--7--------|
G-9--9--9--7^----7-------------------|--8^--------------------------------|
D----------------9-------------------|------------9-----------------------|
A------------------------------------|------------------------------------|
E------------------------------------|------------------------------------|

E-7--5-----5-------5-----------------|------------------------------------|
B-8--7--8--7-------7--8--7--8--------|-8--7--5--7--------7--5-----5-------|
G-------9-------------9--7--9--------|-9--7--6--7--------7--6--7--6-------|
D------------------------------------|-------------------------9----------|
A------------------------------------|------------------------------------|
E------------------------------------|------------------------------------|

E------------------------------------|------------------------------------|
B-5----------------------------------|------------------------------------|
G-6--7--6--7-------7--6--4--6--------|-6--4--2--4--------4--2--0--2-------|
D----9--7--9-------9--7--5--7--------|-7--5--4--5--------4--2--0--2-------|
A------------------------------------|------------------------------------|
E------------------------------------|------------------------------------|


Riff C
  E5                                      F5
-------------------------|--------------------|
-------------------------|--------------------|
-------------------------|--------------------|
---------------2---------|--------2--------3--|
---------------2---------|--------2--------3--|
--0-0-0-0-0-0-----0-0-0--|--0-0-0----0-0-0----|

 x 4

  G5
-------------------------|--------------------|
-------------------------|--------------------|
-------------------------|--------------------|
-------------5--------5--|--------5--------5--|
-------------5--------5--|--------5--------5--|
--3-----3----3--3--3--3--|--3--3--3--3--3--3--|

  E5                                      F5
-------------------------|--------------------|
-------------------------|--------------------|
-------------------------|--------------------|
---------------2---------|--------2--------3--|
---------------2---------|--------2--------3--|
--0-0-0-0-0-0-----0-0-0--|--0-0-0----0-0-0----|

  G5
-------------------------|--------------------|
-------------------------|--------------------|
-------------------------|--------------------|
-------------5--------5--|--------5--------5--|
-------------5--------5--|--------5--------5--|
--3-----3----3--3--3--3--|--3--3--3--3--3--3--|

  E5                        F5
-------------------------|--------------------|
-------------------------|--------------------|
-------------------------|--------------------|
---------------2------2--|--------3--------3--|
---------------2------2--|--------3--------3--|
--0-0-0-0-0-0---------0--|--1--1--1--1--1--1--|
[ 3 times ]

  E5                        G5
-------------------------|--------------------|--------------------|
-------------------------|--------------------|--------------------|
-------------------------|--------------------|--------------------|
---------------2------2--|--------5--------5--|--------5--------5--|
---------------2------2--|--------5--------5--|--------5--------5--|
--0-0-0-0-0-0---------0--|--3--3--3--3--3--3--|--3--3--3--3--3--3--|

  E5                                      F5
-------------------------|--------------------|
-------------------------|--------------------|
-------------------------|--------------------|
---------------2---------|--------2--------3--|
---------------2---------|--------2--------3--|
--0-0-0-0-0-0-----0-0-0--|--0-0-0----0-0-0----|

   E5
E------------------------------------|-----------------------------------||
B------------------------------------|-----------------------------------||
G------------------------------------|-----------------------------------||
D--2-2-2--2-2-2--2------------2-2-2--|--2-2-2--2-------------------------||
A--2-2-2--2-2-2--2------------2-2-2--|--2-2-2--2-------------------------||
E--0-0-0--0-0-0--0------------0-0-0--|--0-0-0--0-------------------------||

20.ENTER SANDMAN

Intro : 6x


|----------------------------------------------------------|
|----------------------------------------------------------|
|----------------------------------------------------------|
|-----------5-----------------------5----------------------|
|-------7-------------7---------8--------------7-----------|
|---0----------6---5--------0-----------6---5--------------|
|                                                          |
|---0------------------------------------------------------|
|---0------------------------------------------------------|
|---0------------------------------------------------------|
|---2------------------------------------------------------|
|----------------------------------------------------------|
|----------------------------------------------------------|
           ^
W/ Wah - Listen to recording, he does it twice. At 0:07 and 0:16

0:23

Play this Twice

|----------------------------------------------------------|
|----------------------------------------------------------|
|----------------------------------------------------------|
|-2--------------------------------------------------------|
|-2--2--2--2--2--2--2--5/7---2--2--2--2--2--2--2--2--5/7---|
|-0--0--0--0--0--0--0--------0--0--0--0--0--0--0--0--------|
|  							   |
|----------------------------------------------------------|
|----------------------------------------------------------|
|----------------------------------------------------------|
|-2------------(2)-------------(2)-------------(2)---------|
|-2------------(2)-------------(2)-------------(2)---------|
|-0------------(0)-------------(0)-------------(0)---------|

0:32

Play this twice

|----------------------------------------------------------|
|----------------------------------------------------------|
|----------------------------------------------------------|
|----------------------------------------------------------|
|-2--2---5/7----2--2--2--3-----2--2---5/7-----2--2--2--3---|
|-0--0-------6--0--0--0--1-----0--0--------6--0--0--0--1---|
|  							   |
|----------------------------------------------------------|
|----------------------------------------------------------|
|--------------------------------------------------------2-|
|-2------------(2)-------------(2)-------------(2)-------2-|
|-2------------(2)-------------(2)-------------(2)-------0-|
|-0------------(0)-------------(0)-------------(0)---------|

0:39
Play this 4 times.

|----------------------------------------------------------|
|----------------------------------------------------------|
|----------------------------------------------------------|
|----------------------------------------------------------|
|-2--2---5/7-------2--2--3-----2--2---5/7--------2--2--3---|
|-0--0-------6--5--0--0--1-----0--0--------6--5--0--0--1---|
|  							   |
|----------------------------------------------------------|
|----------------------------------------------------------|
|----------------------------------------------------------|
|-2------------(2)-------------(2)-------------(2)---------|
|-2------------(2)-------------(2)-------------(2)---------|
|-0------------(0)-------------(0)-------------(0)---------|


0:55
Main Riff : play twice

<-------3x---------------------------------------------------|
|-----------------------|------------------------------------|
|-----------------------|------------------------------------|
|-----------------------|------------------------------------|
|-----------------------|------------------------------------|
|-2----2-----7----------|-----5------4-------4---5---4-------|
|-0----0---------6----5-|-----3---0--2---0---2---3---2-------|
|  							   |
|-----------------------|----------------------------------|
|-----------------------|----------------------------------|
|-----------------------|----------------------------------|
|-----------------------|----------------------------------|
|-2----2-----7----------|-----5------4-------4---5---4-----|
|-0----0---------6----5-|-----3---0--2---0---2---3---2-----|

Verse Riff
|----------------------------------------------------------|
|----------------------------------------------------------|
|----------------------------------------------------------|
|-2--------------------------------------------------------|
|-2--2--2--2--2--2--2--3------2--2--2--2--2--2--2--2--3----|
|-0--0--0--0--0--0--0--1------0--0--0--0--0--0--0--0--1----|
|  							   |
|------------------------------------------------------------|
|------------------------------------------------------------|
|------------------------------------------------------------|
|------------------------------------------------------------|
|----------------------32----------------------------32------|
|-0--0--0--0--0--0--0--1----0--0--0--0--0--0--0--0--1--------|

1Say your prayers little one,          Don\'t forget my son
2      I tuck you in,  warm within, Keep you free from sin


|-----------------------------------------------------|
|-----------------------------------------------------|
|-----------------------------------------------------|
|-----------------------------------------------------|
|-2--2--2--2--2--2--2-----5------4-------4---5---4----|
|-0--0--0--0--0--0--0-----3---0--2---0---2---3---2----|
|  					              |
|-----------------------------------------------------|
|-----------------------------------------------------|
|-----------------------------------------------------|
|-----------------------------------------------------|
|-------------------------5------4-------4---5---4----|
|-0--0--0--0--0--0--0-----3---0--2---0---2---3---2----|

1       To include Every      One
2            Till the sandman he comes.           Ah

Pre chorus.
|--------3x---------|

|---------------------|---------------------------|
|---------------------|---------------------------|
|----------2----------|---------------------------|
|------4--------------|---------------------------|
|-------------3---2---|--4--4--4--4--2--3--4------|
|--2------------------|--2--2--2--2--0--1--2------|
|  						  |
|---------------------|---------------------------|
|---------------------|---------------------------|
|----------2----------|----------2----------------|
|------4--------------|-------4-------------------|
|-------------3---2---|--------------3---2--------|
|--2------------------|---2------------------14/--|

Sleep with one eye open, Gripping your pillow tight.

Chorus

|------3x------|

|---------------|-------------------------------------------|
|---------------|-------------------------------------------|
|---------------|-------------------------------------------|
|--------5----4-|---2---------------------------------------|
|---4----3----2-|---2---------------------------------------|
|---2-----------|---0---------------------------------------|
|  						 	    |
|---------------|-------------------------------------------|
|---------------|-------------------------------------------|
|---------------|-------------------------------------------|
|---------------|------------------------4--0---------------|
|--------3----2-|------5---2---5---4--0---------------------|
|---2-----------|-------------------------------------------|

Exit Light
Enter Ni-ight


|---------------|-------------------------------------------|
|---------------|-------------------------------------------|
|---------------|-------------------------------------------|
|--------5----4-|---2---------------------------------------|
|---4----3----2-|---2---------------------------------------|
|---2-----------|---0---------------------------------------|
|  						 	    |
|---------------|-------------------------------------------|
|---------------|-------------------------------------------|
|---------------|-------------------------------------------|
|---------------|------------------------2------------------|
|--------3----2-|------5---2---5---2--2-----2---------------|
|---2-----------|-------------------------------------------|

Take my hand

|-------------------------------|
|-------------------------------|
|-------------------------------|
|-------------------------------|
|---5------4-------4---5---4----|
|---3---0--2---0---2---3---2----|
|                               |
|-------------------------------|
|-------------------------------|
|-------------------------------|
|-------------------------------|
|-------------------------------|
|-------------------------------|

We\'re off to never-never land


<-------3x---------------------------------------------------|
|-----------------------|------------------------------------|
|-----------------------|------------------------------------|
|-----------------------|------------------------------------|
|-----------------------|------------------------------------|
|-2----2-----7----------|-----5------4-------4---5---4-------|
|-0----0---------6----5-|-----3---0--2---0---2---3---2-------|
|  							   |
|-----------------------|----------------------------------|
|-----------------------|----------------------------------|
|-----------------------|----------------------------------|
|-----------------------|----------------------------------|
|-2----2-----7----------|-----5------4-------4---5---4-----|
|-0----0---------6----5-|-----3---0--2---0---2---3---2-----|


<-------3x---------------------------------------------------|
|-----------------------|------------------------------------|
|-----------------------|------------------------------------|
|-----------------------|------------------------------------|
|-----------------------|------------------------------------|
|-2----2-----7----------|-----5------4-------4---5---4-------|
|-0----0---------6----5-|-----3---0--2---0---2---3---2-------|
|  							   |
|-----------------------------Gradually Bend----------12/--|
|-12hb----14-12-14------14fb--------------------------14/--|
|-12------14-12-14------14fb-------------------------------|
|-------15----------12-------------------------------------|
|----------------------------------------------------------|
|----------------------------------------------------------|
W/Wah

|----------------------------------------------------------|
|----------------------------------------------------------|
|----------------------------------------------------------|
|-2--------------------------------------------------------|
|-2--2--2--2--2--2--2--3------2--2--2--2--2--2--2--2--3----|
|-0--0--0--0--0--0--0--1------0--0--0--0--0--0--0--0--1----|
|  							   |
|------------------------------------------------------------|
|------------------------------------------------------------|
|------------------------------------------------------------|
|------------------------------------------------------------|
|----------------------32----------------------------32------|
|-0--0--0--0--0--0--0--1----0--0--0--0--0--0--0--0--1--------|

Somethings wrong, shut the light, heavy thoughts tonight

|-----------------------------------------------------|
|-----------------------------------------------------|
|-----------------------------------------------------|
|-----------------------------------------------------|
|-2--2--2--2--2--2--2-----5------4-------4---5---4----|
|-0--0--0--0--0--0--0-----3---0--2---0---2---3---2----|
|  					              |
|-----------------------------------------------------|
|---------------------------12fb--12fb--12fb----------|
|---------------------------12hb--12fb--12fb----------|
|---------------------------------------------14/-----|
|-----------------------------------------------------|
|-0--0--0--0--0--0--0---------------------------------|
			     W/Wah

And they arent of snow wh-------ite


|----------------------------------------------------------|
|----------------------------------------------------------|
|----------------------------------------------------------|
|-2--------------------------------------------------------|
|-2--2--2--2--2--2--2--3------2--2--2--2--2--2--2--2--3----|
|-0--0--0--0--0--0--0--1------0--0--0--0--0--0--0--0--1----|
|  							   |
|------------------------------------------------------------|
|------------------------------------------------------------|
|------------------------------------------------------------|
|------------------------------------------------------------|
|----------------------32----------------------------32------|
|-0--0--0--0--0--0--0--1----0--0--0--0--0--0--0--0--1--------|

Dreams of war, dreams of lies, dreams of dragons fire


|-----------------------------------------------------|
|-----------------------------------------------------|
|-----------------------------------------------------|
|-----------------------------------------------------|
|-2--2--2--2--2--2--2-----5------4-------4---5---4----|
|-0--0--0--0--0--0--0-----3---0--2---0---2---3---2----|
|  					              |
|-----------------------------------------------------|
|-----------------------------------------------------|
|-----------------------------------------------------|
|-----------------------------------------------------|
|-------------------------5------4-------4---5---4----|
|-0--0--0--0--0--0--0-----3---0--2---0---2---3---2----|

And of things that will bite, yeah!


Pre chorus.
|--------3x-----------------------------------------|
|---------------------|-----------------------------|
|---------------------|-----------------------------|
|----------2----------|-----------------------------|
|------4--------------|-----------------------------|
|-------------3---2---|--4--4--4--4--2--3--4--------|
|--2------------------|--2--2--2--2--0--1--2--------|
|  						  |
|---------------------|---------------------------|
|---------------------|---------------------------|
|----------2----------|----------2----------------|
|------4--------------|-------4-------------------|
|-------------3---2---|--------------3---2--------|
|--2------------------|---2------------------14/--|

Sleep with one eye open, Gripping your pillow tight.

Chorus

|------3x------|

|---------------|-------------------------------------------|
|---------------|-------------------------------------------|
|---------------|-------------------------------------------|
|--------5----4-|---2---------------------------------------|
|---4----3----2-|---2---------------------------------------|
|---2-----------|---0---------------------------------------|
|  						 	    |
|---------------|-------------------------------------------|
|---------------|-------------------------------------------|
|---------------|-------------------------------------------|
|---------------|------------------------4--0---------------|
|--------3----2-|------5---2---5---4--0---------------------|
|---2-----------|-------------------------------------------|

Exit Light
Enter Ni-ight


|---------------|-------------------------------------------|
|---------------|-------------------------------------------|
|---------------|-------------------------------------------|
|--------5----4-|---2---------------------------------------|
|---4----3----2-|---2---------------------------------------|
|---2-----------|---0---------------------------------------|
|  						 	    |
|---------------|-------------------------------------------|
|---------------|-------------------------------------------|
|---------------|-------------------------------------------|
|---------------|------------------------2------------------|
|--------3----2-|------5---2---5---2--2-----2---------------|
|---2-----------|-------------------------------------------|


Take my hand
|-------------------------------|
|-------------------------------|
|-------------------------------|
|-----------------------------2-|
|---5------4-------4---5---4--2-|
|---3---0--2---0---2---3---2--0-|
|                               |
|-------------------------------|
|-------------------------------|
|-------------------------------|
|-----------------------------2-|
|-----------------------------2-|
|-----------------------------0-|
We\'re off to never-never land


Note : This tab for the solo is greatly inspired by the original
tab of the solo, and many thanks to the author of that tab. It
Was quite accurate but wrong in a couple of places, basiclly here
I changed it to be as close as possible to Kirk.

For the solo, James plays the main riff twice, then his part of
the prechorus, and his part of the chorus. Its amazing how well
the solo fits in.

W/Wah
|---------------------------------------------------------|
|-15---15---15---12-----15---------12-12----15fb-15bfb-/--|
|-14hb-14hb-14hb--14fb--14fb---14hb------14---------------|
|---------------------------------------------------------|
|---------------------------------------------------------|
|---------------------------------------------------------|


Rock back and forth on pedal
|---------------------------------------------------|
|---------------------------------------------------|
|-12/14-14-14-1412-12-12-12/14-14-14-1412-12-12-----|
|-10/12-12-12-1210-10-10-10/12-12-12-1210-10-10-----|
|---------------------------------------------------|
|---------------------------------------------------|


|---------------------------------------|
|---------------------------------------|
|-14p12---------------------------------|
|-------14-14p12------------------------|
|----------------14-14p12---------------|
|--------------------------15--12~~-----|


|-------12-10-12-------12-10-12------12-12-12-------12-12-12-|
|-15fb----------15fb--------------15fb-----------15fb--------|
|------------------------------------------------------------|
|------------------------------------------------------------|
|------------------------------------------------------------|
|------------------------------------------------------------|

|-12-12-12-15-12-15p12h15-12h15p12-12-15-12-12-14-14-|
|----------------------------------------------------|
|----------------------------------------------------|
|----------------------------------------------------|
|----------------------------------------------------|
|----------------------------------------------------|

|-17p14----17p14----17p14-19p15----19p15----19p15-|
|-------14-------14-------------17-------17-------|
|-------------------------------------------------|
|-------------------------------------------------|
|-------------------------------------------------|
|-------------------------------------------------|

|-21p17----21p17----21p17----22fb~~~~~~(R)/-------------------|
|-------17-------17-------17---------------9hb--------9hb---9-|
|------------------------------------------9fb--------9fb---9-|
|-------------------------------------------------------------|
|-------------------------------------------------------------|
|-------------------------------------------------------------|

|---------------------------------------------------------------|
|-9hb--9hb-----------------10------10-8-7---7/87---7------------|
|-9fb--9fb--7--9--------7-----------------9-------9---9-7---7---|
|------------------7h9------------------------------------9-----|
|---------------------------------------------------------------|
|---------------------------------------------------------------|

			      Lots of wah. Treble on all notes in
			      16th fret. Bass on 14th.(toe up)

|-------------------------------------------------------------------|
|-------------------------------------------------------------------|
|-9p7--------------------------16fb-14-----14-16-16fb--14------14---|
|-----9p7---7-9-7----------------------16---------------16----------|
|---------9-------9-6-7---------------------------------------------|
|-----------------------10-7----------------------------------------|


|--------------------------------------|
|--------------------------------------|
|-16-16fb-14----14-16-16fb-14-------14-|
|---------------16------------16-16----|
|--------------------------------------|
|--------------------------------------|


                        Note : Slowly release bend while tremelo picking.

|-----------------------------------------------|
|---------17---------17--------17---------------|
|-16bfb----16hb----16fb----------16fb---(R)-----|
|-----------------------------------------------|
|-----------------------------------------------|
|-----------------------------------------------|


|-21p17---21p17---21p17---21p17---21p17---21p17---|
|------17------17------17------17------17------17-|
|-------------------------------------------------|
|-------------------------------------------------|
|-------------------------------------------------|
|-------------------------------------------------|


|-22fb--21-22--22fb--21-22-22fb~~~~~--22----|
|-------------------------------------------|
|-------------------------------------------|
|-------------------------------------------|
|-------------------------------------------|
|-------------------------------------------|


|----------------------------------------------------|
|-10p9p8p7-------------------------------------------|
|----------9-9p7-------------------------------------|
|----------------9-9p7-5--7fb----5~~-----------------|
|-------------------------------------7~~~~~~~~~-5h7-|
|----------------------------------------------------|

|--------------------------------------------------|
|--------------------------------------------------|
|--------------------------------------------------|
|--------------------------------------------------|
|-4~~~~~~~~~~--0--2--2--2--2--2--2--2--2--2--2--2--|
|--------------------------------------------------|
    Wah off.      Dip bar and release on each stroke.


Back to the usual tab form.

Play 4x

|----------------------------------------------------------|
|----------------------------------------------------------|
|----------------------------------------------------------|
|-----------5-----------------------5----------------------|
|-------7-------------7---------7--------------7-----------|
|---0----------6---5--------0-----------6---5--------------|
|                                                          |
|----------------------------------------------------------|
|----------------------------------------------------------|
|----------------------------------------------------------|
|----------------------------------------------------------|
|----------------------------------------------------------|
|----------------------------------------------------------|

|--------8x-----------------------------------------|
|---------------------|-----------------------------|
|---------------------|-----------------------------|
|----------2----------|-----------------------------|
|------4--------------|-----------------------------|
|-------------3---2---|--4--4--4--4--2--3--4--------|
|--2------------------|--2--2--2--2--0--1--2--------|
|  						  |
|---------------------|---------------------------|
|---------------------|---------------------------|
|----------2----------|----------2----------------|
|------4--------------|-------4-------------------|
|-------------3---2---|--------------3---2--------|
|--2------------------|---2------------------14/--|

Chorus

|------3x------|

|---------------|-------------------------------------------|
|---------------|-------------------------------------------|
|---------------|-------------------------------------------|
|--------5----4-|---2---------------------------------------|
|---4----3----2-|---2---------------------------------------|
|---2-----------|---0---------------------------------------|
|  						 	    |
|---------------|-------------------------------------------|
|---------------|-------------------------------------------|
|---------------|-------------------------------------------|
|---------------|------------------------4---0--------------|
|--------3----2-|------5---2---5---4--0---------------------|
|---2-----------|-------------------------------------------|

Exit Light
Enter Ni-ight


|---------------|-------------------------------------------|
|---------------|-------------------------------------------|
|---------------|-------------------------------------------|
|--------5----4-|---2---------------------------------------|
|---4----3----2-|---2---------------------------------------|
|---2-----------|---0---------------------------------------|
|  						 	    |
|---------------|-------------------------------------------|
|---------------|-------------------------------------------|
|---------------|-------------------------------------------|
|---------------|-------------------------------------------|
|--------3----2-|-------------------------------------------|
|---2-----------|-------------------------------------------|

Grain of sand


|------3x------|

|---------------|-------------------------------------------|
|---------------|-------------------------------------------|
|---------------|-------------------------------------------|
|--------5----4-|---2---------------------------------------|
|---4----3----2-|---2---------------------------------------|
|---2-----------|---0---------------------------------------|
|  						 	    |
|---------------|-------------------------------------------|
|---------------|-------------------------------------------|
|---------------|-------------------------------------------|
|---------------|------------------------4--0---------------|
|--------3----2-|------5---2---5---4--0---------------------|
|---2-----------|-------------------------------------------|

Exit Light
Enter Ni-ight


|---------------|-------------------------------------------|
|---------------|-------------------------------------------|
|---------------|-------------------------------------------|
|--------5----4-|---2---------------------------------------|
|---4----3----2-|---2---------------------------------------|
|---2-----------|---0---------------------------------------|
|  						 	    |
|---------------|-------------------------------------------|
|---------------|-------------------------------------------|
|---------------|-------------------------------------------|
|---------------|------------------------4------------------|
|--------3----2-|------5---0---5---2--2-----4---------------|
|---2-----------|-------------------------------------------|

Take my hand
|-------------------------------|
|-------------------------------|
|-------------------------------|
|-----------------------------2-|
|---5------4-------4---5---4--2-|
|---3---0--2---0---2---3---2--0-|
|                               |
|-------------------------------|
|-------------------------------|
|-------------------------------|
|-----------------------------2-|
|-----------------------------2-|
|-----------------------------0-|

We\'re off to never-never land

<-------2x----------------|
|-------------------------|
|-------------------------|
|-------------------------|
|-------------------------|
|-2----2-----7------------|
|-0----0---------6----5---|
|  			|
|-----------------------|
|-----------------------|
|-----------------------|
|-(2)-------------------|
|-(2)-------------------|
|-(0)-------------------|

<-------4x---------------------------------------------------|
|-----------------------|------------------------------------|
|-----------------------|------------------------------------|
|-----------------------|------------------------------------|
|-----------------------|------------------------------------|
|-2----2-----7----------|-----5------4-------4---5---4-------|
|-0----0---------6----5-|-----3---0--2---0---2---3---2-------|
|  							   |
|-----------------------|----------------------------------|
|-----------------------|----------------------------------|
|-----------------------|----------------------------------|
|-----------------------|----------------------------------|
|-2----2-----7----------|-----5------4-------4---5---4-----|
|-0----0---------6----5-|-----3---0--2---0---2---3---2-----|

|----------------------------------------------------------|
|----------------------------------------------------------|
|----------------------------------------------------------|
|----------------------------------------------------------|
|-2--2---5/7-------2--2--3-----2--2---5/7--------2--2--3---|
|-0--0-------6--5--0--0--1-----0--0--------6--5--0--0--1---|
|							   |
|----------------------------------------------------------|
|----------------------------------------------------------|
|----------------------------------------------------------|
|-----------5--------------------------5-------------------|
|-------7-------------7------------7--------------7--------|
|---0----------6---5-----------0-----------6---5-----------|

Repeat and fade.
===================

For a Big ending while plaing it Live just do this:

|-----------------------------------------|
|-----------------------------------------|
|-----------------------------------------|
|--------------------------------------2--|
|---5------4-------4------5------4-----2--|
|---3---0--2---0---2------3------2-----0--|
|                                         |
|-----------------------------------------|
|-----------------------------------------|
|-----------------------------------------|
|--------------------------------------2--|
|---5------4-------4------5------4-----2--|
|---3---0--2---0---2------3------2-----0--|

Those extra spaces are there for a reason :-)

21.BATTERY

Standard Tuning

tempo=75      All electric guitars have distortion

Intro
        Rhy. Fig. 1
Acous.|--------------------|---------------|--------------|----------------|
gtr.1 |--------------------|---------------|--------------|----------------|
      |--------------------|-----------0---|--------------|----------------|
      |----3-2-----2-------|--2-----0--0---|--3-2---2-----|--2----0--0-----|
      |----2-------0-------|--0--------5---|--2-----0-----|--0-------5-----|
      |----0-------1-------|--2--------3---|--0-----1-----|--2-------3-----|

      Play w/Rhy. Fig 1   ~~~~~~~                 ~~~~                  ~~~
Acous.|-----------------------|-----------------------|--------------------|
gtr.2 |-----------------------|-----------------------|--------------------|
      |---4-5-------4---5-----|---4-5----------5--4---|-4-5-----4-4h5p4----|
      |-------7-----------7---|(7)----7---5-----------|-----7-----------7--|
      |-----------------------|-----------------------|--------------------|
      |-----------------------|-----------------------|--------------------|
       ~~~                ~~~~
      |-----------------------|     Play gtr.2 over gtr.3 with Rhy. Fig. 1
      |-----------------------|     and the second time through add gtr.4
      |---4-5----------5--4---|
      |(7)----7---5-----------|
      |-----------------------|
      |-----------------------|

                          ~~~~~~~                 ~~~~                  ~~~
Acous.|-----------------------|-----------------------|--------------------|
gtr.3 |---3-5-------3---5-----|---3-5----------5--3---|-3-5-----3-3h5p3----|
      |-------5-----------5---|(5)----5---4-----------|-----5-----------5--|
      |-----------------------|-----------------------|--------------------|
      |-----------------------|-----------------------|--------------------|
      |-----------------------|-----------------------|--------------------|
       ~~~                ~~~~
      |-----------------------|
      |---3-5----------5--3---|
      |(5)----5---4-----------|
      |-----------------------|
      |-----------------------|
      |-----------------------|

                          ~~~~~~~~                ~~~~~~                ~~~
Acous.|---3-5-------3---5-----|---3-5----------5--3---|-3-5-----3-3h5p3----|
gtr.4 |-------5-----------5---|-5-----5---3-----------|-----5-----------5--|
      |-----------------------|-----------------------|--------------------|
      |-----------------------|-----------------------|--------------------|
      |-----------------------|-----------------------|--------------------|
      |-----------------------|-----------------------|--------------------|
       ~~~                ~~~~
      |---3-5----------5--3---|
      |-5-----5---3-----------|
      |-----------------------|
      |-----------------------|
      |-----------------------|             Now it changes to electrics.
      |-----------------------|          All electrics play over each other.

Elec. |-----------------------|-------------------------|
gtr.1 |-----------------------|-------------------------|
      |-----------------------|-------------------------|repeat
      |2--2-2-2-2--3-(3)------|------------5-(5)--------|
      |2--2-2-2-2--3-(3)------|5--5-5-5-5--5-(5)--------|
      |0--0-0-0-0--1-(1)------|2--2-2-2-2--3-(3)--------|
       >  P.M.---| >           > P.M--------------------| >
              ~~~~~~      ~~~~~~~~         ~~~~   ~~~~~~~~~    ~~~~~     ~~
Elec. |-----------------------|-----------------------|--------------------|
gtr.2 |-----------------------|-----------------------|*-------------------|
      |---4-5-------4---5-----|---4-5----------5--4---|(4)-4-5------4--5---|
      |-------7-----------7---|(7)----7----5----------|--------7---------7-|
      |-----------------------|-----------------------|*-------------------|
      |-----------------------|-----------------------|--------------------|
       ~~~         ~~~~   ~~~~ ~~~         ~~~~    ~~~
       |1.2._________________| |3.___________________|
      |-----------------------|-----------------------|
      |----------------------*|-----------------------|
      |---4-5----------5--4---|---4-5----------5---4--|
      |(7)----7----5----------|(7)----7----5----------|
      |----------------------*|-----------------------|
      |-----------------------|-----------------------|

              ~~~~~~      ~~~~~~~~         ~~~~   ~~~~~~~~~~    ~~~~     ~~
Elec. |-----------------------|-----------------------|--------------------|
gtr.3 |---3-5-------3---5-----|---3-5----------5--3---|*(3)-3-5-----3--5---|
      |-------5-----------5---|(5)----5----4----------|---------5--------5-|
      |-----------------------|-----------------------|--------------------|
      |-----------------------|-----------------------|*-------------------|
      |-----------------------|-----------------------|--------------------|

       ~~~         ~~~~   ~~~~ ~~~         ~~~~    ~~~
       |1.2._________________| |3.___________________|
      |-----------------------|-----------------------|
      |---3-5----------5--3--*|---3-5----------5---3--|
      |(5)----5----4----------|(5)----5----4----------|
      |-----------------------|-----------------------|
      |----------------------*|-----------------------|
      |-----------------------|-----------------------|

              ~~~~~       ~~~~~~~~         ~~~~   ~~~~~~~~~    ~~~~~     ~~
Elec. |---3-5-------3---5-----|---3-5----------5--3---|(3)-3-5------3--5---|
gtr.4 |-------5-----------5---|(5)----5----3----------|*-------5---------5-|
      |-----------------------|-----------------------|--------------------|
      |-----------------------|-----------------------|--------------------|
      |-----------------------|-----------------------|*-------------------|
      |-----------------------|-----------------------|--------------------|

       ~~~         ~~~~~   ~~~ ~~~         ~~~~    ~~~
       |1.2._________________| |3.___________________|
      |---3-5-----------5--3--|---3-5----------5---3--|
      |(5)----5----3---------*|(5)----5----3----------|
      |-----------------------|-----------------------|
      |-----------------------|-----------------------|
      |----------------------*|-----------------------|
      |-----------------------|-----------------------|

       Riff A
Elec. |-----------------------|
gtr.1 |-----------------------|
  &   |---------4-------------|
gtr.2 |----2----4----5----4---|
      |----2----2----5----6---|
      |----0---------3--------|

tempo=190                       gtr.2 plays Rhy. Fig. 1 the first time
                             and doubles gtr.1 second on the first 4 bars
Elec. |-----------------------------------|-----------------------------------|
gtr.1 |*----------------------------------|-----------------------------------|
      |-----------------------------------|-----------------------------------|
      |----------------------8---8---7----|----------------------5---5---4----|
      |*---------------------8---8---7----|----------------------7---7---5----|
      |--0---0-0-0---0-0-0---6---6---5----|--0---0-0-0---0-0-0----------------|
        P.M.--------------|                 P.M.------------------------------|

      |-----------------------------------|-------------------------------|
      |-----------------------------------|-------------------------------|
      |-----------------------------------|-------------------------------|
      |--5-------------------8---8---7----|------4------5-------5------6--|
      |--7-------------------8---8---7----|------4------5-------5------6--|
      |------0-0-0---0-0-0---6---6---5----|--0---2------3---0---3------4--|
            P.M.----------|                 P.M---------------------------|           P.M.

Rhy.  |-----------------------------------|-----------------------------------|
Fig.2 |-----------------------------------|-----------------------------------|
plays |-----------------------------------|-----------------------------------|
over  |----------------------8---8---7----|----------------------5---5---4----|
these |----------------------8---8---7----|----------------------7---7---5----|
4 bars|--0---0-0-0---0-0-0---6---6---5----|--0---0-0-0---0-0-0----------------|
        P.M.--------------|                 P.M.------------------------------|

      |-----------------------------------|-----------------------------------|
      |-----------------------------------|-----------------------------------|
      |-----------------------------------|-----------------------------------|
      |--5-------------------8---8---7----|--8---7------7------7------7-------|
      |--7-------------------8---8---7----|--8---7------7------7------7-------|
      |------0-0-0---0-0-0---6---6---5----|--6---5------5------5------5-------|
            P.M---------------------------------------------------------------|
       Rhy. Fig. 2
      |-----------------------------------|---------------------------------|
      |-----------------------------------|---------------------------------|
      |----------------------3---3---2----|---------------------------------|
      |--2-------------------3---3---2----|--2-------------------5---5---4--|
      |--2-------------------1---1---0----|--2-------------------7---7---6--|
      |--0--------------------------------|--0------------------------------|
         >

      |-----------------------------------|---------------------------------|
      |-----------------------------------|---------------------------------|
      |----------------------3---3---2----|---------------------------------|
      |--5-------------------3---3---2----|--8---7------7------7------7-----|
      |--7-------------------1---1---0----|--8---7------7------7------7-----|
      |-----------------------------------|--6---5------5------5------5-----|
                                                   (gtrs. double)
       Rhy. Fig. 3
      |-----------------------|-----------------------|---------------------|
      |-----------------------|-----------------------|---------------------|
      |-----------------------|-----------------------|--2------------------|
      |--2--------------------|--5--------------------|--2---------3--3--4--|
      |--2--------------------|--5--------------------|--0---------3--3--6--|
      |--0--------------------|--3--------------------|------------1--1-----|

      Play all over main riff

      Play Rhy. Fig. 2 for the first four bars starting with "Lashing out the action"

      Play Rhy. Fig. 2 for the for the four bars starting with "Hypnotizing power"

      Play Rhy. Fig. 3 starting with "smashing through the boundries"

      After that play Rhy. Fig. 2 for the first for bars which starts with the "y" in battery

      Then play Rhy. Fig. 3 starting with "Pounding out aggression"

      Then play Rhy. Fig. 2 but only the first two bars starting with the "y" in battery

      "Cannot kill the family, battery has grounded"
      |-----------------------|-----------------------|
      |-----------------------|-----------------------|<-You need to add a beat to the third
      |--------------4--------|-----------------------|  bar of Rhy. Fig. 2 when it is played
      |----2---------4--------|----5----------5---4---|  two bars after "Cannot kill the family,
      |----2---------2--------|----5----------7---6---|  battery has grounded"
      |----0------------------|----3------------------|

      Then play Rhy. Fig. 2 but only the first 3 bars starting with "me!"

                          Bat-ter
      |-----------------------------|     After that play Rhy. Fig. 2 but only the first
      |-----------------------------|     3 bars and don't add that beat to the third bar
      |----------3----2----3--------|     After those 3 bars play Rhy. Fig. 4
      |--5-------3----2----3---3----|
      |--7-------1----0----1---3----|
      |------------------------1----|

         bat -ter - y
Rhy.  |-----------------------------|
Fig.4 |-----------------------------|
      |---3---------2---------------|
      |---3----3----2---------------|
      |---1----3----0---------------|
      |--------1--------------------|


Fill  |-----12--17p12-15p12-14p12--12-17p12-15p12-|-14p12--12-17p12-15p12-14p12--12-17p12-15p12|
Solo  |-15^Full------------------15---------------|------15--------------------15--------------|
w/Rhy.|-------------------------------------------|--------------------------------------------|
Fig. 3|-------------------------------------------|--------------------------------------------|
      |-------------------------------------------|--------------------------------------------|
      |-------------------------------------------|--------------------------------------------|

      |-14p12-------------------------------------|------------------| Play an E5 before the
      |------14p12-14p12-------------14^half------|------------------| interlude for 2 bars
      |------------------14--12------14^full------|--12\-------------|
      |--------------------------14---------------|------------------|
      |-------------------------------------------|------------------|
      |-------------------------------------------|------------------|

Interlude

      |----------|---------|---------|-------------|---------|---------|---------|-------------|
      |----------|---------|---------|-------------|---------|---------|---------|-------------|
      |----------|---------|---------|-------------|---------|---------|---------|-------4--4--|
      |-2--------|(2)------|-5-------|(5)---5----5-|-2-------|(2)------|-5-------|(5)----4--4--|
      |-2--------|(2)------|-5-------|(5)---5----5-|-2-------|(2)------|-5-------|(5)----2--2--|
      |-0--------|(0)------|-3-------|(3)---3--3-3-|-0-------|(0)------|-3-------|(3)----------|

Rhy.  |-----------------------|--------------------|---------------------|---------------------|
gtr.1 |*----------------------|--------------------|---------------------|--------------------*|
      |-----------------------|------------5----7--|---------------------|--------2-(2)----4---|
      |*2--------2--2---------|-2--2----2--5----7--|-5---------5--5------|5-5-----2-(2)----4--*|
      |-2--------2--2---------|-2--2----2--3----5--|-5---------5--5------|5-5-----0-(0)----2---|
      |-0--------0--0----x--x-|-0--0----0----------|-3---------3--3--x-x-|3-3------------------|
                                                                                        play x3
Lead  |-----------------------|--------------------|---------------------|--------------------|
gtr.2 |*----------------------|--------------------|---------------------|--------------------|
      |-----------------------|--------------------|---------------------|--------------------|
      |*------4--5------------|------5-------------|--------4--5---------|-----5-----4--5--7--|
      |-7--7--------7-------7-|-7-------7--3--3-5/7|-7p5----------7----7-|--7-----7-----------|
      |-----------------------|--------------------|-----7---------------|--------------------|
       P.M.------------------------------------|     --t-- P.M.-------------------------------|

Rhy.  |-----------------------|--------------------|---------|---------|-----------------------|
gtr.1 |-----------------------|--------------------|---------|---------|-----------------------|
      |-----------------------|-----------------4--|---------|---------|-----------------------|
      |-2--------2--2---------|-2------5-(5)----4--|-5-------|(5)------|--3--2----2----2----2--|
      |-2--------2--2---------|-2------5-(5)----2--|-5-------|(5)------|--3--2----2----2----2--|
      |-0--------0--0----x--x-|-0------3-(3)-------|-3-------|(3)------|--1--0----0----0----0--|

Lead  |-----------------------|--------------------|---------|---------|-----------------------|
gtr.2 |-----------------------|--------------------|---------|---------|-----------------------|
      |-----------------------|-----------------4-/|-7-------|(7)------|-----------------------|
      |-------4--5------------|-2------------------|---------|---------|-----------------------|
      |-7--7--------7---------|--------2-----------|---------|---------|-----------------------|
      |-----------------------|--------------------|---------|---------|-----------------------|

Guitar Solo
         Rhy.Fig.5
Rhy.  |------------------------------|--------------------------------|
gtr.1 |------------------------------|--------------------------------|
      |------------------4---3---2---|-----4---3---2-------4---3---2--|
      |------------------4---3---2---|-----4---3---2-------4---3---2--|
      |------------------2---1---0---|-----2---1---0-------2---1---0--|
      |-0--0-0-0--0-0-0--------------|-0---------------0--------------|
       P.M.------------|              P.M-----------------------------|            P.M.

       w/wah wah
Lead  |------------------------------|----------------------------------|
gtr.2 |-14^Half-----14^Half--14^Half-|-14^Half-----14^Half-14-----------|
      |-14^Full-----14^Full--14^Full-|-14^Full-----14^Full-14--14-12h14-|
      |------------------------------|----------------------------------|
      |------------------------------|----------------------------------|
      |------------------------------|----------------------------------|
                              (end Rhy.Fig.5)
Rhy.  |--------------------------------------|--------------------------------------|
gtr.1 |--------------------------------------|--------------------------------------|
      |-------------------------4---3---2----|-------4-----------3---------2--------|
      |-------------------------4---3---2----|-------4-----------3---------2-----5--|
      |-------------------------2---1---0----|-------2-----------1---------0-----5--|
      |-0--0--0--0---0--0--0-----------------|-0---------------------------------3--|
       P.M.-------------------------------------------------------------------------|                 P.M.

Lead  |--------------------------------------|--------------------------------------|
gtr.2 |--------------15p12-15-p-12--15--12---|-12h15p12----12h15p12----12--15^Full--|
      |12--12h14p12------------------------15|----------15----------15--------------|
      |--------------------------------------|--------------------------------------|
      |--------------------------------------|--------------------------------------|
      |--------------------------------------|--------------------------------------|

     w/Rhy.Fig.5(3 bars)                              ~~~~
      |---15^Full-(15)^1.5-----------|-15^1.5--r------------15-------------|
      |------------------------------|-15^1.5---------17--17--17p15--17-15-|
      |------------------------------|-----------------------------16------|
      |------------------------------|-------------------------------------|
      |------------------------------|-------------------------------------|
      |------------------------------|-------------------------------------|
                                                              ===t===
                                                Bb5    A5    A5     A5  A5
                                                                ~~~~~~~~~~~
      |----------------------------------------|---------------------------|
      |-17----15-12--12-15-12h15p12--12h15p12--|-12h15p12----15-15^Full----|
      |----/16-----14--------------14--------14|---------------------------|
      |----------------------------------------|---------------------------|
      |----------------------------------------|---------------------------|
      |----------------------------------------|---------------------------|

     w/Rhy.Fig.5(3 bars)
     |------------------------------------|------------------------------------------|
     |------------------------------------|------------------------------------------|
     |-4p2p0-4p2p0-4p2p0-4-----4p2p0-2h4--|4p2p0-4p2p0-4p2p0-2h4-0--4p2p0-4p2p0-4p2p0|
     |-----------------------0-----------0|------------------------------------------|
     |------------------------------------|------------------------------------------|
     |------------------------------------|------------------------------------------|
       ==t== ==t== ==t==       ==t==       ==t== ==t== ==t==        ==t== ==t== ==t==
                                                          E(open6)B5      Bb5
     |--------------------------------------------------|-------------------------|
     |--------------------------------------------------|-------------------------|
     |-4p2p0-4p2p0-6p4p0-6p4p0-8p6p0-8p6p0-10p8p0-10p8p0|-12p10p0-12p10p0-12p10p0-|
     |--------------------------------------------------|-------------------------|
     |--------------------------------------------------|-------------------------|
     |--------------------------------------------------|-------------------------|
       ==t== ==t== ==t== ==t== ==t== ==t== ==t=== ==t===  ===t=== ===t=== ===t===

      A5          G5    F5  w/Rhy.Fig.5(3 bars)
     ---------------------|-12--15--14--12h14p12--12--------------------|
     ---------------------|---------------------15--15-12h14p12---------|
     -12p10p0-14\---------|---------------------------------------------|
     ---------------------|---------------------------------------------|
     ---------------------|---------------------------------------------|
     ---------------------|---------------------------------------------|
      ===t===                           ===t=== --t--- ---t-------------|
      |--------------------------------|--------------------------------|
      |-14p12--------------------------|--------------------------------|
      |------14-12---------------------|----------------9--12-----------|
      |------------14--12--------------|---------9--12---------12--9----|
      |--------------------14--13--12--|-10--11-------------------------|
      |--------------------------------|--------------------------------|
        ---t---           P.M.------------------------------------------|
        Bb5  A5      A5      A5      A5     E5
                A.H.      ~~~~~~~~~~                  ~~~~~~~ A.H.
      |----------------------------------|----------------------------|
      |----------------------------------|--------7--10^Full---10--8--|
      |----------------------------------|-----7----------------------|
      |--12--14--12--14--(14)----(14)\---|7/9-------------------------|
      |----------------------------------|----------------------------|
      |----------------------------------|----------------------------|

        G5                          A5                       F#5          ~~~~~~~~
      |---------------------------|-------------------------|--------------------|
      |-7-----7--8--7h8p7---------|-------------------------|--------------------|
      |----9-------------9--7--6--|-7---7^F-7---6---4---7---|-6------------------|
      |---------------------------|-------------------------|-----7---6---7^Full-|
      |---------------------------|-------------------------|--------------------|
      |---------------------------|-------------------------|--------------------|
                    ==t==           - - t - -   - - t - -     - - t - -
        E5          ~~~~~~~~          G5  ~~~~~~~          ~~~~~~~~~~~~
      |-----------------------------|-----15^Full-15p12-15p12------------|
      |---------12--15^Full-15p12---|-12---------------------------------|
      |-----12-------------------14-|------------------------------------|
      |/14--------------------------|------------------------------------|
      |-----------------------------|------------------------------------|
      |-----------------------------|------------------------------------|
                            ---t-----------------------------------------|
        A5                                                                 F#5
      |-20p15-20p15---------------14-14--------|--------------------------------|
      |----------------------10/12-----12\10---|-10-----------------------------|
      |-------------17p16p14----------------12-|----12-11h12-11h12p11p9-9\------|
      |----------------------------------------|--------------------------------|
      |----------------------------------------|--------------------------------|
      |----------------------------------------|--------------------------------|
                    ---t----           ---t---   ---t--===== ===t==-------------|
                                          Play x4
      |--------------------|---------------------|--------------|---------------|
      |*-------------------|--------------------*|--------------|---------------|
      |-------3----4----3--|-4----3----4---------|--------------|---------------|
      |*-3----3----4----3--|-4----3----4----4---*|--3-----------|------3--3--4--|
      |--3----1----2----1--|-2----1----2----4----|--3-----------|------3--3--6--|
      |--1-----------------|----------------2----|--1-----------|------1--1-----|
         >    >    >    >    >    >         >       >                 P.M--|

 Outro
                                             play 7x
      |----------------------|----------------------|----------------------|
      |*---------------------|---------------------*|----------------------|
      |-------3----4----3----|--4----3----4---------|-------3----4----3----|
      |*-3----3----4----3----|--4----3----4----4---*|--3----3----4----3----|
      |--3----1----2----1----|--2----1----2----4----|--3----1----2----1----|
      |--1-------------------|-----------------2----|--1-------------------|
         >    >    >    >       >    >    >    >       >    >    >    >

      |-----------|--------|-----------------------|-----------------------|
      |-----------|--------|-----------------------|-----------------------|
      |--4--------|-(4)----|-----------------------|-----------------------|
      |--4--------|-(4)----|--4--3----3----3----3--|--2--------------------|
      |--2--------|-(2)----|--4--3----3----3----3--|--2--------------------|
      |-----------|--------|--2--1----1----1----1--|--0--------------------|
         >                    >  >    >    >    >     >

That's it.It would of been better if they put some of kill em' all and ride the lightning
in there and also the unforgiven.ENJOY!
16 comments total. Showing first comments.
+1 reply
evilmetalboy wrote on November 24 2005, 12:46 pm

in "of Wolf and Man" the tabs are indeceiferable.

+1 reply
forwhomthebells wrote on December 24 2005, 06:17 am

i like short shorts

+1 reply
Hangar_18 wrote on February 5 2006, 05:50 pm

"master of puppets" is right i guess, but its not how kirk/james play it. the intro is played on the low E string

I want to post or [tab]
guest
You may want to rate the tab now too:
select rating
Please do not post tabs as comments. Select "correction" instead!