Oops, an error
Loading. Please wait.

Sabbra Cadabra Bass Tab

ver1
ver1

Whole song

Interactive

More versions @911Tabs.com
3,621 views 6 this week
no commentswrite comment
1 2 3 4 5
worth learning
x 4
Autoscroll
+/-
esc
set tempo
stop
Hey! There's an official Ultimate Guitar app which is ideal
for learning songs when you're away from computer. Get the app
WARNING: You are trying to view
                                    content from Ultimate-Guitar.com
                                    in an unauthorized application,
                                    which is prohibited.

                                    Please use an official Ultimate
                                    Guitar Tabs application for iPhone,
                                    iPad or Android to access legitimate
                                    chords, guitar, bass, and drum tabs
                                    from Ultimate-Guitar.com database.

                                    Type "ultimate guitar tabs" in Apple
                                    App Store's or Android Market's
                                    search to find the application.
Song: Sabbra Cadabra
Band: MetallicA (Original Black Sabbath)
Album: Garage Inc.

Transcribed By Eros Fratini (e-r-o-s@libero.it)
Tune down 2 whole step (!)
------------------------------ Bass Tab -------------------------------
Time 4/4
beat 146     --3-- = triplets (I place it only in the first line)

Intro:
:--------------------------------|--------------------------------|
:------------Guitar--------------|--------------------------------|
:--------------x7----------------|--------------------------------|
:--------------------------------|-----------------------------4-/|
          --3--           --3--            --3--           --3--
|--------------------------------|--------------------------------|
|--------------------------------|--------------------------------|
|--------------------------------|--------------------------------|
|-9---9---9-9-9---9---9---9-9-9--|-9---9---9-9-9---9---9---9-9-8--|

|--------------------------------|--------------------------------|
|--------------------------------|--------------------------------|
|--------------------------------|--------------------------------|
|-7---7---7-7-7---7---7---7-7-7--|-7---7---7-7-7---7---7---7-7-6--|

|--------------------------------|--------------------------------|
|--------------------------------|--------------------------------|
|--------------------------------|--------------------------------|
|-6---6---6-6-6---6---6---6-6-6--|-6---6---6-6-6---6---6---6-6-5--|

|--------------------------------|--------------------------------|
|--------------------------------|--------------------------------|
|--------------------------------|--------------------------------|
|-4---4---4-4-4---4---4---4-4-4--|-4---4---4-4-4---4---4---4/7-8--|

|--------------------------------|--------------------------------|
|--------------------------------|--------------------------------|
|--------------------------------|--------------------------------|
|-9---9---9-------9---9---7-8-9--|11--11-11-11-11-11--11--9-10-11-|

|--------------------------------|--------------------------------|
|--------------------------------|-----------/11---9---7----------|
|--------------------------------|-9---9---9---------------9---7--|
|12--12-12-12-12-12--12-12-11-12-|--------------------------------|

|--------------------------------|--------------------------------|
|--------------------------------|--------------------------------|
|--------------------------------|--------------------------------|
|-9-------9---9---9---9---7-8-9--|11--11--11--11--11--11--9-10-11-|

|--------------------------------|--------------------------------|
|--------------------------------|--------------------------------|
|--------------------------------|-9---9---9-/10---9--------------|
|12--12--12--12--12\-11--12--12--|--------------------12---9--\---|

|--------------------------------|--------------------------------|
|*-------------------------------|--------------------------------|
|*2---4-------4-------4---4-2----|-2---4-------4-------4---4------|
|-----------------------------4--|--------------------------------|
                                   
                                  1.
|--------------------------------|--------------------------------|
|->----->----->--->----->----->--|-------------------------------*|
|-2-----1-----2---1--------------|-2---4-------4-------4---4-2---*|
|-----------------------4-----2--|-----------------------------4--|

                                  2.
                                 |--------------------------------:
                                 |-----------------------------2--:
                                 |-4---4-------4---4---2---3h4----:
                                 |--------------------------------:

Verses 1, 2, 3:
:--------------------------------|--------------------------------|
:-----------------------------2--|-----------------------------2--|
:-4---4-------4---4---2---3h4----|-4---4-------4---4---2---3h4----|
:--------------------------------|--------------------------------|

|--------------------------------|--------------------------------|
|-----------------------------2--|-----------------------------2--|
|-2---2-------2---2---2---3h4----|-4---4-------4---4---2---3h4----|
|--------------------------------|--------------------------------|

|--------------------------------|--------------------------------|
|-----------------------------2--|-----------------------------2--|
|-4---4-------4---4---2---3h4----|-4---4-------4---4---2---3h4----|
|--------------------------------|--------------------------------|

|--------------------------------|--------------------------------:
|-----------------------------2--|--------------------------------:
|-2---2-------2---2---2---3h4----|-4---4-------4---4---4---2------:
|--------------------------------|-----------------------------4--:

Chorus:
:--------------------------------|--------------------------------|
:-----------------4---4----------|-4---2-----------2---4---4---4--|
:--------------------------------|---------4---2------------------|
:-2-------2---2-----------2---2--|--------------------------------|

|--------------------------------|--------------------------------|
|-6---6-----------6--------------|-6-------4----------------------|
|--------------------------------|-----------------7-------6------|
|---------4---4-------4---4---4--|-4------------------------------|

|--------------------------------|--------------------------------|
|-----------------------------2--|--------------------------------|
|-2---4-------4-------2---3h4----|-2---4-------4-------4---4------|
|--------------------------------|--------------------------------|

|--------------------------------|--------------------------------|
|->----->----->--->--------------|--------------------------------|
|-2-----1-----2---1----->----->--|-4---4-------4-------4---2------|
|-----------------------4-----2--|-----------------------------4--|

          (third time go to Coda)* <-- from here
|--------------------------------|--------------------------------|
|-----------------4---4----------|-----------------4--------------|
|--------------------------------|--------------------------------|
|-2-------2---2-----------2---2--|-2-------2---2---2-------2--/---|

                                  1.
|--------------------------------|--------------------------------|
|--------------------------------|--------------------------------|
|-----------------6--------------|-6-----------6------------------|
|-4-------4---4---4--------------|-4-----------4-------4---4--\---|

|--------------------------------|--------------------------------|
|-----------------------------2--|--------------------------------|
|-2---4-------4-------2---3h4----|-2---4-------4-------4---4------|
|--------------------------------|--------------------------------|

|--------------------------------|--------------------------------|
|->----->----->--->--------------|-----------------------------2--|
|-2-----1-----2---1----->----->--|-4---4-------4-------2---3h4----|
|-----------------------4-----2--|--------------------------------|

|--------------------------------|--------------------------------|
|--------------------------------|--------------------------------|
|-2---4-------4-------4---4-2----|-2---4-------4-------4---4------|
|-----------------------------4--|--------------------------------|

|--------------------------------|--------------------------------|
|->----->----->--->--------------|-------------------------------*|
|-2-----1-----2---1----->----->--|-4---4-------4---------------2-*|
|-----------------------4-----2--|---------------------2---4------|

Repeat Verse for 2nd verse, then chorus
                                  2.
                                 |--------------------------------:
                                 |-6-------4----------------------:
                                 |-----------------7-------6------:
                                 |-4------------------------------:

 Interlude (after 2nd chorus):
:--------------------------------|--------------------------------|
:--------------------------------|--------------------------------|
:-4------------------------------|--------------------------------|
:--------------------------------|--------------------------------|

|--------------------------------|--------------------------------|
|--------------------------------|--------------------------------|
|(4)-------------\---------------|--------------------------------|
|--------------------------------|--------------------------------|

|--------------------------------|--------------------------------|
|--------------------------------|--------------------------------|
|-4-----------4-----------4------|--------------------------------|
|--------------------------------|--------------------------------|

|--------------------------------|--------------------------------|
|--------------------------------|--------------------------------|
|-4-----------4-----------4------|--------(4)\--------------------|
|--------------------------------|--------------------------------|

|--------------------------------|--------------------------------|
|*-------------------------------|--------------------------------|
|*4-----------4-----------4------|-------------------------2---3--|
|--------------------------------|--------------------------------|

                                  1. 2.
|--------------------------------|--------------------------------|
|--------------------------------|---------------------6---4-----*|
|-4-----------4-----------4------|-------------------------2-7\3-*|
|--------------------------------|---------------------4----------|
          
                                  3.
                                 |--------------------------------|
                                 |--------------------------------|
                                 |-------------------------9-h11-/|
                                 |--------------------------------|

|--------------------------------|--------------------------------|
|->----------->----------->------|->----------->----------->------|
|16----------14----------11------|-9-----------7-----------6------|
|--------------------------------|--------------------------------|

|--------------------------------|--------------------------------|
|->--------------->--------------|->--------------->--------------|
|16--------------14--------------|11---------------9-------\------|
|--------------------------------|--------------------------------|

Half Time                                                                                                1. 2. 4.    
|--------------------------------|--------------------------------|
|*-------------------------------|-------------------------------*| 
|*5h7-----7---7---5h7------------|-5h7-----7-------5---5---------*|
|-----0---------------0-0-3-2-2--|-----0-0---5h7-0-------7-2-3-2--|
 
                                  3.
                                 |--------------------------------|
                                 |-----------7h9p7---------4-5-4-*|
                                 |-5h7-----7-------5---5---------*|
                                 |-----0-0---------------7--------|

|--------------------------------|--------------------------------|
|--------------------------------|--------------------------------|
|-7-------7----------------------|-5---5---5---5------------------|
|-0-------0-------3---3---3-3h5--|-----------------5-------7-5-3--|

|--------------------------------|--------------------------------|
|--------------------------------|--------------------------------|
|-5h7-----7---7---5h7------------|-5h7-----7-------5---5----------|
|-----0---------------0-0-3-2-2--|-----0-0---5h7-0-------7-2-3-2--|

                                                 -----6-----
|--------------------------------|--------------------------------|
|--------------------------------|-------------5-7-7-7-7-7-7-5----|
|-7-------7----------------------|-5---5---5-7-----------------7--|
|-0-------0-------3---3---3-3h5--|--------------------------------|

|--------------------------------|--------------------------------|
|--------------------------------|--------------------------------|
|-5h7-----7---7---5h7------------|-5h7-----7-------5---5----------|
|-----0---------------0-0-3-2-2--|-----0-0---5h7-0-------7-2-3-2--|

                        ---6---
|--------------------------------|--------------------------------|
|--------------------------------|--------------------------------|
|-------------7h10---------------|--------------------------------|
|-8---8---8-------7---7-7777775--|-3-3-3--3----3---5--555-555333--|

|--------------------------------|--------------------------------|
|--------------------------------|--------------------------------|
|-5h7-----7---7---5h7------------|-5h7-----7-------5---5----------|
|-----0---------------0-0-3-2-2--|-----0-0---5h7-0-------7-2-3-2--|

|--------------------------------|--------------------------------|
|--------------------------------|--------------------------------|
|---------7-10-7-----------------|--------------------------------|
|-8---8-8-------8--7-7-7-7-10-7-\|-3--3-3--3--3-3--5-5-5-5-5-5-7--|

|--------------------------------|--------------------------------|
|----------------------b5--------|--------------------------------|
|-5-7-----------5-7-5-7---7-5----|-5-7----------------------------|
|-------------7---------------7--|--------------------------------|

Fig. 1                                                    end Fig.1
:--------------------------------|--------------------------------:
:----------------------b5--------|--------------------------------:
:-5-7-----------5-7-5-7---7-5----|-5-7----------------------------:
:-------------7---------------7--|-----------------------------7--:

Repeat Fig.1 x 3 

|--------------------------------|--------------------------------|
|----------------------b5--------|--------------------------------|
|-5-7-----------5-7-5-7---7-5----|-5-7-----------7---------5h7-5--|
|-------------7---------------7--|-------------------7------------|

|--------------------------------|--------------------------------|
|--------------------------------|--------------------------------|
|-7---7---5---5------------------|-7---7-7-5---5------------------|
|----------------b5-----5-3---3--|----------------b5-----5-3---3--|

|--------------------------------|--------------------------------|
|--------------------------------|--------------------------------|
|-7---7-7-5---5------------------|--------------------------------|
|----------------b5-----5-3---3--|-7-7-7-7-7-7-7-7-7-7-7-7-7------|

End Half Time

|--------------------------------|--------------------------------|
|--------------------------------|--------------------------------|
|--------------------------------|--------------------------------|
|-9---9---9-9-9---9---9---9-9-9--|-9---9---9-9-9---9---9---9-9-8--|

|--------------------------------|--------------------------------|
|--------------------------------|--------------------------------|
|--------------------------------|--------------------------------|
|-7---7---7-7-7---7---7---7-7-7--|-7---7---7-7-7---7---7---7-7-6--|

|--------------------------------|--------------------------------|
|--------------------------------|--------------------------------|
|--------------------------------|--------------------------------|
|-6---6---6-6-6---6---6---6-6-6--|-6---6---6-6-6---6---6---7-6-5--|

|--------------------------------|--------------------------------:
|--------------------------------|--------------------------------:
|--------------------------------|---------------------------2-3--:
|-4---4---4-4-4---4---4---4-4-4--|-4---4---4-4-4---4---4---4------:

3rd Verse
Chorus (until * to Coda)

Coda:
:--------------------------------|--------------------------------|
:--------------------------------|-----------------6---6---6------|
:--------------------------------|-----------------------------6--|
:-2-------2---2---4---4---5---5--|-4-------4----------------------|

|--------------------------------|--------------------------------|
|-6-------4-----------4----------|--------------------------------|
|-----------------7--------------|-2---4-------4-------4---4-2----|
|--------------------------------|-----------------------------4--|

|--------------------------------|--------------------------------|
|--------------------------------|->----->----->--->--------------|
|-2---4-------4-------4---4------|-2-----1-----2---1----->----->--|
|--------------------------------|-----------------------4-----2--|

|--------------------------------|--------------------------------|
|--------------------------------|-----------------------------2--|
|-4---4-------4-------4---4------|-2---4-------4-------4---2h4----|
|-----------------------------4--|--------------------------------|

|--------------------------------|--------------------------------|
|--------------------------------|->----->----->--->--------------|
|-2---4-------4-------4---4------|-2-----1-----2---1----->----->--|
|--------------------------------|-----------------------4-----2--|

|--------------------------------|--------------------------------:
|--------------------------------|--------------------------------:
|-4---4-------4-------4---4---2--|-4--------\------1--------------:
|--------------------------------|--------------------------------: End


...I've finally done!
-----------------------------------------------------------------------
comments
print report bad tab
I want to post or [tab]
guest
You may want to rate the tab now too:
select rating
Please do not post tabs as comments. Select "correction" instead!