Oops, an error
Loading. Please wait.

Seek And Destroy Bass Tab

ver2
ver2

Whole song

More versions @911Tabs.com
60,105 views 376 this week
no commentswrite comment
1 2 3 4 5
accurate
x 11
Autoscroll
+/-
esc
set tempo
stop
Contributor
WARNING: You are trying to view
                                    content from Ultimate-Guitar.com
                                    in an unauthorized application,
                                    which is prohibited.

                                    Please use an official Ultimate
                                    Guitar Tabs application for iPhone,
                                    iPad or Android to access legitimate
                                    chords, guitar, bass, and drum tabs
                                    from Ultimate-Guitar.com database.

                                    Type "ultimate guitar tabs" in Apple
                                    App Store's or Android Market's
                                    search to find the application.
--------------------------------------------------------------------------
                            Seek And Destroy - Metallica
                                 Kill Em  All
--------------------------------------------------------------------------
Tabbed By : Nick Prosper
Location: Corner Brook, Newfoundland Canada
E-mail: nick_prosper@nf.sympatico.ca or nick.prosper@gmail.com
MSN: newfie_bassist@hotmail.com
AGE: 21

Tabbed: December 25, 2004

Submitted to http://www.ultimate-guitar.com Dec 25, 2004
Equipment: Schecter Diamond Series 5 String Elite Bass w/EMG-HZ Active Pickups. 1 X 15"
Peavey Cab, 2 X 10" Peavey Cab, Peavey Classic series 120/120 Power Amp. Trace Elliot
GP12-SMX 12 Band Graphic EQ Pre-amplification System.

This is the Seek and Destroy bass tab which is off the Kil Em All album. 
I play this song with my fingers, I like to keep it origional as possible When playing,
Burton used fingers, Newsted used pick. This tab may not be 
exactly how it is played from a book you may buy for Metallica bass tabs. But this is
how I play it. I have a progressive style so have fun!

If you would like to have the sound files which I recorded for this song which is only
bass, please feel free to email me.

If You have any suggestions/changes or coments, please feel free email them on as well


Tuning : Standard

G|-----------------------------------|
D|-------------------5h7-77-7-7-7-7--|
A|-0-0-0-0-0-0-0-0-0-----------------|
E|-----------------------------------|

G|-------------------------------5----------------------------------5---|
D|-----5h7-----5h7-----------5-----7------5h7-----5h7-----------5-----7-|
A|-0-0-----0-0-----0---0-7-6---7------0-0-----0-0-----0---0-7-6---7-----|
E|----------------------------------------------------------------------|

G|-------------------------------5----------------------------------5---|
D|-----5h7-----5h7-----------5-----7------5h7-----5h7-----------5-----7-|
A|-0-0-----0-0-----0---0-7-6---7------0-0-----0-0-----0---0-7-6---7-----|
E|----------------------------------------------------------------------|

G|------------|------------------------------------------------------|
D|------------|------------------------------------------------------|
A|------------|-----------------------------7-7-7-7-7-5h7-77-7-7-7-7-|
E|--0--12\--0-|--0---0----0-0---0---0-0-0-0-0-0-0-0-0----------------|

G|------------------------------------------------------------------|
D|------------------------------------------------------------------|
A|-------------------------7-5------------------------------7-5-----|
E|-0-0-0-0-3-5-3-5-0-0-0-0-----7-6--0-0-0-0-3-5-3-5-0-0-0-0-----7-6-|

G|------------------------------------------------------------------|
D|------------------------------------------------------------------|
A|-------------------------7-5------------------------------7-5-----|
E|-0-0-0-0-3-5-3-5-0-0-0-0-----7-6--0-0-0-0-3-5-3-5-0-0-0-0-----7-6-|

G|-----------------------------------------------------------------|
D|-----------------------------5-----------------------------------|
A|-------------------------------7---------------------------------|
E|-0-0-0-0-0-0-0-0-0-0-0-0-7-6-----0-0-0-0-0-0-0-0-0-0-0-0-7-6-3-0-|

G|-----------------------------------------------------------------|
D|-----------------------------5-----------------------------------|
A|-------------------------------7---------------------------------|
E|-0-0-0-0-0-0-0-0-0-0-0-0-7-6-----0-0-0-0-0-0-0-0-0-0-0-0-7-6-3-0-|

G|-----------------------------------------------------------------|
D|-----------------------------5-----------------------------------|
A|-------------------------------7---------------------------------|
E|-0-0-0-0-0-0-0-0-0-0-0-0-7-6-----0-0-0-0-0-0-0-0-0-0-0-0-7-6-3-0-|

G|-----------------------------------------------------------------|
D|-----------------------------5-----------------------------------|
A|-------------------------------7---------------------------------|
E|-0-0-0-0-0-0-0-0-0-0-0-0-7-6-----0-0-0-0-0-0-0-0-0-0-0-0-7-6-3-0-|

G|-----------------------------------------------7-5-------------|
D|------------------------5---5h7--------------------7-6-5-------|
A|-3-0-0-0-3-5-3--3-0-0-7---7-----3-0-0-0-3-5-3------------7-6-5-|
E|---------------------------------------------------------------|

G|----------------------------------------------|
D|------------------------5---5h7---------------|
A|-3-0-0-0-3-5-3--3-0-0-7---7-----3-0-0-0-3-5-3-|
E|----------------------------------------------|

                                    Searchin.......Seek & Destroy
G|-9-7---7----------------------------------------------------------
D|-----9---9-8-7-5----------------------5-----5---5-----4-------3---|
A|-----------------7-5---5------------------------------------------|
E|---------------------7---7-6-5-0--3-3---3-3---3---2-2---2-1-1---1-|

G|---------------------------------|
D|---------------------------------|
A|----------------------5---7---7\-|
E|--0-0-0-0-0-0-0-0-5-7---0---0----|

G|----------------------------------|
D|------5-----5---5-----4-------3---|
A|----------------------------------|
E|--3-3---3-3---3---2-2---2-1-1---1-|

G|------------------------------------|
D|------------------------------------|
A|----------------------7-----7--7-7\-|
E|--0-0-0-0-0-0-0-0-0-0---0-0---0-----|

G|----------------------------------|
D|------5-----5---5-----4-------3---|
A|----------------------------------|
E|--3-3---3-3---3---2-2---2-1-1---1-|

G|---------------------------------|
D|---------------------------------|
A|-----7-----7---7---7-5-----------|
E|-0-0---0-0---0---0-----7-6-5-3-0-|

G|----------------------------------|
D|------5-----5---5-----4-------3---|
A|----------------------------------|
E|--3-3---3-3---3---2-2---2-1-1---1-|

G|-----------------------------------------------------------------|
D|-----------------------------------------------------------------|
A|-------------------------7-5-------------------------------5-6-7-|
E|-0-0-0-0-3-5-3-5-0-0-0-0-----7-6-0-0-0-0-3-5-3-5-0-3-5-6-7-------|

G|-----------------------------------------------------------------|
D|-----------------------------------------------------------------|
A|-------------------------7-5-----------------------------7-5-----|
E|-0-0-0-0-3-5-3-5-0-0-0-0-----7-6-0-0-0-0-3-5-3-5-0-0-0-0-----7-6-|

G|-----------------------------------------------------------------|
D|-----------------------------5-----------------------------------|
A|-------------------------------7-----7-----7---7-----------------|
E|-0-0-0-0-0-0-0-0-0-0-0-0-7-6-----0-0---0-0---0---0-0-0-0-7-6-3-0-|

G|-----------------------------------------------------------------|
D|-----------------------------5-----------5-----------------------|
A|-------------------------------7-----5h6---7-7-5h7-7-7-7---------|
E|-0-0-0-0-0-0-0-0-0-0-0-0-7-6-----0-0---------------------7-6-3-0-|

G|-----------------------------------------------7-5-------------|
D|------------------------5---5h7--------------------7-6-5-------|
A|-3-0-0-0-3-5-3--3-0-0-7---7-----3-0-0-0-3-5-3------------7-6-5-|
E|---------------------------------------------------------------|

G|----------------------------------------------|
D|------------------------5---5h7---------------|
A|-3-0-0-0-3-5-3--3-0-0-7---7-----3-0-0-0-3-5-3-|
E|----------------------------------------------|

                                    Searchin.......Seek & Destroy
G|-9-7---7----------------------------------------------------------
D|-----9---9-8-7-5----------------------5-----5---5-----4-------3---|
A|-----------------7-5---5------------------------------------------|
E|---------------------7---7-6-5-0--3-3---3-3---3---2-2---2-1-1---1-|

G|---------------------------------|
D|---------------------------------|
A|----------------------5---7---7\-|
E|--0-0-0-0-0-0-0-0-5-7---0---0----|

G|----------------------------------|
D|------5-----5---5-----4-------3---|
A|----------------------------------|
E|--3-3---3-3---3---2-2---2-1-1---1-|

G|------------------------------------|
D|------------------------------------|
A|----------------------7-----7--7-7\-|
E|--0-0-0-0-0-0-0-0-0-0---0-0---0-----|

G|----------------------------------|
D|------5-----5---5-----4-------3---|
A|----------------------------------|
E|--3-3---3-3---3---2-2---2-1-1---1-|

G|---------------------------------|
D|---------------------------------|
A|-----7-----7---7---7-5-----------|
E|-0-0---0-0---0---0-----7-6-5-3-0-|

G|---------------------------------------------------||------------------|
D|------5-----5---5-----4-------3--------------------||--------DRUMS-----|
A|---------------------------------------------------||------------------|
E|--3-3---3-3---3---2-2---2-1-1---1----0-LET-RING---0||------------------|

G|----------------------------------------------------------------|
D|--------------------7--7-------7--7-------7--7------------------|
A|-------8-7-5-----000-00-0-5-000-00-0-3-000-00-0-------8-7-5-----|
E|-8-7-5-------8-7--------------------------------8-7-5-------8-7-|

G|-----------------------------------------------|
D|---7--7-------7--7-------7--7------------------|
A|000-00-0-5-000-00-0-3-000-00-0-------8-7-5-----|
E|-------------------------------8-7-5-------8-7-|

G|-------------------------------------------|
D|---5--5--5----4----3-----------------------|
A|----------------------------------5-7-0-7\-|
E|-33-33-33-3-22-2-11-1-00000000-5h7-0-------|

G|-----------------------------------------|
D|---5--5--5----4----3---------------------|
A|------------------------7--7---75-5------|
E|-33-33-33-3-22-2-11-1-00-00-00---7-765-0-|

G|-------------------------------------------|
D|---5--5--5----4----3-----------------------|
A|----------------------------------5-7-0-7\-|
E|-33-33-33-3-22-2-11-1-00000000-5h7-0-------|

G|---------------------|
D|---5--5--5----4----3-|
A|---------------------|
E|-33-33-33-3-22-2-11-1|

G|--------------------------------------|
D|--------------------------------------|
A|----7--7-5h7-7--7-9p7-7--7------320---|
E|-000-00-0---0-00-0---0-00-0--320---32-|

G|--------------------------------------|
D|--------------------------------------|
A|----7--7-5h7-7--7-9p7-7--7------320---|
E|-000-00-0---0-00-0---0-00-0--320---32-|

G|--------------------------------------|
D|--------------------------------------|
A|----7--7-5h7-7--7-9p7-7--7------320---|
E|-000-00-0---0-00-0---0-00-0--320---32-|

G|------------------------------------------------------------|
D|------------------------------------------------------------|
A|----7--7-5h7-7--7-9p7-7--7------320------320----------------|
E|-000-00-0---0-00-0---0-00-0--320---32-320---32-5-RING----5\-|

G|-----------------------------------------------------------|
D|-----------------------------------------5h7-7-7-7-7-7-7-7-|
A|--0--0--0------0--0--0---0-0-0-0-0-0-0-0-------------------|
E|-----------------------------------------------------------|

G|-------------------------------5----------------------------------5---|
D|-----5h7-----5h7-----------5-----7------5h7-----5h7-----------5-----7-|
A|-0-0-----0-0-----0---0-7-6---7------0-0-----0-0-----0---0-7-6---7-----|
E|----------------------------------------------------------------------|

G|-------------------------------5----------------------------------5---|
D|-----5h7-----5h7-----------5-----7------5h7-----5h7-----------5-----7-|
A|-0-0-----0-0-----0---0-7-6---7------0-0-----0-0-----0---0-7-6---7-----|
E|----------------------------------------------------------------------|

G|-------------------------------------------------------------------|
D|-------------------------------------------------------------------|
A|-----------------------------7-5-----------------------------5-6-7-|
E|-0-12\-0-0-0-0-3-5-3-5-0-0-0----7-6-0-0-0-0-3-5-3-5-0-3-5-6-7------|

G|-----------------------------------------------------------------|
D|-----------------------------------------------------------------|
A|-------------------------7-5-----------------------------7-5-----|
E|-0-0-0-0-3-5-3-5-0-0-0-0-----7-6-0-0-0-0-3-5-3-5-0-0-0-0-----7-6-|

G|-----------------------------------------------------------------|
D|-----------------------------5-----------------------------------|
A|-------------------------------7-----7-----7---7-----------------|
E|-0-0-0-0-0-0-0-0-0-0-0-0-7-6-----0-0---0-0---0---0-0-0-0-7-6-3-0-|

G|-----------------------------------------------------------------|
D|-----------------------------5-----------5-----------------------|
A|-------------------------------7-----5h6---7-7-5h7-7-7-7---------|
E|-0-0-0-0-0-0-0-0-0-0-0-0-7-6-----0-0---------------------7-6-3-0-|

G|-----------------------------------------------7-5-------------|
D|------------------------5---5h7--------------------7-6-5-------|
A|-3-0-0-0-3-5-3--3-0-0-7---7-----3-0-0-0-3-5-3------------7-6-5-|
E|---------------------------------------------------------------|

G|----------------------------------------------|
D|------------------------5---5h7---------------|
A|-3-0-0-0-3-5-3--3-0-0-7---7-----3-0-0-0-3-5-3-|
E|----------------------------------------------|

                                    Searchin.......Seek & Destroy
G|-9-7---7----------------------------------------------------------
D|-----9---9-8-7-5----------------------5-----5---5-----4-------3---|
A|-----------------7-5---5------------------------------------------|
E|---------------------7---7-6-5-0--3-3---3-3---3---2-2---2-1-1---1-|

G|---------------------------------|
D|---------------------------------|
A|----------------------5---7---7\-|
E|--0-0-0-0-0-0-0-0-5-7---0---0----|

G|----------------------------------|
D|------5-----5---5-----4-------3---|
A|----------------------------------|
E|--3-3---3-3---3---2-2---2-1-1---1-|

G|------------------------------------|
D|------------------------------------|
A|----------------------7-----7--7-7\-|
E|--0-0-0-0-0-0-0-0-0-0---0-0---0-----|

G|----------------------------------|
D|------5-----5---5-----4-------3---|
A|----------------------------------|
E|--3-3---3-3---3---2-2---2-1-1---1-|

G|---------------------------------|
D|---------------------------------|
A|-----7-----7---7---7-5-----------|
E|-0-0---0-0---0---0-----7-6-5-3-0-|

G|---------------------------------------------------------------------|
D|------5-----5---5-----4-------3--------------------------------------|
A|---------------------------------------------------------------------|
E|--3-3---3-3---3---2-2---2-1-1---1----0-0-0-0-0-0-0-0-0-0-0-0-0-0-0-0-|

G|--------------------------------------------------------------------|
D|--------------------------------------------------------------------|
A|-10-9-----9-8-----8-7---------------10-9-----9-5-----5-7-----7----7-|
E|------0-0-----0-0-----0-0-0-0-0-0-0------0-0-----0-0-----0-0--0-0---|

G|--------------------------------------------------------------------|
D|--------------------------------------------------------------------|
A|-10-9-----9-8-----8-7---------------10-9-----9-5-----5-7-----7----7-|
E|------0-0-----0-0-----0-0-0-0-0-0-0------0-0-----0-0-----0-0--0-0---|

G|--------------------------------------------------------------------|
D|--------------------------------------------------------------------|
A|-10-9-----9-8-----8-7---------------10-9-----9-5-----5-7-----7----7-|
E|------0-0-----0-0-----0-0-0-0-0-0-0------0-0-----0-0-----0-0--0-0---|

G|--------------------------------------------------------------------|
D|--------------------------------------------------------------------|
A|-10-9-----9-8-----8-7---------------10-9-----9-5-----5-7-----7----7-|
E|------0-0-----0-0-----0-0-0-0-0-0-0------0-0-----0-0-----0-0--0-0---|

G|-----------------------------------------------------------------------|
D|-----------------------------------------------------------------------|
A|10\--------------------------------------------------------------------|
E|---0-0-2-0-0-3-0-0-2-0-0-3-0-0-5-3---0-0-2-0-0-3-0-0-2-0-0-3-0-0-5-3-0-|

G|---------------------------------------------------------------------|
D|---------------------------------------------------------------------|
A|---------------------------------------------------------------------|
E|-0-0-2-0-0-3-0-0-2-0-0-3-0-0-5-3---0-0-2-0-0-3-0-0-2-0-0-3-0-0-5-3-0-|

G|---------------------------------------------------------------------|
D|---------------------------------------------------------------------|
A|---------------------------------------------------------------------|
E|-0-0-2-0-0-3-0-0-2-0-0-3-0-0-5-3---0-0-2-0-0-3-0-0-2-0-0-3-0-0-5-3-0-|

G|---------------------------------------------------------------------|
D|---------------------------------------------------------------------|
A|---------------------------------------------------------------------|
E|-0-0-2-0-0-3-0-0-2-0-0-3-0-0-5-3---0-0-2-0-0-3-0-0-2-0-0-3-0-0-5-3-0-|

G|----------------------------------------||
D|----------------------------------------||
A|-------------------------------------7--||
E|--0-----0------0------0------0-0-0-0-0--||

| /  slide up
| \  slide down
| h  hammer-on
| p  pull-off
| ~  vibrato
| +  harmonic
| x  Mute note
==========================================================================
I want to post or [tab]
guest
You may want to rate the tab now too:
select rating
Please do not post tabs as comments. Select "correction" instead!